  0
SECTION
  2
HEADER
  9
$ACADVER
  1
AC1015
  9
$INSBASE
 10
114.59353433611982
 20
-149.91199704510089
 30
0.00000000000000
  9
$EXTMIN
 10
23.20812931327751
 20
-293.64488603110379
 30
0.00000000000000
  9
$EXTMAX
 10
205.97893935896212
 20
-6.17910805909799
 30
0.00000000000000
  9
$LTSCALE
 40
1.00000000000000
  9
$CLAYER
  8
Planrahmen
  9
$TDCREATE
 40
2459081.60456018520000
  9
$TDINDWG
 40
0.03487106315625
  9
$HANDSEED
  5
FF0000
  0
ENDSEC
  0
SECTION
  2
CLASSES
  0
CLASS
  1
ACDBDICTIONARYWDFLT
  2
AcDbDictionaryWithDefault
  3
AutoCAD 2000
 90
        0
280
     0
281
     0
  0
CLASS
  1
ACDBPLACEHOLDER
  2
AcDbPlaceHolder
  3
AutoCAD 2000
 90
        0
280
     0
281
     0
  0
ENDSEC
  0
SECTION
  2
TABLES
  0
TABLE
  2
VPORT
  5
2
330
0
100
AcDbSymbolTable
 70
     0
  0
ENDTAB
  0
TABLE
  2
LTYPE
  5
3
330
0
100
AcDbSymbolTable
 70
     8
  0
LTYPE
  5
4
330
3
100
AcDbSymbolTableRecord
100
AcDbLinetypeTableRecord
  2
BYBLOCK
 70
     0
  3

 72
    65
 73
     0
 40
0.00000000000000
  0
LTYPE
  5
5
330
3
100
AcDbSymbolTableRecord
100
AcDbLinetypeTableRecord
  2
BYLAYER
 70
     0
  3

 72
    65
 73
     0
 40
0.00000000000000
  0
LTYPE
  5
6
330
3
100
AcDbSymbolTableRecord
100
AcDbLinetypeTableRecord
  2
CONTINUOUS
 70
     0
  3
Ausgezogene Linie
 72
    65
 73
     0
 40
0.00000000000000
  0
LTYPE
  5
7
330
3
100
AcDbSymbolTableRecord
100
AcDbLinetypeTableRecord
  2
DC_VERDECKT
 70
     0
  3
_ _ _ _ _ _ _ _ _ _
 72
    65
 73
     2
 40
7.00000000000000
 49
4.66900000000000
 74
     0
 49
-2.33100000000000
 74
     0
  0
LTYPE
  5
8
330
3
100
AcDbSymbolTableRecord
100
AcDbLinetypeTableRecord
  2
DC_GEPUNKTET
 70
     0
  3
...................
 72
    65
 73
     2
 40
2.00000000000000
 49
0.50000000000000
 74
     0
 49
-1.50000000000000
 74
     0
  0
LTYPE
  5
9
330
3
100
AcDbSymbolTableRecord
100
AcDbLinetypeTableRecord
  2
DC_MITTELLINIE
 70
     0
  3
____ _ ____ _ ____ 
 72
    65
 73
     4
 40
20.00000000000000
 49
15.00000000000000
 74
     0
 49
-2.00000000000000
 74
     0
 49
1.00000000000000
 74
     0
 49
-2.00000000000000
 74
     0
  0
LTYPE
  5
A
330
3
100
AcDbSymbolTableRecord
100
AcDbLinetypeTableRecord
  2
DC_PHANTOM
 70
     0
  3
_______ _ _ _______
 72
    65
 73
     6
 40
25.00000000000000
 49
17.00000000000000
 74
     0
 49
-2.00000000000000
 74
     0
 49
1.00000000000000
 74
     0
 49
-2.00000000000000
 74
     0
 49
1.00000000000000
 74
     0
 49
-2.00000000000000
 74
     0
  0
LTYPE
  5
B
330
3
100
AcDbSymbolTableRecord
100
AcDbLinetypeTableRecord
  2
DC_STRICHDREIPUNKTIERT
 70
     0
  3
______ _ _ _ ______
 72
    65
 73
     8
 40
28.00000000000000
 49
18.76000000000000
 74
     0
 49
-1.68000000000000
 74
     0
 49
0.84000000000000
 74
     0
 49
-1.68000000000000
 74
     0
 49
0.84000000000000
 74
     0
 49
-1.68000000000000
 74
     0
 49
0.84000000000000
 74
     0
 49
-1.68000000000000
 74
     0
  0
ENDTAB
  0
TABLE
  2
LAYER
  5
C
330
0
100
AcDbSymbolTable
 70
     3
  0
LAYER
  5
D
330
C
100
AcDbSymbolTableRecord
100
AcDbLayerTableRecord
  2
0
 70
     0
 62
     7
  6
CONTINUOUS
370
    25
390
1
  0
LAYER
  5
E
330
C
100
AcDbSymbolTableRecord
100
AcDbLayerTableRecord
  2
Planrahmen
 70
    64
 62
     7
  6
CONTINUOUS
370
    25
390
1
  0
LAYER
  5
F
330
C
100
AcDbSymbolTableRecord
100
AcDbLayerTableRecord
  2
Zeichnung 5
 70
    64
 62
     7
  6
CONTINUOUS
370
    25
390
1
  0
ENDTAB
  0
TABLE
  2
STYLE
  5
10
330
0
100
AcDbSymbolTable
 70
     2
  0
STYLE
  5
11
330
10
100
AcDbSymbolTableRecord
100
AcDbTextStyleTableRecord
  2
STANDARD
 70
     0
 40
0.00000000000000
 41
1.00000000000000
 50
0.00000000000000
 71
     0
 42
3.50000000000000
  3
txt
  4

  0
ENDTAB
  0
TABLE
  2
VIEW
  5
12
330
0
100
AcDbSymbolTable
 70
     0
  0
ENDTAB
  0
TABLE
  2
UCS
  5
13
330
0
100
AcDbSymbolTable
 70
     0
  0
ENDTAB
  0
TABLE
  2
APPID
  5
14
330
0
100
AcDbSymbolTable
 70
     2
  0
APPID
  5
15
330
14
100
AcDbSymbolTableRecord
100
AcDbRegAppTableRecord
  2
ACAD
 70
     0
  0
APPID
  5
16
330
14
100
AcDbSymbolTableRecord
100
AcDbRegAppTableRecord
  2
DIG-CAD
 70
     0
  0
ENDTAB
  0
TABLE
  2
DIMSTYLE
  5
17
330
0
100
AcDbSymbolTable
 70
     0
100
AcDbDimStyleTable
 71
     0
  0
ENDTAB
  0
TABLE
  2
BLOCK_RECORD
  5
33
330
0
100
AcDbSymbolTable
 70
    27
  0
BLOCK_RECORD
  5
34
330
33
100
AcDbSymbolTableRecord
100
AcDbBlockTableRecord
  2
*MODEL_SPACE
340
0
  0
BLOCK_RECORD
  5
35
330
33
100
AcDbSymbolTableRecord
100
AcDbBlockTableRecord
  2
*PAPER_SPACE
340
0
  0
BLOCK_RECORD
  5
18
330
33
100
AcDbSymbolTableRecord
100
AcDbBlockTableRecord
  2
*U1
340
0
102
{BLKREFS
331
36
102
}
  0
BLOCK_RECORD
  5
19
330
33
100
AcDbSymbolTableRecord
100
AcDbBlockTableRecord
  2
*U2
340
0
102
{BLKREFS
331
37
102
}
  0
BLOCK_RECORD
  5
1A
330
33
100
AcDbSymbolTableRecord
100
AcDbBlockTableRecord
  2
*U3
340
0
102
{BLKREFS
331
38
102
}
  0
BLOCK_RECORD
  5
1B
330
33
100
AcDbSymbolTableRecord
100
AcDbBlockTableRecord
  2
*U4
340
0
102
{BLKREFS
331
39
102
}
  0
BLOCK_RECORD
  5
1C
330
33
100
AcDbSymbolTableRecord
100
AcDbBlockTableRecord
  2
*U5
340
0
102
{BLKREFS
331
3A
102
}
  0
BLOCK_RECORD
  5
1D
330
33
100
AcDbSymbolTableRecord
100
AcDbBlockTableRecord
  2
*U6
340
0
102
{BLKREFS
331
3B
102
}
  0
BLOCK_RECORD
  5
1E
330
33
100
AcDbSymbolTableRecord
100
AcDbBlockTableRecord
  2
*U7
340
0
102
{BLKREFS
331
3C
102
}
  0
BLOCK_RECORD
  5
1F
330
33
100
AcDbSymbolTableRecord
100
AcDbBlockTableRecord
  2
*U8
340
0
102
{BLKREFS
331
3D
102
}
  0
BLOCK_RECORD
  5
20
330
33
100
AcDbSymbolTableRecord
100
AcDbBlockTableRecord
  2
*D1
340
0
102
{BLKREFS
331
3E
102
}
  0
BLOCK_RECORD
  5
21
330
33
100
AcDbSymbolTableRecord
100
AcDbBlockTableRecord
  2
*U9
340
0
102
{BLKREFS
331
3F
102
}
  0
BLOCK_RECORD
  5
22
330
33
100
AcDbSymbolTableRecord
100
AcDbBlockTableRecord
  2
*U10
340
0
102
{BLKREFS
331
40
102
}
  0
BLOCK_RECORD
  5
23
330
33
100
AcDbSymbolTableRecord
100
AcDbBlockTableRecord
  2
*U11
340
0
102
{BLKREFS
331
41
102
}
  0
BLOCK_RECORD
  5
24
330
33
100
AcDbSymbolTableRecord
100
AcDbBlockTableRecord
  2
*U12
340
0
102
{BLKREFS
331
42
102
}
  0
BLOCK_RECORD
  5
25
330
33
100
AcDbSymbolTableRecord
100
AcDbBlockTableRecord
  2
*U13
340
0
102
{BLKREFS
331
43
102
}
  0
BLOCK_RECORD
  5
26
330
33
100
AcDbSymbolTableRecord
100
AcDbBlockTableRecord
  2
*U14
340
0
102
{BLKREFS
331
44
102
}
  0
BLOCK_RECORD
  5
27
330
33
100
AcDbSymbolTableRecord
100
AcDbBlockTableRecord
  2
*U15
340
0
102
{BLKREFS
331
45
102
}
  0
BLOCK_RECORD
  5
28
330
33
100
AcDbSymbolTableRecord
100
AcDbBlockTableRecord
  2
*U16
340
0
102
{BLKREFS
331
46
102
}
  0
BLOCK_RECORD
  5
29
330
33
100
AcDbSymbolTableRecord
100
AcDbBlockTableRecord
  2
*U17
340
0
102
{BLKREFS
331
47
102
}
  0
BLOCK_RECORD
  5
2A
330
33
100
AcDbSymbolTableRecord
100
AcDbBlockTableRecord
  2
*U18
340
0
102
{BLKREFS
331
48
102
}
  0
BLOCK_RECORD
  5
2B
330
33
100
AcDbSymbolTableRecord
100
AcDbBlockTableRecord
  2
*U19
340
0
102
{BLKREFS
331
49
102
}
  0
BLOCK_RECORD
  5
2C
330
33
100
AcDbSymbolTableRecord
100
AcDbBlockTableRecord
  2
*U20
340
0
102
{BLKREFS
331
4A
102
}
  0
BLOCK_RECORD
  5
2D
330
33
100
AcDbSymbolTableRecord
100
AcDbBlockTableRecord
  2
*U21
340
0
102
{BLKREFS
331
4B
102
}
  0
BLOCK_RECORD
  5
2E
330
33
100
AcDbSymbolTableRecord
100
AcDbBlockTableRecord
  2
*U22
340
0
102
{BLKREFS
331
4C
102
}
  0
BLOCK_RECORD
  5
2F
330
33
100
AcDbSymbolTableRecord
100
AcDbBlockTableRecord
  2
*U23
340
0
102
{BLKREFS
331
4D
102
}
  0
BLOCK_RECORD
  5
30
330
33
100
AcDbSymbolTableRecord
100
AcDbBlockTableRecord
  2
*U24
340
0
102
{BLKREFS
331
4E
102
}
  0
BLOCK_RECORD
  5
31
330
33
100
AcDbSymbolTableRecord
100
AcDbBlockTableRecord
  2
*U25
340
0
102
{BLKREFS
331
4F
102
}
  0
BLOCK_RECORD
  5
32
330
33
100
AcDbSymbolTableRecord
100
AcDbBlockTableRecord
  2
*U26
340
0
102
{BLKREFS
331
50
102
}
  0
ENDTAB
  0
ENDSEC
  0
SECTION
  2
BLOCKS
  0
BLOCK
  5
51
330
34
100
AcDbEntity
  8
0
100
AcDbBlockBegin
  2
*MODEL_SPACE
 70
     0
 10
0.00000000000000
 20
0.00000000000000
 30
0.00000000000000
  3
*MODEL_SPACE
  1

  0
ENDBLK
  5
52
330
34
100
AcDbEntity
  8
0
100
AcDbBlockEnd
  0
BLOCK
  5
53
330
35
100
AcDbEntity
 67
     1
  8
0
100
AcDbBlockBegin
  2
*PAPER_SPACE
 70
     0
 10
0.00000000000000
 20
0.00000000000000
 30
0.00000000000000
  3
*PAPER_SPACE
  1

  0
ENDBLK
  5
54
330
35
100
AcDbEntity
 67
     1
  8
0
100
AcDbBlockEnd
  0
BLOCK
  5
55
330
18
100
AcDbEntity
  8
0
100
AcDbBlockBegin
  2
*U1
 70
     1
 10
0.00000000000000
 20
0.00000000000000
 30
0.00000000000000
  3
*U1
  1

  0
LINE
  5
56
330
18
100
AcDbEntity
  8
Zeichnung 5
  6
CONTINUOUS
 62
     7
370
    18
100
AcDbLine
 10
152.00000000000026
 20
-155.20000000000033
 30
0.00000000000000
 11
152.00000000000026
 21
-158.00000000000054
 31
0.00000000000000
  0
LINE
  5
57
330
18
100
AcDbEntity
  8
Zeichnung 5
  6
CONTINUOUS
 62
     7
370
    18
100
AcDbLine
 10
152.00000000000026
 20
-158.00000000000048
 30
0.00000000000000
 11
153.60000000000039
 21
-158.00000000000048
 31
0.00000000000000
  0
LINE
  5
58
330
18
100
AcDbEntity
  8
Zeichnung 5
  6
CONTINUOUS
 62
     7
370
    18
100
AcDbLine
 10
153.60000000000039
 20
-158.00000000000054
 30
0.00000000000000
 11
153.60000000000039
 21
-157.00000000000040
 31
0.00000000000000
  0
LINE
  5
59
330
18
100
AcDbEntity
  8
Zeichnung 5
  6
CONTINUOUS
 62
     7
370
    18
100
AcDbLine
 10
153.60000000000039
 20
-157.00000000000040
 30
0.00000000000000
 11
156.00000000000014
 21
-157.00000000000040
 31
0.00000000000000
  0
LINE
  5
5A
330
18
100
AcDbEntity
  8
Zeichnung 5
  6
CONTINUOUS
 62
     7
370
    18
100
AcDbLine
 10
156.00000000000014
 20
-157.00000000000040
 30
0.00000000000000
 11
156.00000000000014
 21
-160.20000000000039
 31
0.00000000000000
  0
LINE
  5
5B
330
18
100
AcDbEntity
  8
Zeichnung 5
  6
CONTINUOUS
 62
     7
370
    18
100
AcDbLine
 10
157.80000000000021
 20
-155.20000000000041
 30
0.00000000000000
 11
159.80000000000052
 21
-157.20000000000027
 31
0.00000000000000
  0
LINE
  5
5C
330
18
100
AcDbEntity
  8
Zeichnung 5
  6
CONTINUOUS
 62
     7
370
    18
100
AcDbLine
 10
159.80000000000052
 20
-157.20000000000044
 30
0.00000000000000
 11
165.80000000000038
 21
-157.20000000000044
 31
0.00000000000000
  0
LINE
  5
5D
330
18
100
AcDbEntity
  8
Zeichnung 5
  6
CONTINUOUS
 62
     7
370
    18
100
AcDbLine
 10
165.80000000000038
 20
-157.20000000000044
 30
0.00000000000000
 11
167.80000000000035
 21
-155.20000000000050
 31
0.00000000000000
  0
LINE
  5
5E
330
18
100
AcDbEntity
  8
Zeichnung 5
  6
CONTINUOUS
 62
     7
370
    18
100
AcDbLine
 10
167.80000000000035
 20
-155.20000000000041
 30
0.00000000000000
 11
177.80000000000052
 21
-155.20000000000041
 31
0.00000000000000
  0
LINE
  5
5F
330
18
100
AcDbEntity
  8
Zeichnung 5
  6
CONTINUOUS
 62
     7
370
    18
100
AcDbLine
 10
185.80000000000032
 20
-157.20000000000027
 30
0.00000000000000
 11
187.80000000000064
 21
-155.20000000000041
 31
0.00000000000000
  0
LINE
  5
60
330
18
100
AcDbEntity
  8
Zeichnung 5
  6
CONTINUOUS
 62
     7
370
    18
100
AcDbLine
 10
179.80000000000047
 20
-157.20000000000044
 30
0.00000000000000
 11
185.80000000000032
 21
-157.20000000000044
 31
0.00000000000000
  0
LINE
  5
61
330
18
100
AcDbEntity
  8
Zeichnung 5
  6
CONTINUOUS
 62
     7
370
    18
100
AcDbLine
 10
177.80000000000052
 20
-155.20000000000050
 30
0.00000000000000
 11
179.80000000000047
 21
-157.20000000000044
 31
0.00000000000000
  0
LINE
  5
62
330
18
100
AcDbEntity
  8
Zeichnung 5
  6
CONTINUOUS
 62
     7
370
    18
100
AcDbLine
 10
157.80000000000021
 20
-155.20000000000033
 30
0.00000000000000
 11
152.00000000000026
 21
-155.20000000000033
 31
0.00000000000000
  0
LINE
  5
63
330
18
100
AcDbEntity
  8
Zeichnung 5
  6
CONTINUOUS
 62
     7
370
    18
100
AcDbLine
 10
187.80000000000064
 20
-155.20000000000041
 30
0.00000000000000
 11
189.80000000000024
 21
-155.20000000000041
 31
0.00000000000000
  0
LINE
  5
64
330
18
100
AcDbEntity
  8
Zeichnung 5
  6
CONTINUOUS
 62
     7
370
    18
100
AcDbLine
 10
189.80000000000024
 20
-155.20000000000041
 30
0.00000000000000
 11
189.80000000000024
 21
-158.20000000000053
 31
0.00000000000000
  0
LINE
  5
65
330
18
100
AcDbEntity
  8
Zeichnung 5
  6
CONTINUOUS
 62
     7
370
    18
100
AcDbLine
 10
189.80000000000024
 20
-158.20000000000053
 30
0.00000000000000
 11
191.80000000000055
 21
-158.20000000000053
 31
0.00000000000000
  0
LINE
  5
66
330
18
100
AcDbEntity
  8
Zeichnung 5
  6
CONTINUOUS
 62
     7
370
    18
100
AcDbLine
 10
191.80000000000055
 20
-158.20000000000053
 30
0.00000000000000
 11
191.80000000000055
 21
-157.20000000000044
 31
0.00000000000000
  0
LINE
  5
67
330
18
100
AcDbEntity
  8
Zeichnung 5
  6
CONTINUOUS
 62
     7
370
    18
100
AcDbLine
 10
191.80000000000055
 20
-157.20000000000044
 30
0.00000000000000
 11
193.80000000000015
 21
-157.20000000000044
 31
0.00000000000000
  0
LINE
  5
68
330
18
100
AcDbEntity
  8
Zeichnung 5
  6
CONTINUOUS
 62
     7
370
    18
100
AcDbLine
 10
193.80000000000015
 20
-157.20000000000044
 30
0.00000000000000
 11
193.80000000000015
 21
-160.20000000000056
 31
0.00000000000000
  0
LINE
  5
69
330
18
100
AcDbEntity
  8
Zeichnung 5
  6
CONTINUOUS
 62
     7
370
    18
100
AcDbLine
 10
167.04264068711961
 20
-160.20000000000047
 30
0.00000000000000
 11
169.04264068711961
 21
-158.20000000000033
 31
0.00000000000000
  0
LINE
  5
6A
330
18
100
AcDbEntity
  8
Zeichnung 5
  6
CONTINUOUS
 62
     7
370
    18
100
AcDbLine
 10
169.04264068711961
 20
-158.20000000000033
 30
0.00000000000000
 11
176.55735931288126
 21
-158.20000000000033
 31
0.00000000000000
  0
LINE
  5
6B
330
18
100
AcDbEntity
  8
Zeichnung 5
  6
CONTINUOUS
 62
     7
370
    18
100
AcDbLine
 10
178.55735931288120
 20
-160.20000000000067
 30
0.00000000000000
 11
176.55735931288126
 21
-158.20000000000033
 31
0.00000000000000
  0
LINE
  5
6C
330
18
100
AcDbEntity
  8
Zeichnung 5
  6
CONTINUOUS
 62
     7
370
    18
100
AcDbLine
 10
156.00000000000014
 20
-160.20000000000030
 30
0.00000000000000
 11
160.60000000000042
 21
-160.20000000000039
 31
0.00000000000000
  0
LINE
  5
6D
330
18
100
AcDbEntity
  8
Zeichnung 5
  6
CONTINUOUS
 62
     7
370
    18
100
AcDbLine
 10
162.60000000000042
 20
-160.20000000000047
 30
0.00000000000000
 11
167.04264068711927
 21
-160.20000000000039
 31
0.00000000000000
  0
LINE
  5
6E
330
18
100
AcDbEntity
  8
Zeichnung 5
  6
CONTINUOUS
 62
     7
370
    18
100
AcDbLine
 10
178.55735931288120
 20
-160.20000000000076
 30
0.00000000000000
 11
183.17867965644075
 21
-160.20000000000067
 31
0.00000000000000
  0
LINE
  5
6F
330
18
100
AcDbEntity
  8
Zeichnung 5
  6
CONTINUOUS
 62
     7
370
    18
100
AcDbLine
 10
185.17867965644072
 20
-160.20000000000076
 30
0.00000000000000
 11
193.80000000000015
 21
-160.20000000000039
 31
0.00000000000000
  0
ARC
  5
70
330
18
100
AcDbEntity
  8
Zeichnung 5
  6
CONTINUOUS
 62
     7
370
    18
100
AcDbCircle
 10
161.60000000000059
 20
-160.20000000000039
 30
0.00000000000000
 40
0.99999999999980
100
AcDbArc
 50
180.00000000000000
 51
0.00000000000000
  0
ARC
  5
71
330
18
100
AcDbEntity
  8
Zeichnung 5
  6
CONTINUOUS
 62
     7
370
    18
100
AcDbCircle
 10
184.17867965644055
 20
-160.20000000000056
 30
0.00000000000000
 40
1.00000000000051
100
AcDbArc
 50
180.00000000000000
 51
0.00000000000000
  0
ENDBLK
  5
72
330
18
100
AcDbEntity
  8
0
100
AcDbBlockEnd
  0
BLOCK
  5
73
330
19
100
AcDbEntity
  8
0
100
AcDbBlockBegin
  2
*U2
 70
     1
 10
0.00000000000000
 20
0.00000000000000
 30
0.00000000000000
  3
*U2
  1

  0
LINE
  5
74
330
19
100
AcDbEntity
  8
Zeichnung 5
  6
CONTINUOUS
 62
     7
370
    18
100
AcDbLine
 10
190.00000000000051
 20
-155.20000000000033
 30
0.00000000000000
 11
190.00000000000051
 21
-158.00000000000054
 31
0.00000000000000
  0
LINE
  5
75
330
19
100
AcDbEntity
  8
Zeichnung 5
  6
CONTINUOUS
 62
     7
370
    18
100
AcDbLine
 10
190.00000000000051
 20
-158.00000000000048
 30
0.00000000000000
 11
191.60000000000034
 21
-158.00000000000048
 31
0.00000000000000
  0
LINE
  5
76
330
19
100
AcDbEntity
  8
Zeichnung 5
  6
CONTINUOUS
 62
     7
370
    18
100
AcDbLine
 10
191.60000000000034
 20
-158.00000000000054
 30
0.00000000000000
 11
191.60000000000034
 21
-157.00000000000040
 31
0.00000000000000
  0
LINE
  5
77
330
19
100
AcDbEntity
  8
Zeichnung 5
  6
CONTINUOUS
 62
     7
370
    18
100
AcDbLine
 10
191.60000000000034
 20
-157.00000000000040
 30
0.00000000000000
 11
194.00000000000040
 21
-157.00000000000040
 31
0.00000000000000
  0
LINE
  5
78
330
19
100
AcDbEntity
  8
Zeichnung 5
  6
CONTINUOUS
 62
     7
370
    18
100
AcDbLine
 10
194.00000000000040
 20
-157.00000000000040
 30
0.00000000000000
 11
194.00000000000040
 21
-160.20000000000039
 31
0.00000000000000
  0
LINE
  5
79
330
19
100
AcDbEntity
  8
Zeichnung 5
  6
CONTINUOUS
 62
     7
370
    18
100
AcDbLine
 10
195.80000000000047
 20
-155.20000000000041
 30
0.00000000000000
 11
197.80000000000041
 21
-157.20000000000027
 31
0.00000000000000
  0
LINE
  5
7A
330
19
100
AcDbEntity
  8
Zeichnung 5
  6
CONTINUOUS
 62
     7
370
    18
100
AcDbLine
 10
197.80000000000041
 20
-157.20000000000044
 30
0.00000000000000
 11
199.99999999999957
 21
-157.20000000000044
 31
0.00000000000000
  0
LINE
  5
7B
330
19
100
AcDbEntity
  8
Zeichnung 5
  6
CONTINUOUS
 62
     7
370
    18
100
AcDbLine
 10
195.80000000000047
 20
-155.20000000000033
 30
0.00000000000000
 11
190.00000000000051
 21
-155.20000000000033
 31
0.00000000000000
  0
LINE
  5
7C
330
19
100
AcDbEntity
  8
Zeichnung 5
  6
CONTINUOUS
 62
     7
370
    18
100
AcDbLine
 10
194.00000000000040
 20
-160.20000000000030
 30
0.00000000000000
 11
198.60000000000034
 21
-160.20000000000039
 31
0.00000000000000
  0
ARC
  5
7D
330
19
100
AcDbEntity
  8
Zeichnung 5
  6
CONTINUOUS
 62
     7
370
    18
100
AcDbCircle
 10
199.60000000000014
 20
-160.20000000000039
 30
0.00000000000000
 40
1.00000000000047
100
AcDbArc
 50
179.99999999999591
 51
293.57817847813169
  0
ENDBLK
  5
7E
330
19
100
AcDbEntity
  8
0
100
AcDbBlockEnd
  0
BLOCK
  5
7F
330
1A
100
AcDbEntity
  8
0
100
AcDbBlockBegin
  2
*U3
 70
     1
 10
0.00000000000000
 20
0.00000000000000
 30
0.00000000000000
  3
*U3
  1

  0
ARC
  5
80
330
1A
100
AcDbEntity
  8
Zeichnung 5
  6
CONTINUOUS
 62
     7
370
    18
100
AcDbCircle
 10
177.50000000000048
 20
-223.07499999999990
 30
0.00000000000000
 40
5.12499999999974
100
AcDbArc
 50
270.00000000000000
 51
10.07429304562163
  0
LINE
  5
81
330
1A
100
AcDbEntity
  8
Zeichnung 5
  6
CONTINUOUS
 62
     7
370
    18
100
AcDbLine
 10
182.54598153456661
 20
-222.17850942402194
 30
0.00000000000000
 11
177.57901846543467
 21
-194.22149057597795
 31
0.00000000000000
  0
ARC
  5
82
330
1A
100
AcDbEntity
  8
Zeichnung 5
  6
CONTINUOUS
 62
     7
370
    18
100
AcDbCircle
 10
182.62500000000009
 20
-193.32499999999987
 30
0.00000000000000
 40
5.12499999999928
100
AcDbArc
 50
349.92570695437973
 51
190.07429304562334
  0
LINE
  5
83
330
1A
100
AcDbEntity
  8
Zeichnung 5
  6
CONTINUOUS
 62
     7
370
    18
100
AcDbLine
 10
187.67098153456621
 20
-194.22149057597795
 30
0.00000000000000
 11
182.70401846543427
 21
-222.17850942402194
 31
0.00000000000000
  0
ARC
  5
84
330
1A
100
AcDbEntity
  8
Zeichnung 5
  6
CONTINUOUS
 62
     7
370
    18
100
AcDbCircle
 10
187.74999999999969
 20
-223.07499999999990
 30
0.00000000000000
 40
5.12499999999926
100
AcDbArc
 50
169.92570695437766
 51
10.07429304562243
  0
LINE
  5
85
330
1A
100
AcDbEntity
  8
Zeichnung 5
  6
CONTINUOUS
 62
     7
370
    18
100
AcDbLine
 10
192.79598153456581
 20
-222.17850942402183
 30
0.00000000000000
 11
187.82901846543317
 21
-194.22149057597795
 31
0.00000000000000
  0
ARC
  5
86
330
1A
100
AcDbEntity
  8
Zeichnung 5
  6
CONTINUOUS
 62
     7
370
    18
100
AcDbCircle
 10
192.87499999999929
 20
-193.32499999999987
 30
0.00000000000000
 40
5.12499999999998
100
AcDbArc
 50
349.92570695437882
 51
190.07429304562191
  0
LINE
  5
87
330
1A
100
AcDbEntity
  8
Zeichnung 5
  6
CONTINUOUS
 62
     7
370
    18
100
AcDbLine
 10
197.92098153456541
 20
-194.22149057597787
 30
0.00000000000000
 11
192.95401846543348
 21
-222.17850942402202
 31
0.00000000000000
  0
ARC
  5
88
330
1A
100
AcDbEntity
  8
Zeichnung 5
  6
CONTINUOUS
 62
     7
370
    18
100
AcDbCircle
 10
197.99999999999963
 20
-223.07499999999990
 30
0.00000000000000
 40
5.12499999999996
100
AcDbArc
 50
169.92570695437905
 51
270.00000000000023
  0
ENDBLK
  5
89
330
1A
100
AcDbEntity
  8
0
100
AcDbBlockEnd
  0
BLOCK
  5
8A
330
1B
100
AcDbEntity
  8
0
100
AcDbBlockBegin
  2
*U4
 70
     1
 10
0.00000000000000
 20
0.00000000000000
 30
0.00000000000000
  3
*U4
  1

  0
LINE
  5
8B
330
1B
100
AcDbEntity
  8
Zeichnung 5
  6
CONTINUOUS
 62
     7
370
    18
100
AcDbLine
 10
149.70000000000024
 20
-169.99999999999989
 30
0.00000000000000
 11
149.70000000000024
 21
-155.99999999999989
 31
0.00000000000000
  0
LINE
  5
8C
330
1B
100
AcDbEntity
  8
Zeichnung 5
  6
CONTINUOUS
 62
     7
370
    18
100
AcDbLine
 10
149.70000000000024
 20
-155.99999999999989
 30
0.00000000000000
 11
148.70000000000047
 21
-154.26794919243082
 31
0.00000000000000
  0
LINE
  5
8D
330
1B
100
AcDbEntity
  8
Zeichnung 5
  6
CONTINUOUS
 62
     7
370
    18
100
AcDbLine
 10
148.70000000000047
 20
-154.26794919243082
 30
0.00000000000000
 11
148.70000000000047
 21
-148.26794919243076
 31
0.00000000000000
  0
LINE
  5
8E
330
1B
100
AcDbEntity
  8
Zeichnung 5
  6
CONTINUOUS
 62
     7
370
    18
100
AcDbLine
 10
148.49999999999986
 20
-154.32153903091714
 30
0.00000000000000
 11
149.50000000000037
 21
-156.05358983848583
 31
0.00000000000000
  0
LINE
  5
8F
330
1B
100
AcDbEntity
  8
Zeichnung 5
  6
CONTINUOUS
 62
     7
370
    18
100
AcDbLine
 10
149.50000000000037
 20
-169.99999999999989
 30
0.00000000000000
 11
149.50000000000037
 21
-156.05358983848583
 31
0.00000000000000
  0
LINE
  5
90
330
1B
100
AcDbEntity
  8
Zeichnung 5
  6
CONTINUOUS
 62
     7
370
    18
100
AcDbLine
 10
149.70000000000024
 20
-169.99999999999989
 30
0.00000000000000
 11
149.50000000000037
 21
-169.99999999999989
 31
0.00000000000000
  0
LINE
  5
91
330
1B
100
AcDbEntity
  8
Zeichnung 5
  6
CONTINUOUS
 62
     7
370
    18
100
AcDbLine
 10
148.50000000000020
 20
-148.26794919243076
 30
0.00000000000000
 11
148.70000000000047
 21
-148.26794919243076
 31
0.00000000000000
  0
ENDBLK
  5
92
330
1B
100
AcDbEntity
  8
0
100
AcDbBlockEnd
  0
BLOCK
  5
93
330
1C
100
AcDbEntity
  8
0
100
AcDbBlockBegin
  2
*U5
 70
     1
 10
0.00000000000000
 20
0.00000000000000
 30
0.00000000000000
  3
*U5
  1

  0
LINE
  5
94
330
1C
100
AcDbEntity
  8
Zeichnung 5
  6
CONTINUOUS
 62
     7
370
    18
100
AcDbLine
 10
73.00000000000031
 20
-158.00000000000054
 30
0.00000000000000
 11
73.00000000000031
 21
-155.20000000000033
 31
0.00000000000000
  0
LINE
  5
95
330
1C
100
AcDbEntity
  8
Zeichnung 5
  6
CONTINUOUS
 62
     7
370
    18
100
AcDbLine
 10
71.40000000000013
 20
-158.00000000000048
 30
0.00000000000000
 11
73.00000000000031
 21
-158.00000000000048
 31
0.00000000000000
  0
LINE
  5
96
330
1C
100
AcDbEntity
  8
Zeichnung 5
  6
CONTINUOUS
 62
     7
370
    18
100
AcDbLine
 10
71.40000000000013
 20
-157.00000000000040
 30
0.00000000000000
 11
71.40000000000013
 21
-158.00000000000054
 31
0.00000000000000
  0
LINE
  5
97
330
1C
100
AcDbEntity
  8
Zeichnung 5
  6
CONTINUOUS
 62
     7
370
    18
100
AcDbLine
 10
69.00000000000040
 20
-157.00000000000040
 30
0.00000000000000
 11
71.40000000000013
 21
-157.00000000000040
 31
0.00000000000000
  0
LINE
  5
98
330
1C
100
AcDbEntity
  8
Zeichnung 5
  6
CONTINUOUS
 62
     7
370
    18
100
AcDbLine
 10
69.00000000000040
 20
-160.20000000000039
 30
0.00000000000000
 11
69.00000000000040
 21
-157.00000000000040
 31
0.00000000000000
  0
LINE
  5
99
330
1C
100
AcDbEntity
  8
Zeichnung 5
  6
CONTINUOUS
 62
     7
370
    18
100
AcDbLine
 10
65.20000000000002
 20
-157.20000000000027
 30
0.00000000000000
 11
67.20000000000033
 21
-155.20000000000041
 31
0.00000000000000
  0
LINE
  5
9A
330
1C
100
AcDbEntity
  8
Zeichnung 5
  6
CONTINUOUS
 62
     7
370
    18
100
AcDbLine
 10
59.20000000000014
 20
-157.20000000000044
 30
0.00000000000000
 11
65.20000000000002
 21
-157.20000000000044
 31
0.00000000000000
  0
LINE
  5
9B
330
1C
100
AcDbEntity
  8
Zeichnung 5
  6
CONTINUOUS
 62
     7
370
    18
100
AcDbLine
 10
57.20000000000019
 20
-155.20000000000050
 30
0.00000000000000
 11
59.20000000000014
 21
-157.20000000000044
 31
0.00000000000000
  0
LINE
  5
9C
330
1C
100
AcDbEntity
  8
Zeichnung 5
  6
CONTINUOUS
 62
     7
370
    18
100
AcDbLine
 10
47.20000000000005
 20
-155.20000000000041
 30
0.00000000000000
 11
57.20000000000019
 21
-155.20000000000041
 31
0.00000000000000
  0
LINE
  5
9D
330
1C
100
AcDbEntity
  8
Zeichnung 5
  6
CONTINUOUS
 62
     7
370
    18
100
AcDbLine
 10
37.19999999999990
 20
-155.20000000000041
 30
0.00000000000000
 11
39.20000000000022
 21
-157.20000000000027
 31
0.00000000000000
  0
LINE
  5
9E
330
1C
100
AcDbEntity
  8
Zeichnung 5
  6
CONTINUOUS
 62
     7
370
    18
100
AcDbLine
 10
39.20000000000022
 20
-157.20000000000044
 30
0.00000000000000
 11
45.20000000000009
 21
-157.20000000000044
 31
0.00000000000000
  0
LINE
  5
9F
330
1C
100
AcDbEntity
  8
Zeichnung 5
  6
CONTINUOUS
 62
     7
370
    18
100
AcDbLine
 10
45.20000000000009
 20
-157.20000000000044
 30
0.00000000000000
 11
47.20000000000005
 21
-155.20000000000050
 31
0.00000000000000
  0
LINE
  5
A0
330
1C
100
AcDbEntity
  8
Zeichnung 5
  6
CONTINUOUS
 62
     7
370
    18
100
AcDbLine
 10
73.00000000000031
 20
-155.20000000000033
 30
0.00000000000000
 11
67.20000000000033
 21
-155.20000000000033
 31
0.00000000000000
  0
LINE
  5
A1
330
1C
100
AcDbEntity
  8
Zeichnung 5
  6
CONTINUOUS
 62
     7
370
    18
100
AcDbLine
 10
35.20000000000030
 20
-155.20000000000041
 30
0.00000000000000
 11
37.19999999999990
 21
-155.20000000000041
 31
0.00000000000000
  0
LINE
  5
A2
330
1C
100
AcDbEntity
  8
Zeichnung 5
  6
CONTINUOUS
 62
     7
370
    18
100
AcDbLine
 10
35.20000000000030
 20
-158.20000000000053
 30
0.00000000000000
 11
35.20000000000030
 21
-155.20000000000041
 31
0.00000000000000
  0
LINE
  5
A3
330
1C
100
AcDbEntity
  8
Zeichnung 5
  6
CONTINUOUS
 62
     7
370
    18
100
AcDbLine
 10
33.19999999999999
 20
-158.20000000000053
 30
0.00000000000000
 11
35.20000000000030
 21
-158.20000000000053
 31
0.00000000000000
  0
LINE
  5
A4
330
1C
100
AcDbEntity
  8
Zeichnung 5
  6
CONTINUOUS
 62
     7
370
    18
100
AcDbLine
 10
33.19999999999999
 20
-157.20000000000044
 30
0.00000000000000
 11
33.19999999999999
 21
-158.20000000000053
 31
0.00000000000000
  0
LINE
  5
A5
330
1C
100
AcDbEntity
  8
Zeichnung 5
  6
CONTINUOUS
 62
     7
370
    18
100
AcDbLine
 10
31.20000000000038
 20
-157.20000000000044
 30
0.00000000000000
 11
33.19999999999999
 21
-157.20000000000044
 31
0.00000000000000
  0
LINE
  5
A6
330
1C
100
AcDbEntity
  8
Zeichnung 5
  6
CONTINUOUS
 62
     7
370
    18
100
AcDbLine
 10
31.20000000000038
 20
-160.20000000000056
 30
0.00000000000000
 11
31.20000000000038
 21
-157.20000000000044
 31
0.00000000000000
  0
LINE
  5
A7
330
1C
100
AcDbEntity
  8
Zeichnung 5
  6
CONTINUOUS
 62
     7
370
    18
100
AcDbLine
 10
55.95735931288095
 20
-158.20000000000033
 30
0.00000000000000
 11
57.95735931288091
 21
-160.20000000000047
 31
0.00000000000000
  0
LINE
  5
A8
330
1C
100
AcDbEntity
  8
Zeichnung 5
  6
CONTINUOUS
 62
     7
370
    18
100
AcDbLine
 10
48.44264068711928
 20
-158.20000000000033
 30
0.00000000000000
 11
55.95735931288095
 21
-158.20000000000033
 31
0.00000000000000
  0
LINE
  5
A9
330
1C
100
AcDbEntity
  8
Zeichnung 5
  6
CONTINUOUS
 62
     7
370
    18
100
AcDbLine
 10
48.44264068711928
 20
-158.20000000000033
 30
0.00000000000000
 11
46.44264068711932
 21
-160.20000000000067
 31
0.00000000000000
  0
LINE
  5
AA
330
1C
100
AcDbEntity
  8
Zeichnung 5
  6
CONTINUOUS
 62
     7
370
    18
100
AcDbLine
 10
64.40000000000011
 20
-160.20000000000039
 30
0.00000000000000
 11
69.00000000000040
 21
-160.20000000000030
 31
0.00000000000000
  0
LINE
  5
AB
330
1C
100
AcDbEntity
  8
Zeichnung 5
  6
CONTINUOUS
 62
     7
370
    18
100
AcDbLine
 10
57.95735931288126
 20
-160.20000000000039
 30
0.00000000000000
 11
62.40000000000015
 21
-160.20000000000047
 31
0.00000000000000
  0
LINE
  5
AC
330
1C
100
AcDbEntity
  8
Zeichnung 5
  6
CONTINUOUS
 62
     7
370
    18
100
AcDbLine
 10
41.82132034355978
 20
-160.20000000000067
 30
0.00000000000000
 11
46.44264068711932
 21
-160.20000000000076
 31
0.00000000000000
  0
LINE
  5
AD
330
1C
100
AcDbEntity
  8
Zeichnung 5
  6
CONTINUOUS
 62
     7
370
    18
100
AcDbLine
 10
31.20000000000038
 20
-160.20000000000039
 30
0.00000000000000
 11
39.82132034355983
 21
-160.20000000000076
 31
0.00000000000000
  0
ARC
  5
AE
330
1C
100
AcDbEntity
  8
Zeichnung 5
  6
CONTINUOUS
 62
     7
370
    18
100
AcDbCircle
 10
63.39999999999994
 20
-160.20000000000039
 30
0.00000000000000
 40
0.99999999999980
100
AcDbArc
 50
180.00000000000000
 51
0.00000000000000
  0
ARC
  5
AF
330
1C
100
AcDbEntity
  8
Zeichnung 5
  6
CONTINUOUS
 62
     7
370
    18
100
AcDbCircle
 10
40.82132034355999
 20
-160.20000000000056
 30
0.00000000000000
 40
1.00000000000051
100
AcDbArc
 50
180.00000000000000
 51
0.00000000000000
  0
ENDBLK
  5
B0
330
1C
100
AcDbEntity
  8
0
100
AcDbBlockEnd
  0
BLOCK
  5
B1
330
1D
100
AcDbEntity
  8
0
100
AcDbBlockBegin
  2
*U6
 70
     1
 10
0.00000000000000
 20
0.00000000000000
 30
0.00000000000000
  3
*U6
  1

  0
LINE
  5
B2
330
1D
100
AcDbEntity
  8
Zeichnung 5
  6
CONTINUOUS
 62
     7
370
    18
100
AcDbLine
 10
35.00000000000005
 20
-158.00000000000054
 30
0.00000000000000
 11
35.00000000000005
 21
-155.20000000000033
 31
0.00000000000000
  0
LINE
  5
B3
330
1D
100
AcDbEntity
  8
Zeichnung 5
  6
CONTINUOUS
 62
     7
370
    18
100
AcDbLine
 10
33.40000000000023
 20
-158.00000000000048
 30
0.00000000000000
 11
35.00000000000005
 21
-158.00000000000048
 31
0.00000000000000
  0
LINE
  5
B4
330
1D
100
AcDbEntity
  8
Zeichnung 5
  6
CONTINUOUS
 62
     7
370
    18
100
AcDbLine
 10
33.40000000000023
 20
-157.00000000000040
 30
0.00000000000000
 11
33.40000000000023
 21
-158.00000000000054
 31
0.00000000000000
  0
LINE
  5
B5
330
1D
100
AcDbEntity
  8
Zeichnung 5
  6
CONTINUOUS
 62
     7
370
    18
100
AcDbLine
 10
31.00000000000014
 20
-157.00000000000040
 30
0.00000000000000
 11
33.40000000000023
 21
-157.00000000000040
 31
0.00000000000000
  0
LINE
  5
B6
330
1D
100
AcDbEntity
  8
Zeichnung 5
  6
CONTINUOUS
 62
     7
370
    18
100
AcDbLine
 10
31.00000000000014
 20
-160.20000000000039
 30
0.00000000000000
 11
31.00000000000014
 21
-157.00000000000040
 31
0.00000000000000
  0
LINE
  5
B7
330
1D
100
AcDbEntity
  8
Zeichnung 5
  6
CONTINUOUS
 62
     7
370
    18
100
AcDbLine
 10
27.20000000000011
 20
-157.20000000000027
 30
0.00000000000000
 11
29.20000000000007
 21
-155.20000000000041
 31
0.00000000000000
  0
LINE
  5
B8
330
1D
100
AcDbEntity
  8
Zeichnung 5
  6
CONTINUOUS
 62
     7
370
    18
100
AcDbLine
 10
25.00000000000098
 20
-157.20000000000044
 30
0.00000000000000
 11
27.20000000000011
 21
-157.20000000000044
 31
0.00000000000000
  0
LINE
  5
B9
330
1D
100
AcDbEntity
  8
Zeichnung 5
  6
CONTINUOUS
 62
     7
370
    18
100
AcDbLine
 10
35.00000000000005
 20
-155.20000000000033
 30
0.00000000000000
 11
29.20000000000007
 21
-155.20000000000033
 31
0.00000000000000
  0
LINE
  5
BA
330
1D
100
AcDbEntity
  8
Zeichnung 5
  6
CONTINUOUS
 62
     7
370
    18
100
AcDbLine
 10
26.40000000000020
 20
-160.20000000000039
 30
0.00000000000000
 11
31.00000000000014
 21
-160.20000000000030
 31
0.00000000000000
  0
ARC
  5
BB
330
1D
100
AcDbEntity
  8
Zeichnung 5
  6
CONTINUOUS
 62
     7
370
    18
100
AcDbCircle
 10
25.40000000000040
 20
-160.20000000000039
 30
0.00000000000000
 40
1.00000000000051
100
AcDbArc
 50
246.42182152186930
 51
0.00000000000509
  0
ENDBLK
  5
BC
330
1D
100
AcDbEntity
  8
0
100
AcDbBlockEnd
  0
BLOCK
  5
BD
330
1E
100
AcDbEntity
  8
0
100
AcDbBlockBegin
  2
*U7
 70
     1
 10
0.00000000000000
 20
0.00000000000000
 30
0.00000000000000
  3
*U7
  1

  0
ARC
  5
BE
330
1E
100
AcDbEntity
  8
Zeichnung 5
  6
CONTINUOUS
 62
     7
370
    18
100
AcDbCircle
 10
47.50000000000006
 20
-223.07499999999990
 30
0.00000000000000
 40
5.12499999999962
100
AcDbArc
 50
169.92570695437786
 51
269.99999999999949
  0
LINE
  5
BF
330
1E
100
AcDbEntity
  8
Zeichnung 5
  6
CONTINUOUS
 62
     7
370
    18
100
AcDbLine
 10
47.42098153456586
 20
-194.22149057597795
 30
0.00000000000000
 11
42.45401846543393
 21
-222.17850942402194
 31
0.00000000000000
  0
ARC
  5
C0
330
1E
100
AcDbEntity
  8
Zeichnung 5
  6
CONTINUOUS
 62
     7
370
    18
100
AcDbCircle
 10
42.37500000000046
 20
-193.32499999999987
 30
0.00000000000000
 40
5.12499999999923
100
AcDbArc
 50
349.92570695437678
 51
190.07429304562038
  0
LINE
  5
C1
330
1E
100
AcDbEntity
  8
Zeichnung 5
  6
CONTINUOUS
 62
     7
370
    18
100
AcDbLine
 10
42.29598153456626
 20
-222.17850942402194
 30
0.00000000000000
 11
37.32901846543433
 21
-194.22149057597795
 31
0.00000000000000
  0
ARC
  5
C2
330
1E
100
AcDbEntity
  8
Zeichnung 5
  6
CONTINUOUS
 62
     7
370
    18
100
AcDbCircle
 10
37.25000000000085
 20
-223.07499999999990
 30
0.00000000000000
 40
5.12499999999926
100
AcDbArc
 50
169.92570695437766
 51
10.07429304562243
  0
LINE
  5
C3
330
1E
100
AcDbEntity
  8
Zeichnung 5
  6
CONTINUOUS
 62
     7
370
    18
100
AcDbLine
 10
37.17098153456738
 20
-194.22149057597795
 30
0.00000000000000
 11
32.20401846543473
 21
-222.17850942402183
 31
0.00000000000000
  0
ARC
  5
C4
330
1E
100
AcDbEntity
  8
Zeichnung 5
  6
CONTINUOUS
 62
     7
370
    18
100
AcDbCircle
 10
32.12500000000125
 20
-193.32499999999987
 30
0.00000000000000
 40
5.12499999999997
100
AcDbArc
 50
349.92570695437831
 51
190.07429304562143
  0
LINE
  5
C5
330
1E
100
AcDbEntity
  8
Zeichnung 5
  6
CONTINUOUS
 62
     7
370
    18
100
AcDbLine
 10
32.04598153456706
 20
-222.17850942402202
 30
0.00000000000000
 11
27.07901846543512
 21
-194.22149057597787
 31
0.00000000000000
  0
ARC
  5
C6
330
1E
100
AcDbEntity
  8
Zeichnung 5
  6
CONTINUOUS
 62
     7
370
    18
100
AcDbCircle
 10
27.00000000000093
 20
-223.07499999999990
 30
0.00000000000000
 40
5.12499999999996
100
AcDbArc
 50
270.00000000000000
 51
10.07429304562118
  0
ENDBLK
  5
C7
330
1E
100
AcDbEntity
  8
0
100
AcDbBlockEnd
  0
BLOCK
  5
C8
330
1F
100
AcDbEntity
  8
0
100
AcDbBlockBegin
  2
*U8
 70
     1
 10
0.00000000000000
 20
0.00000000000000
 30
0.00000000000000
  3
*U8
  1

  0
LINE
  5
C9
330
1F
100
AcDbEntity
  8
Zeichnung 5
  6
CONTINUOUS
 62
     7
370
    18
100
AcDbLine
 10
75.30000000000028
 20
-155.99999999999989
 30
0.00000000000000
 11
75.30000000000028
 21
-169.99999999999989
 31
0.00000000000000
  0
LINE
  5
CA
330
1F
100
AcDbEntity
  8
Zeichnung 5
  6
CONTINUOUS
 62
     7
370
    18
100
AcDbLine
 10
76.30000000000008
 20
-154.26794919243082
 30
0.00000000000000
 11
75.30000000000028
 21
-155.99999999999989
 31
0.00000000000000
  0
LINE
  5
CB
330
1F
100
AcDbEntity
  8
Zeichnung 5
  6
CONTINUOUS
 62
     7
370
    18
100
AcDbLine
 10
76.30000000000008
 20
-148.26794919243076
 30
0.00000000000000
 11
76.30000000000008
 21
-154.26794919243082
 31
0.00000000000000
  0
LINE
  5
CC
330
1F
100
AcDbEntity
  8
Zeichnung 5
  6
CONTINUOUS
 62
     7
370
    18
100
AcDbLine
 10
75.50000000000017
 20
-156.05358983848583
 30
0.00000000000000
 11
76.50000000000068
 21
-154.32153903091714
 31
0.00000000000000
  0
LINE
  5
CD
330
1F
100
AcDbEntity
  8
Zeichnung 5
  6
CONTINUOUS
 62
     7
370
    18
100
AcDbLine
 10
75.50000000000017
 20
-156.05358983848583
 30
0.00000000000000
 11
75.50000000000017
 21
-169.99999999999989
 31
0.00000000000000
  0
LINE
  5
CE
330
1F
100
AcDbEntity
  8
Zeichnung 5
  6
CONTINUOUS
 62
     7
370
    18
100
AcDbLine
 10
75.50000000000017
 20
-169.99999999999989
 30
0.00000000000000
 11
75.30000000000028
 21
-169.99999999999989
 31
0.00000000000000
  0
LINE
  5
CF
330
1F
100
AcDbEntity
  8
Zeichnung 5
  6
CONTINUOUS
 62
     7
370
    18
100
AcDbLine
 10
76.30000000000008
 20
-148.26794919243076
 30
0.00000000000000
 11
76.50000000000033
 21
-148.26794919243076
 31
0.00000000000000
  0
ENDBLK
  5
D0
330
1F
100
AcDbEntity
  8
0
100
AcDbBlockEnd
  0
BLOCK
  5
D1
330
20
100
AcDbEntity
  8
0
100
AcDbBlockBegin
  2
*D1
 70
     1
 10
0.00000000000000
 20
0.00000000000000
 30
0.00000000000000
  3
*D1
  1

  0
LINE
  5
D2
330
20
100
AcDbEntity
  8
Zeichnung 5
  6
CONTINUOUS
 62
     7
370
    25
100
AcDbLine
 10
69.99999999999970
 20
-157.20000000000044
 30
0.00000000000000
 11
70.00000000000004
 21
-99.20000000000053
 31
0.00000000000000
  0
LINE
  5
D3
330
20
100
AcDbEntity
  8
Zeichnung 5
  6
CONTINUOUS
 62
     7
370
    25
100
AcDbLine
 10
72.49999999999972
 20
-155.20000000000047
 30
0.00000000000000
 11
67.99999999999955
 21
-155.20000000000044
 31
0.00000000000000
  0
LINE
  5
D4
330
20
100
AcDbEntity
  8
Zeichnung 5
  6
CONTINUOUS
 62
     7
370
    25
100
AcDbLine
 10
68.23223304703333
 20
-153.43223304703409
 30
0.00000000000000
 11
71.76776695296607
 21
-156.96776695296683
 31
0.00000000000000
  0
LINE
  5
D5
330
20
100
AcDbEntity
  8
Zeichnung 5
  6
CONTINUOUS
 62
     7
370
    25
100
AcDbLine
 10
72.50000000000003
 20
-101.20000000000054
 30
0.00000000000000
 11
68.24666378209506
 21
-101.20000000000054
 31
0.00000000000000
  0
LINE
  5
D6
330
20
100
AcDbEntity
  8
Zeichnung 5
  6
CONTINUOUS
 62
     7
370
    25
100
AcDbLine
 10
68.23223304703367
 20
-99.43223304703417
 30
0.00000000000000
 11
71.76776695296640
 21
-102.96776695296690
 31
0.00000000000000
  0
MTEXT
  5
D7
330
20
100
AcDbEntity
  8
Zeichnung 5
 62
     7
370
    30
100
AcDbMText
 10
68.79999999999986
 20
-128.20000000000050
 30
0.00000000000000
 40
2.80000000000000
 41
0.00000000000000
 71
     8
 72
     1
  1
\fArial Narrow|b0|i0;mindestens  27cm
 11
0.00000000000000
 21
1.00000000000000
 31
0.00000000000000
 73
     1
 44
1.00000000000000
  0
ENDBLK
  5
D8
330
20
100
AcDbEntity
  8
0
100
AcDbBlockEnd
  0
BLOCK
  5
D9
330
21
100
AcDbEntity
  8
0
100
AcDbBlockBegin
  2
*U9
 70
     1
 10
0.00000000000000
 20
0.00000000000000
 30
0.00000000000000
  3
*U9
  1

  0
MTEXT
  5
DA
330
21
100
AcDbEntity
  8
Zeichnung 5
 62
     7
370
    30
100
AcDbMText
 10
155.24999999999983
 20
-121.19999999999989
 30
0.00000000000000
 40
2.80000000000000
 41
0.00000000000000
 71
     7
 72
     1
  1
\fArial Narrow|b0|i0;Wärmedämmung
 11
1.00000000000000
 21
0.00000000000000
 31
0.00000000000000
 73
     1
 44
1.00000000000000
  0
MTEXT
  5
DB
330
21
100
AcDbEntity
  8
Zeichnung 5
 62
     7
370
    30
100
AcDbMText
 10
155.24999999999983
 20
-122.79999999999990
 30
0.00000000000000
 40
2.80000000000000
 41
0.00000000000000
 71
     1
 72
     1
  1
\fArial Narrow|b0|i0;nicht brennbar, raumbeständig\PRohdichte > 30 kg/m³\PSchmelzpunkt > 1000%%dC
 11
1.00000000000000
 21
0.00000000000000
 31
0.00000000000000
 73
     1
 44
1.00000000000000
  0
LINE
  5
DC
330
21
100
AcDbEntity
  8
Zeichnung 5
  6
CONTINUOUS
 62
    12
370
    25
100
AcDbLine
 10
145.99999999999966
 20
-127.99999999999989
 30
0.00000000000000
 11
153.99999999999983
 21
-121.99999999999989
 31
0.00000000000000
  0
HATCH
  5
DD
330
21
100
AcDbEntity
  8
Zeichnung 5
 62
    12
100
AcDbHatch
 10
0.00000000000000
 20
0.00000000000000
 30
0.00000000000000
210
0.00000000000000
220
0.00000000000000
230
1.00000000000000
  2
SOLID
 70
     1
 71
     0
 91
        1
 92
        0
 93
       16
 72
     1
 10
146.49999999999963
 20
-127.99999999999989
 11
146.46193976625528
 21
-127.80865828381735
 72
     1
 10
146.46193976625528
 20
-127.80865828381735
 11
146.35355339059291
 21
-127.64644660940662
 72
     1
 10
146.35355339059291
 20
-127.64644660940662
 11
146.19134171618217
 21
-127.53806023374425
 72
     1
 10
146.19134171618217
 20
-127.53806023374425
 11
145.99999999999966
 21
-127.49999999999991
 72
     1
 10
145.99999999999966
 20
-127.49999999999991
 11
145.80865828381712
 21
-127.53806023374425
 72
     1
 10
145.80865828381712
 20
-127.53806023374425
 11
145.64644660940638
 21
-127.64644660940662
 72
     1
 10
145.64644660940638
 20
-127.64644660940662
 11
145.53806023374401
 21
-127.80865828381735
 72
     1
 10
145.53806023374401
 20
-127.80865828381735
 11
145.49999999999966
 21
-127.99999999999989
 72
     1
 10
145.49999999999966
 20
-127.99999999999989
 11
145.53806023374401
 21
-128.19134171618242
 72
     1
 10
145.53806023374401
 20
-128.19134171618242
 11
145.64644660940638
 21
-128.35355339059313
 72
     1
 10
145.64644660940638
 20
-128.35355339059313
 11
145.80865828381712
 21
-128.46193976625551
 72
     1
 10
145.80865828381712
 20
-128.46193976625551
 11
145.99999999999966
 21
-128.49999999999989
 72
     1
 10
145.99999999999966
 20
-128.49999999999989
 11
146.19134171618217
 21
-128.46193976625551
 72
     1
 10
146.19134171618217
 20
-128.46193976625551
 11
146.35355339059291
 21
-128.35355339059313
 72
     1
 10
146.35355339059291
 20
-128.35355339059313
 11
146.46193976625528
 21
-128.19134171618242
 72
     1
 10
146.46193976625528
 20
-128.19134171618242
 11
146.49999999999963
 21
-127.99999999999989
 97
        0
 75
     0
 76
     0
 98
        1
 10
0.00000000000000
 20
0.00000000000000
  0
LWPOLYLINE
  5
DE
330
21
100
AcDbEntity
  8
Zeichnung 5
  6
CONTINUOUS
 62
    12
370
    25
100
AcDbPolyline
 90
       17
 70
   128
 10
146.49999999999963
 20
-127.99999999999989
 10
146.46193976625528
 20
-127.80865828381735
 10
146.35355339059291
 20
-127.64644660940662
 10
146.19134171618217
 20
-127.53806023374425
 10
145.99999999999966
 20
-127.49999999999991
 10
145.80865828381712
 20
-127.53806023374425
 10
145.64644660940638
 20
-127.64644660940662
 10
145.53806023374401
 20
-127.80865828381735
 10
145.49999999999966
 20
-127.99999999999989
 10
145.53806023374401
 20
-128.19134171618242
 10
145.64644660940638
 20
-128.35355339059313
 10
145.80865828381712
 20
-128.46193976625551
 10
145.99999999999966
 20
-128.49999999999989
 10
146.19134171618217
 20
-128.46193976625551
 10
146.35355339059291
 20
-128.35355339059313
 10
146.46193976625528
 20
-128.19134171618242
 10
146.49999999999963
 20
-127.99999999999989
  0
LINE
  5
DF
330
21
100
AcDbEntity
  8
Zeichnung 5
  6
CONTINUOUS
 62
    12
370
    25
100
AcDbLine
 10
153.99999999999983
 20
-121.99999999999989
 30
0.00000000000000
 11
199.34112072317245
 21
-121.99999999999989
 31
0.00000000000000
  0
ENDBLK
  5
E0
330
21
100
AcDbEntity
  8
0
100
AcDbBlockEnd
  0
BLOCK
  5
E1
330
22
100
AcDbEntity
  8
0
100
AcDbBlockBegin
  2
*U10
 70
     1
 10
0.00000000000000
 20
0.00000000000000
 30
0.00000000000000
  3
*U10
  1

  0
MTEXT
  5
E2
330
22
100
AcDbEntity
  8
Zeichnung 5
 62
     7
370
    25
100
AcDbMText
 10
27.94289159700621
 20
-141.19999999999996
 30
0.00000000000000
 40
2.50000000000000
 41
0.00000000000000
 71
     7
 72
     1
  1
\fArial Narrow|b0|i0;keine brennbaren Bauteile
 11
1.00000000000000
 21
0.00000000000000
 31
0.00000000000000
 73
     1
 44
1.00000000000000
  0
MTEXT
  5
E3
330
22
100
AcDbEntity
  8
Zeichnung 5
 62
     7
370
    25
100
AcDbMText
 10
27.94289159700621
 20
-142.79999999999998
 30
0.00000000000000
 40
2.50000000000000
 41
0.00000000000000
 71
     1
 72
     1
  1
\fArial Narrow|b0|i0;oder Folien/Bahnen über\POberkante Dachdeckung\Poder Brandwand führen
 11
1.00000000000000
 21
0.00000000000000
 31
0.00000000000000
 73
     1
 44
1.00000000000000
  0
LINE
  5
E4
330
22
100
AcDbEntity
  8
Zeichnung 5
  6
CONTINUOUS
 62
    12
370
    25
100
AcDbLine
 10
75.99999999999972
 20
-153.99999999999991
 30
0.00000000000000
 11
61.99999999999999
 21
-141.99999999999997
 31
0.00000000000000
  0
HATCH
  5
E5
330
22
100
AcDbEntity
  8
Zeichnung 5
 62
    12
100
AcDbHatch
 10
0.00000000000000
 20
0.00000000000000
 30
0.00000000000000
210
0.00000000000000
220
0.00000000000000
230
1.00000000000000
  2
SOLID
 70
     1
 71
     0
 91
        1
 92
        0
 93
       16
 72
     1
 10
76.49999999999972
 20
-153.99999999999991
 11
76.46193976625537
 21
-153.80865828381741
 72
     1
 10
76.46193976625537
 20
-153.80865828381741
 11
76.35355339059299
 21
-153.64644660940667
 72
     1
 10
76.35355339059299
 20
-153.64644660940667
 11
76.19134171618227
 21
-153.53806023374426
 72
     1
 10
76.19134171618227
 20
-153.53806023374426
 11
75.99999999999972
 21
-153.49999999999994
 72
     1
 10
75.99999999999972
 20
-153.49999999999994
 11
75.80865828381717
 21
-153.53806023374426
 72
     1
 10
75.80865828381717
 20
-153.53806023374426
 11
75.64644660940645
 21
-153.64644660940667
 72
     1
 10
75.64644660940645
 20
-153.64644660940667
 11
75.53806023374406
 21
-153.80865828381741
 72
     1
 10
75.53806023374406
 20
-153.80865828381741
 11
75.49999999999972
 21
-153.99999999999991
 72
     1
 10
75.49999999999972
 20
-153.99999999999991
 11
75.53806023374406
 21
-154.19134171618245
 72
     1
 10
75.53806023374406
 20
-154.19134171618245
 11
75.64644660940645
 21
-154.35355339059319
 72
     1
 10
75.64644660940645
 20
-154.35355339059319
 11
75.80865828381717
 21
-154.46193976625554
 72
     1
 10
75.80865828381717
 20
-154.46193976625554
 11
75.99999999999972
 21
-154.49999999999991
 72
     1
 10
75.99999999999972
 20
-154.49999999999991
 11
76.19134171618227
 21
-154.46193976625554
 72
     1
 10
76.19134171618227
 20
-154.46193976625554
 11
76.35355339059299
 21
-154.35355339059319
 72
     1
 10
76.35355339059299
 20
-154.35355339059319
 11
76.46193976625537
 21
-154.19134171618245
 72
     1
 10
76.46193976625537
 20
-154.19134171618245
 11
76.49999999999972
 21
-153.99999999999991
 97
        0
 75
     0
 76
     0
 98
        1
 10
0.00000000000000
 20
0.00000000000000
  0
LWPOLYLINE
  5
E6
330
22
100
AcDbEntity
  8
Zeichnung 5
  6
CONTINUOUS
 62
    12
370
    25
100
AcDbPolyline
 90
       17
 70
   128
 10
76.49999999999972
 20
-153.99999999999991
 10
76.46193976625537
 20
-153.80865828381741
 10
76.35355339059299
 20
-153.64644660940667
 10
76.19134171618227
 20
-153.53806023374426
 10
75.99999999999972
 20
-153.49999999999994
 10
75.80865828381717
 20
-153.53806023374426
 10
75.64644660940645
 20
-153.64644660940667
 10
75.53806023374406
 20
-153.80865828381741
 10
75.49999999999972
 20
-153.99999999999991
 10
75.53806023374406
 20
-154.19134171618245
 10
75.64644660940645
 20
-154.35355339059319
 10
75.80865828381717
 20
-154.46193976625554
 10
75.99999999999972
 20
-154.49999999999991
 10
76.19134171618227
 20
-154.46193976625554
 10
76.35355339059299
 20
-154.35355339059319
 10
76.46193976625537
 20
-154.19134171618245
 10
76.49999999999972
 20
-153.99999999999991
  0
LINE
  5
E7
330
22
100
AcDbEntity
  8
Zeichnung 5
  6
CONTINUOUS
 62
    12
370
    25
100
AcDbLine
 10
26.69289159700621
 20
-141.99999999999997
 30
0.00000000000000
 11
61.99999999999999
 21
-141.99999999999997
 31
0.00000000000000
  0
ENDBLK
  5
E8
330
22
100
AcDbEntity
  8
0
100
AcDbBlockEnd
  0
BLOCK
  5
E9
330
23
100
AcDbEntity
  8
0
100
AcDbBlockBegin
  2
*U11
 70
     1
 10
0.00000000000000
 20
0.00000000000000
 30
0.00000000000000
  3
*U11
  1

  0
MTEXT
  5
EA
330
23
100
AcDbEntity
  8
Zeichnung 5
 62
     7
370
    30
100
AcDbMText
 10
48.08074941679706
 20
-109.19999999999987
 30
0.00000000000000
 40
2.80000000000000
 41
0.00000000000000
 71
     7
 72
     1
  1
\fArial Narrow|b0|i0;Verblechung
 11
1.00000000000000
 21
0.00000000000000
 31
0.00000000000000
 73
     1
 44
1.00000000000000
  0
LINE
  5
EB
330
23
100
AcDbEntity
  8
Zeichnung 5
  6
CONTINUOUS
 62
    12
370
    25
100
AcDbLine
 10
76.28000000000118
 20
-110.95999999999995
 30
0.00000000000000
 11
67.00000000000078
 21
-109.99999999999987
 31
0.00000000000000
  0
HATCH
  5
EC
330
23
100
AcDbEntity
  8
Zeichnung 5
 62
    12
100
AcDbHatch
 10
0.00000000000000
 20
0.00000000000000
 30
0.00000000000000
210
0.00000000000000
220
0.00000000000000
230
1.00000000000000
  2
SOLID
 70
     1
 71
     0
 91
        1
 92
        0
 93
       16
 72
     1
 10
76.78000000000118
 20
-110.95999999999995
 11
76.74193976625683
 21
-110.76865828381742
 72
     1
 10
76.74193976625683
 20
-110.76865828381742
 11
76.63355339059447
 21
-110.60644660940669
 72
     1
 10
76.63355339059447
 20
-110.60644660940669
 11
76.47134171618373
 21
-110.49806023374431
 72
     1
 10
76.47134171618373
 20
-110.49806023374431
 11
76.28000000000118
 21
-110.45999999999997
 72
     1
 10
76.28000000000118
 20
-110.45999999999997
 11
76.08865828381863
 21
-110.49806023374431
 72
     1
 10
76.08865828381863
 20
-110.49806023374431
 11
75.92644660940790
 21
-110.60644660940669
 72
     1
 10
75.92644660940790
 20
-110.60644660940669
 11
75.81806023374554
 21
-110.76865828381742
 72
     1
 10
75.81806023374554
 20
-110.76865828381742
 11
75.78000000000118
 21
-110.95999999999995
 72
     1
 10
75.78000000000118
 20
-110.95999999999995
 11
75.81806023374554
 21
-111.15134171618249
 72
     1
 10
75.81806023374554
 20
-111.15134171618249
 11
75.92644660940790
 21
-111.31355339059321
 72
     1
 10
75.92644660940790
 20
-111.31355339059321
 11
76.08865828381863
 21
-111.42193976625558
 72
     1
 10
76.08865828381863
 20
-111.42193976625558
 11
76.28000000000118
 21
-111.45999999999995
 72
     1
 10
76.28000000000118
 20
-111.45999999999995
 11
76.47134171618373
 21
-111.42193976625558
 72
     1
 10
76.47134171618373
 20
-111.42193976625558
 11
76.63355339059447
 21
-111.31355339059321
 72
     1
 10
76.63355339059447
 20
-111.31355339059321
 11
76.74193976625683
 21
-111.15134171618249
 72
     1
 10
76.74193976625683
 20
-111.15134171618249
 11
76.78000000000118
 21
-110.95999999999995
 97
        0
 75
     0
 76
     0
 98
        1
 10
0.00000000000000
 20
0.00000000000000
  0
LWPOLYLINE
  5
ED
330
23
100
AcDbEntity
  8
Zeichnung 5
  6
CONTINUOUS
 62
    12
370
    25
100
AcDbPolyline
 90
       17
 70
   128
 10
76.78000000000118
 20
-110.95999999999995
 10
76.74193976625683
 20
-110.76865828381742
 10
76.63355339059447
 20
-110.60644660940669
 10
76.47134171618373
 20
-110.49806023374431
 10
76.28000000000118
 20
-110.45999999999997
 10
76.08865828381863
 20
-110.49806023374431
 10
75.92644660940790
 20
-110.60644660940669
 10
75.81806023374554
 20
-110.76865828381742
 10
75.78000000000118
 20
-110.95999999999995
 10
75.81806023374554
 20
-111.15134171618249
 10
75.92644660940790
 20
-111.31355339059321
 10
76.08865828381863
 20
-111.42193976625558
 10
76.28000000000118
 20
-111.45999999999995
 10
76.47134171618373
 20
-111.42193976625558
 10
76.63355339059447
 20
-111.31355339059321
 10
76.74193976625683
 20
-111.15134171618249
 10
76.78000000000118
 20
-110.95999999999995
  0
LINE
  5
EE
330
23
100
AcDbEntity
  8
Zeichnung 5
  6
CONTINUOUS
 62
    12
370
    25
100
AcDbLine
 10
46.68074941679706
 20
-109.99999999999987
 30
0.00000000000000
 11
67.00000000000078
 21
-109.99999999999987
 31
0.00000000000000
  0
ENDBLK
  5
EF
330
23
100
AcDbEntity
  8
0
100
AcDbBlockEnd
  0
BLOCK
  5
F0
330
24
100
AcDbEntity
  8
0
100
AcDbBlockBegin
  2
*U12
 70
     1
 10
0.00000000000000
 20
0.00000000000000
 30
0.00000000000000
  3
*U12
  1

  0
LINE
  5
F1
330
24
100
AcDbEntity
  8
Zeichnung 5
  6
CONTINUOUS
 62
    12
370
    25
100
AcDbLine
 10
71.73094010767603
 20
-107.20000000000019
 30
0.00000000000000
 11
67.00000000000078
 21
-109.99999999999987
 31
0.00000000000000
  0
HATCH
  5
F2
330
24
100
AcDbEntity
  8
Zeichnung 5
 62
    12
100
AcDbHatch
 10
0.00000000000000
 20
0.00000000000000
 30
0.00000000000000
210
0.00000000000000
220
0.00000000000000
230
1.00000000000000
  2
SOLID
 70
     1
 71
     0
 91
        1
 92
        0
 93
       16
 72
     1
 10
72.23094010767603
 20
-107.20000000000019
 11
72.19287987393167
 21
-107.00865828381765
 72
     1
 10
72.19287987393167
 20
-107.00865828381765
 11
72.08449349826931
 21
-106.84644660940693
 72
     1
 10
72.08449349826931
 20
-106.84644660940693
 11
71.92228182385858
 21
-106.73806023374455
 72
     1
 10
71.92228182385858
 20
-106.73806023374455
 11
71.73094010767603
 21
-106.70000000000020
 72
     1
 10
71.73094010767603
 20
-106.70000000000020
 11
71.53959839149349
 21
-106.73806023374455
 72
     1
 10
71.53959839149349
 20
-106.73806023374455
 11
71.37738671708276
 21
-106.84644660940693
 72
     1
 10
71.37738671708276
 20
-106.84644660940693
 11
71.26900034142039
 21
-107.00865828381765
 72
     1
 10
71.26900034142039
 20
-107.00865828381765
 11
71.23094010767603
 21
-107.20000000000019
 72
     1
 10
71.23094010767603
 20
-107.20000000000019
 11
71.26900034142039
 21
-107.39134171618272
 72
     1
 10
71.26900034142039
 20
-107.39134171618272
 11
71.37738671708276
 21
-107.55355339059345
 72
     1
 10
71.37738671708276
 20
-107.55355339059345
 11
71.53959839149349
 21
-107.66193976625581
 72
     1
 10
71.53959839149349
 20
-107.66193976625581
 11
71.73094010767603
 21
-107.70000000000019
 72
     1
 10
71.73094010767603
 20
-107.70000000000019
 11
71.92228182385858
 21
-107.66193976625581
 72
     1
 10
71.92228182385858
 20
-107.66193976625581
 11
72.08449349826931
 21
-107.55355339059345
 72
     1
 10
72.08449349826931
 20
-107.55355339059345
 11
72.19287987393167
 21
-107.39134171618272
 72
     1
 10
72.19287987393167
 20
-107.39134171618272
 11
72.23094010767603
 21
-107.20000000000019
 97
        0
 75
     0
 76
     0
 98
        1
 10
0.00000000000000
 20
0.00000000000000
  0
LWPOLYLINE
  5
F3
330
24
100
AcDbEntity
  8
Zeichnung 5
  6
CONTINUOUS
 62
    12
370
    25
100
AcDbPolyline
 90
       17
 70
   128
 10
72.23094010767603
 20
-107.20000000000019
 10
72.19287987393167
 20
-107.00865828381765
 10
72.08449349826931
 20
-106.84644660940693
 10
71.92228182385858
 20
-106.73806023374455
 10
71.73094010767603
 20
-106.70000000000020
 10
71.53959839149349
 20
-106.73806023374455
 10
71.37738671708276
 20
-106.84644660940693
 10
71.26900034142039
 20
-107.00865828381765
 10
71.23094010767603
 20
-107.20000000000019
 10
71.26900034142039
 20
-107.39134171618272
 10
71.37738671708276
 20
-107.55355339059345
 10
71.53959839149349
 20
-107.66193976625581
 10
71.73094010767603
 20
-107.70000000000019
 10
71.92228182385858
 20
-107.66193976625581
 10
72.08449349826931
 20
-107.55355339059345
 10
72.19287987393167
 20
-107.39134171618272
 10
72.23094010767603
 20
-107.20000000000019
  0
LINE
  5
F4
330
24
100
AcDbEntity
  8
Zeichnung 5
  6
CONTINUOUS
 62
    12
370
    25
100
AcDbLine
 10
64.35000000000078
 20
-109.99999999999987
 30
0.00000000000000
 11
67.00000000000078
 21
-109.99999999999987
 31
0.00000000000000
  0
ENDBLK
  5
F5
330
24
100
AcDbEntity
  8
0
100
AcDbBlockEnd
  0
BLOCK
  5
F6
330
25
100
AcDbEntity
  8
0
100
AcDbBlockBegin
  2
*U13
 70
     1
 10
0.00000000000000
 20
0.00000000000000
 30
0.00000000000000
  3
*U13
  1

  0
MTEXT
  5
F7
330
25
100
AcDbEntity
  8
Zeichnung 5
 62
     7
370
    30
100
AcDbMText
 10
32.86134518886443
 20
-250.69017526172814
 30
0.00000000000000
 40
2.80000000000000
 41
0.00000000000000
 71
     7
 72
     1
  1
\fArial Narrow|b0|i0;Brandwand
 11
1.00000000000000
 21
0.00000000000000
 31
0.00000000000000
 73
     1
 44
1.00000000000000
  0
MTEXT
  5
F8
330
25
100
AcDbEntity
  8
Zeichnung 5
 62
     7
370
    30
100
AcDbMText
 10
32.86134518886443
 20
-252.29017526172814
 30
0.00000000000000
 40
2.80000000000000
 41
0.00000000000000
 71
     1
 72
     1
  1
\fArial Narrow|b0|i0;aus nichtbrennbaren Baustoffen;\Pfeuerbeständig unter mech.\PBeanspruchung
 11
1.00000000000000
 21
0.00000000000000
 31
0.00000000000000
 73
     1
 44
1.00000000000000
  0
LINE
  5
F9
330
25
100
AcDbEntity
  8
Zeichnung 5
  6
CONTINUOUS
 62
    12
370
    25
100
AcDbLine
 10
91.91594607164599
 20
-246.11315664593266
 30
0.00000000000000
 11
80.35700761110424
 21
-251.49017526172818
 31
0.00000000000000
  0
HATCH
  5
FA
330
25
100
AcDbEntity
  8
Zeichnung 5
 62
    12
100
AcDbHatch
 10
0.00000000000000
 20
0.00000000000000
 30
0.00000000000000
210
0.00000000000000
220
0.00000000000000
230
1.00000000000000
  2
SOLID
 70
     1
 71
     0
 91
        1
 92
        0
 93
       16
 72
     1
 10
92.41594607164599
 20
-246.11315664593266
 11
92.37788583790164
 21
-245.92181492975010
 72
     1
 10
92.37788583790164
 20
-245.92181492975010
 11
92.26949946223928
 21
-245.75960325533941
 72
     1
 10
92.26949946223928
 20
-245.75960325533941
 11
92.10728778782854
 21
-245.65121687967701
 72
     1
 10
92.10728778782854
 20
-245.65121687967701
 11
91.91594607164599
 21
-245.61315664593266
 72
     1
 10
91.91594607164599
 20
-245.61315664593266
 11
91.72460435546346
 21
-245.65121687967701
 72
     1
 10
91.72460435546346
 20
-245.65121687967701
 11
91.56239268105271
 21
-245.75960325533941
 72
     1
 10
91.56239268105271
 20
-245.75960325533941
 11
91.45400630539035
 21
-245.92181492975010
 72
     1
 10
91.45400630539035
 20
-245.92181492975010
 11
91.41594607164599
 21
-246.11315664593266
 72
     1
 10
91.41594607164599
 20
-246.11315664593266
 11
91.45400630539035
 21
-246.30449836211520
 72
     1
 10
91.45400630539035
 20
-246.30449836211520
 11
91.56239268105271
 21
-246.46671003652591
 72
     1
 10
91.56239268105271
 20
-246.46671003652591
 11
91.72460435546346
 21
-246.57509641218832
 72
     1
 10
91.72460435546346
 20
-246.57509641218832
 11
91.91594607164599
 21
-246.61315664593263
 72
     1
 10
91.91594607164599
 20
-246.61315664593263
 11
92.10728778782854
 21
-246.57509641218832
 72
     1
 10
92.10728778782854
 20
-246.57509641218832
 11
92.26949946223928
 21
-246.46671003652591
 72
     1
 10
92.26949946223928
 20
-246.46671003652591
 11
92.37788583790164
 21
-246.30449836211520
 72
     1
 10
92.37788583790164
 20
-246.30449836211520
 11
92.41594607164599
 21
-246.11315664593266
 97
        0
 75
     0
 76
     0
 98
        1
 10
0.00000000000000
 20
0.00000000000000
  0
LWPOLYLINE
  5
FB
330
25
100
AcDbEntity
  8
Zeichnung 5
  6
CONTINUOUS
 62
    12
370
    25
100
AcDbPolyline
 90
       17
 70
   128
 10
92.41594607164599
 20
-246.11315664593266
 10
92.37788583790164
 20
-245.92181492975010
 10
92.26949946223928
 20
-245.75960325533941
 10
92.10728778782854
 20
-245.65121687967701
 10
91.91594607164599
 20
-245.61315664593266
 10
91.72460435546346
 20
-245.65121687967701
 10
91.56239268105271
 20
-245.75960325533941
 10
91.45400630539035
 20
-245.92181492975010
 10
91.41594607164599
 20
-246.11315664593266
 10
91.45400630539035
 20
-246.30449836211520
 10
91.56239268105271
 20
-246.46671003652591
 10
91.72460435546346
 20
-246.57509641218832
 10
91.91594607164599
 20
-246.61315664593263
 10
92.10728778782854
 20
-246.57509641218832
 10
92.26949946223928
 20
-246.46671003652591
 10
92.37788583790164
 20
-246.30449836211520
 10
92.41594607164599
 20
-246.11315664593266
  0
LINE
  5
FC
330
25
100
AcDbEntity
  8
Zeichnung 5
  6
CONTINUOUS
 62
    12
370
    25
100
AcDbLine
 10
31.46134518886442
 20
-251.49017526172818
 30
0.00000000000000
 11
80.35700761110424
 21
-251.49017526172818
 31
0.00000000000000
  0
ENDBLK
  5
FD
330
25
100
AcDbEntity
  8
0
100
AcDbBlockEnd
  0
BLOCK
  5
FE
330
26
100
AcDbEntity
  8
0
100
AcDbBlockBegin
  2
*U14
 70
     1
 10
0.00000000000000
 20
0.00000000000000
 30
0.00000000000000
  3
*U14
  1

  0
MTEXT
  5
FF
330
26
100
AcDbEntity
  8
Zeichnung 5
 62
     7
370
    30
100
AcDbMText
 10
168.79562262799092
 20
-145.19999999999996
 30
0.00000000000000
 40
2.80000000000000
 41
0.00000000000000
 71
     7
 72
     1
  1
\fArial Narrow|b0|i0;Unterspannbahn
 11
1.00000000000000
 21
0.00000000000000
 31
0.00000000000000
 73
     1
 44
1.00000000000000
  0
MTEXT
  5
100
330
26
100
AcDbEntity
  8
Zeichnung 5
 62
     7
370
    30
100
AcDbMText
 10
168.79562262799092
 20
-146.79999999999998
 30
0.00000000000000
 40
2.80000000000000
 41
0.00000000000000
 71
     1
 72
     1
  1
\fArial Narrow|b0|i0;(diffusionsoffen)
 11
1.00000000000000
 21
0.00000000000000
 31
0.00000000000000
 73
     1
 44
1.00000000000000
  0
LINE
  5
101
330
26
100
AcDbEntity
  8
Zeichnung 5
  6
CONTINUOUS
 62
    12
370
    25
100
AcDbLine
 10
156.00000000000003
 20
-175.80000000000001
 30
0.00000000000000
 11
168.00000000000003
 21
-146.00000000000000
 31
0.00000000000000
  0
HATCH
  5
102
330
26
100
AcDbEntity
  8
Zeichnung 5
 62
    12
100
AcDbHatch
 10
0.00000000000000
 20
0.00000000000000
 30
0.00000000000000
210
0.00000000000000
220
0.00000000000000
230
1.00000000000000
  2
SOLID
 70
     1
 71
     0
 91
        1
 92
        0
 93
       16
 72
     1
 10
156.50000000000003
 20
-175.80000000000001
 11
156.46193976625565
 21
-175.60865828381748
 72
     1
 10
156.46193976625565
 20
-175.60865828381748
 11
156.35355339059331
 21
-175.44644660940676
 72
     1
 10
156.35355339059331
 20
-175.44644660940676
 11
156.19134171618256
 21
-175.33806023374436
 72
     1
 10
156.19134171618256
 20
-175.33806023374436
 11
156.00000000000003
 21
-175.30000000000001
 72
     1
 10
156.00000000000003
 20
-175.30000000000001
 11
155.80865828381752
 21
-175.33806023374436
 72
     1
 10
155.80865828381752
 20
-175.33806023374436
 11
155.64644660940675
 21
-175.44644660940676
 72
     1
 10
155.64644660940675
 20
-175.44644660940676
 11
155.53806023374437
 21
-175.60865828381748
 72
     1
 10
155.53806023374437
 20
-175.60865828381748
 11
155.50000000000006
 21
-175.80000000000001
 72
     1
 10
155.50000000000006
 20
-175.80000000000001
 11
155.53806023374437
 21
-175.99134171618255
 72
     1
 10
155.53806023374437
 20
-175.99134171618255
 11
155.64644660940675
 21
-176.15355339059326
 72
     1
 10
155.64644660940675
 20
-176.15355339059326
 11
155.80865828381752
 21
-176.26193976625564
 72
     1
 10
155.80865828381752
 20
-176.26193976625564
 11
156.00000000000003
 21
-176.30000000000001
 72
     1
 10
156.00000000000003
 20
-176.30000000000001
 11
156.19134171618256
 21
-176.26193976625564
 72
     1
 10
156.19134171618256
 20
-176.26193976625564
 11
156.35355339059331
 21
-176.15355339059326
 72
     1
 10
156.35355339059331
 20
-176.15355339059326
 11
156.46193976625565
 21
-175.99134171618255
 72
     1
 10
156.46193976625565
 20
-175.99134171618255
 11
156.50000000000003
 21
-175.80000000000001
 97
        0
 75
     0
 76
     0
 98
        1
 10
0.00000000000000
 20
0.00000000000000
  0
LWPOLYLINE
  5
103
330
26
100
AcDbEntity
  8
Zeichnung 5
  6
CONTINUOUS
 62
    12
370
    25
100
AcDbPolyline
 90
       17
 70
   128
 10
156.50000000000003
 20
-175.80000000000001
 10
156.46193976625565
 20
-175.60865828381748
 10
156.35355339059331
 20
-175.44644660940676
 10
156.19134171618256
 20
-175.33806023374436
 10
156.00000000000003
 20
-175.30000000000001
 10
155.80865828381752
 20
-175.33806023374436
 10
155.64644660940675
 20
-175.44644660940676
 10
155.53806023374437
 20
-175.60865828381748
 10
155.50000000000006
 20
-175.80000000000001
 10
155.53806023374437
 20
-175.99134171618255
 10
155.64644660940675
 20
-176.15355339059326
 10
155.80865828381752
 20
-176.26193976625564
 10
156.00000000000003
 20
-176.30000000000001
 10
156.19134171618256
 20
-176.26193976625564
 10
156.35355339059331
 20
-176.15355339059326
 10
156.46193976625565
 20
-175.99134171618255
 10
156.50000000000003
 20
-175.80000000000001
  0
LINE
  5
104
330
26
100
AcDbEntity
  8
Zeichnung 5
  6
CONTINUOUS
 62
    12
370
    25
100
AcDbLine
 10
168.00000000000003
 20
-146.00000000000000
 30
0.00000000000000
 11
193.46332529128796
 21
-146.00000000000000
 31
0.00000000000000
  0
ENDBLK
  5
105
330
26
100
AcDbEntity
  8
0
100
AcDbBlockEnd
  0
BLOCK
  5
106
330
27
100
AcDbEntity
  8
0
100
AcDbBlockBegin
  2
*U15
 70
     1
 10
0.00000000000000
 20
0.00000000000000
 30
0.00000000000000
  3
*U15
  1

  0
MTEXT
  5
107
330
27
100
AcDbEntity
  8
Zeichnung 5
 62
     7
370
    30
100
AcDbMText
 10
47.16140254697021
 20
-241.19999999999999
 30
0.00000000000000
 40
2.80000000000000
 41
0.00000000000000
 71
     7
 72
     1
  1
\fArial Narrow|b0|i0;Dampfsperre
 11
1.00000000000000
 21
0.00000000000000
 31
0.00000000000000
 73
     1
 44
1.00000000000000
  0
MTEXT
  5
108
330
27
100
AcDbEntity
  8
Zeichnung 5
 62
     7
370
    30
100
AcDbMText
 10
47.16140254697021
 20
-242.80000000000001
 30
0.00000000000000
 40
2.80000000000000
 41
0.00000000000000
 71
     1
 72
     1
  1
\fArial Narrow|b0|i0;(diffusionsdicht)
 11
1.00000000000000
 21
0.00000000000000
 31
0.00000000000000
 73
     1
 44
1.00000000000000
  0
LINE
  5
109
330
27
100
AcDbEntity
  8
Zeichnung 5
  6
CONTINUOUS
 62
    12
370
    25
100
AcDbLine
 10
69.99999999999997
 20
-228.60000000000002
 30
0.00000000000000
 11
69.99999999999997
 21
-242.00000000000000
 31
0.00000000000000
  0
HATCH
  5
10A
330
27
100
AcDbEntity
  8
Zeichnung 5
 62
    12
100
AcDbHatch
 10
0.00000000000000
 20
0.00000000000000
 30
0.00000000000000
210
0.00000000000000
220
0.00000000000000
230
1.00000000000000
  2
SOLID
 70
     1
 71
     0
 91
        1
 92
        0
 93
       16
 72
     1
 10
70.49999999999997
 20
-228.60000000000002
 11
70.46193976625563
 21
-228.40865828381746
 72
     1
 10
70.46193976625563
 20
-228.40865828381746
 11
70.35355339059325
 21
-228.24644660940675
 72
     1
 10
70.35355339059325
 20
-228.24644660940675
 11
70.19134171618252
 21
-228.13806023374437
 72
     1
 10
70.19134171618252
 20
-228.13806023374437
 11
69.99999999999997
 21
-228.10000000000002
 72
     1
 10
69.99999999999997
 20
-228.10000000000002
 11
69.80865828381742
 21
-228.13806023374437
 72
     1
 10
69.80865828381742
 20
-228.13806023374437
 11
69.64644660940671
 21
-228.24644660940675
 72
     1
 10
69.64644660940671
 20
-228.24644660940675
 11
69.53806023374433
 21
-228.40865828381746
 72
     1
 10
69.53806023374433
 20
-228.40865828381746
 11
69.49999999999997
 21
-228.60000000000002
 72
     1
 10
69.49999999999997
 20
-228.60000000000002
 11
69.53806023374433
 21
-228.79134171618256
 72
     1
 10
69.53806023374433
 20
-228.79134171618256
 11
69.64644660940671
 21
-228.95355339059327
 72
     1
 10
69.64644660940671
 20
-228.95355339059327
 11
69.80865828381742
 21
-229.06193976625565
 72
     1
 10
69.80865828381742
 20
-229.06193976625565
 11
69.99999999999997
 21
-229.09999999999999
 72
     1
 10
69.99999999999997
 20
-229.09999999999999
 11
70.19134171618252
 21
-229.06193976625565
 72
     1
 10
70.19134171618252
 20
-229.06193976625565
 11
70.35355339059325
 21
-228.95355339059327
 72
     1
 10
70.35355339059325
 20
-228.95355339059327
 11
70.46193976625563
 21
-228.79134171618256
 72
     1
 10
70.46193976625563
 20
-228.79134171618256
 11
70.49999999999997
 21
-228.60000000000002
 97
        0
 75
     0
 76
     0
 98
        1
 10
0.00000000000000
 20
0.00000000000000
  0
LWPOLYLINE
  5
10B
330
27
100
AcDbEntity
  8
Zeichnung 5
  6
CONTINUOUS
 62
    12
370
    25
100
AcDbPolyline
 90
       17
 70
   128
 10
70.49999999999997
 20
-228.60000000000002
 10
70.46193976625563
 20
-228.40865828381746
 10
70.35355339059325
 20
-228.24644660940675
 10
70.19134171618252
 20
-228.13806023374437
 10
69.99999999999997
 20
-228.10000000000002
 10
69.80865828381742
 20
-228.13806023374437
 10
69.64644660940671
 20
-228.24644660940675
 10
69.53806023374433
 20
-228.40865828381746
 10
69.49999999999997
 20
-228.60000000000002
 10
69.53806023374433
 20
-228.79134171618256
 10
69.64644660940671
 20
-228.95355339059327
 10
69.80865828381742
 20
-229.06193976625565
 10
69.99999999999997
 20
-229.09999999999999
 10
70.19134171618252
 20
-229.06193976625565
 10
70.35355339059325
 20
-228.95355339059327
 10
70.46193976625563
 20
-228.79134171618256
 10
70.49999999999997
 20
-228.60000000000002
  0
LINE
  5
10C
330
27
100
AcDbEntity
  8
Zeichnung 5
  6
CONTINUOUS
 62
    12
370
    25
100
AcDbLine
 10
45.76140254697021
 20
-242.00000000000000
 30
0.00000000000000
 11
69.99999999999997
 21
-242.00000000000000
 31
0.00000000000000
  0
ENDBLK
  5
10D
330
27
100
AcDbEntity
  8
0
100
AcDbBlockEnd
  0
BLOCK
  5
10E
330
28
100
AcDbEntity
  8
0
100
AcDbBlockBegin
  2
*U16
 70
     1
 10
0.00000000000000
 20
0.00000000000000
 30
0.00000000000000
  3
*U16
  1

  0
MTEXT
  5
10F
330
28
100
AcDbEntity
  8
Zeichnung 5
 62
     7
370
    30
100
AcDbMText
 10
154.25000000000037
 20
-241.90000000000077
 30
0.00000000000000
 40
2.80000000000000
 41
0.00000000000000
 71
     7
 72
     1
  1
\fArial Narrow|b0|i0;Dampfsperre (diffusionsdicht);
 11
1.00000000000000
 21
0.00000000000000
 31
0.00000000000000
 73
     1
 44
1.00000000000000
  0
MTEXT
  5
110
330
28
100
AcDbEntity
  8
Zeichnung 5
 62
     7
370
    30
100
AcDbMText
 10
154.25000000000037
 20
-243.50000000000077
 30
0.00000000000000
 40
2.80000000000000
 41
0.00000000000000
 71
     1
 72
     1
  1
\fArial Narrow|b0|i0;dicht verklebt mit Putz-\Panschlussband
 11
1.00000000000000
 21
0.00000000000000
 31
0.00000000000000
 73
     1
 44
1.00000000000000
  0
LINE
  5
111
330
28
100
AcDbEntity
  8
Zeichnung 5
  6
CONTINUOUS
 62
    12
370
    25
100
AcDbLine
 10
146.58909075774866
 20
-228.70499736683311
 30
0.00000000000000
 11
153.00000000000034
 21
-242.70000000000078
 31
0.00000000000000
  0
HATCH
  5
112
330
28
100
AcDbEntity
  8
Zeichnung 5
 62
    12
100
AcDbHatch
 10
0.00000000000000
 20
0.00000000000000
 30
0.00000000000000
210
0.00000000000000
220
0.00000000000000
230
1.00000000000000
  2
SOLID
 70
     1
 71
     0
 91
        1
 92
        0
 93
       16
 72
     1
 10
147.08909075774864
 20
-228.70499736683311
 11
147.05103052400432
 21
-228.51365565065055
 72
     1
 10
147.05103052400432
 20
-228.51365565065055
 11
146.94264414834194
 21
-228.35144397623984
 72
     1
 10
146.94264414834194
 20
-228.35144397623984
 11
146.78043247393120
 21
-228.24305760057743
 72
     1
 10
146.78043247393120
 20
-228.24305760057743
 11
146.58909075774866
 21
-228.20499736683311
 72
     1
 10
146.58909075774866
 20
-228.20499736683311
 11
146.39774904156613
 21
-228.24305760057743
 72
     1
 10
146.39774904156613
 20
-228.24305760057743
 11
146.23553736715542
 21
-228.35144397623984
 72
     1
 10
146.23553736715542
 20
-228.35144397623984
 11
146.12715099149304
 21
-228.51365565065055
 72
     1
 10
146.12715099149304
 20
-228.51365565065055
 11
146.08909075774866
 21
-228.70499736683311
 72
     1
 10
146.08909075774866
 20
-228.70499736683311
 11
146.12715099149304
 21
-228.89633908301565
 72
     1
 10
146.12715099149304
 20
-228.89633908301565
 11
146.23553736715542
 21
-229.05855075742636
 72
     1
 10
146.23553736715542
 20
-229.05855075742636
 11
146.39774904156613
 21
-229.16693713308877
 72
     1
 10
146.39774904156613
 20
-229.16693713308877
 11
146.58909075774866
 21
-229.20499736683308
 72
     1
 10
146.58909075774866
 20
-229.20499736683308
 11
146.78043247393120
 21
-229.16693713308877
 72
     1
 10
146.78043247393120
 20
-229.16693713308877
 11
146.94264414834194
 21
-229.05855075742636
 72
     1
 10
146.94264414834194
 20
-229.05855075742636
 11
147.05103052400432
 21
-228.89633908301565
 72
     1
 10
147.05103052400432
 20
-228.89633908301565
 11
147.08909075774864
 21
-228.70499736683311
 97
        0
 75
     0
 76
     0
 98
        1
 10
0.00000000000000
 20
0.00000000000000
  0
LWPOLYLINE
  5
113
330
28
100
AcDbEntity
  8
Zeichnung 5
  6
CONTINUOUS
 62
    12
370
    25
100
AcDbPolyline
 90
       17
 70
   128
 10
147.08909075774864
 20
-228.70499736683311
 10
147.05103052400432
 20
-228.51365565065055
 10
146.94264414834194
 20
-228.35144397623984
 10
146.78043247393120
 20
-228.24305760057743
 10
146.58909075774866
 20
-228.20499736683311
 10
146.39774904156613
 20
-228.24305760057743
 10
146.23553736715542
 20
-228.35144397623984
 10
146.12715099149304
 20
-228.51365565065055
 10
146.08909075774866
 20
-228.70499736683311
 10
146.12715099149304
 20
-228.89633908301565
 10
146.23553736715542
 20
-229.05855075742636
 10
146.39774904156613
 20
-229.16693713308877
 10
146.58909075774866
 20
-229.20499736683308
 10
146.78043247393120
 20
-229.16693713308877
 10
146.94264414834194
 20
-229.05855075742636
 10
147.05103052400432
 20
-228.89633908301565
 10
147.08909075774864
 20
-228.70499736683311
  0
LINE
  5
114
330
28
100
AcDbEntity
  8
Zeichnung 5
  6
CONTINUOUS
 62
    12
370
    25
100
AcDbLine
 10
153.00000000000034
 20
-242.70000000000078
 30
0.00000000000000
 11
197.63307494167998
 21
-242.70000000000078
 31
0.00000000000000
  0
ENDBLK
  5
115
330
28
100
AcDbEntity
  8
0
100
AcDbBlockEnd
  0
BLOCK
  5
116
330
29
100
AcDbEntity
  8
0
100
AcDbBlockBegin
  2
*U17
 70
     1
 10
0.00000000000000
 20
0.00000000000000
 30
0.00000000000000
  3
*U17
  1

  0
LINE
  5
117
330
29
100
AcDbEntity
  8
Zeichnung 5
  6
DC_VERDECKT
 62
     5
 48
0.28571428571429
370
    35
100
AcDbLine
 10
138.00000000000014
 20
-252.20000000000036
 30
0.00000000000000
 11
138.00000000000020
 21
-233.70000000000078
 31
0.00000000000000
  0
LINE
  5
118
330
29
100
AcDbEntity
  8
Zeichnung 5
  6
CONTINUOUS
 62
     5
370
    18
100
AcDbLine
 10
137.60000000000019
 20
-241.20000000000036
 30
0.00000000000000
 11
137.60000000000019
 21
-233.40000000000040
 31
0.00000000000000
  0
LINE
  5
119
330
29
100
AcDbEntity
  8
Zeichnung 5
  6
CONTINUOUS
 62
     5
370
    18
100
AcDbLine
 10
137.60000000000019
 20
-233.40000000000040
 30
0.00000000000000
 11
138.45000000000036
 21
-232.55000000000024
 31
0.00000000000000
  0
LINE
  5
11A
330
29
100
AcDbEntity
  8
Zeichnung 5
  6
CONTINUOUS
 62
     5
370
    18
100
AcDbLine
 10
138.45000000000036
 20
-232.55000000000024
 30
0.00000000000000
 11
138.45000000000036
 21
-227.60000000000045
 31
0.00000000000000
  0
LINE
  5
11B
330
29
100
AcDbEntity
  8
Zeichnung 5
  6
CONTINUOUS
 62
     5
370
    18
100
AcDbLine
 10
138.25000000000037
 20
-227.60000000000039
 30
0.00000000000000
 11
138.25000000000037
 21
-232.46715728752562
 31
0.00000000000000
  0
LINE
  5
11C
330
29
100
AcDbEntity
  8
Zeichnung 5
  6
CONTINUOUS
 62
     5
370
    18
100
AcDbLine
 10
137.40000000000020
 20
-233.31715728752584
 30
0.00000000000000
 11
138.25000000000037
 21
-232.46715728752562
 31
0.00000000000000
  0
LINE
  5
11D
330
29
100
AcDbEntity
  8
Zeichnung 5
  6
CONTINUOUS
 62
     5
370
    18
100
AcDbLine
 10
137.40000000000020
 20
-241.20000000000036
 30
0.00000000000000
 11
137.40000000000020
 21
-233.31715728752584
 31
0.00000000000000
  0
LINE
  5
11E
330
29
100
AcDbEntity
  8
Zeichnung 5
  6
CONTINUOUS
 62
     5
370
    18
100
AcDbLine
 10
137.60000000000019
 20
-241.20000000000036
 30
0.00000000000000
 11
137.40000000000020
 21
-241.20000000000036
 31
0.00000000000000
  0
LINE
  5
11F
330
29
100
AcDbEntity
  8
Zeichnung 5
  6
CONTINUOUS
 62
     5
370
    18
100
AcDbLine
 10
138.45000000000036
 20
-227.60000000000039
 30
0.00000000000000
 11
138.25000000000037
 21
-227.60000000000039
 31
0.00000000000000
  0
ENDBLK
  5
120
330
29
100
AcDbEntity
  8
0
100
AcDbBlockEnd
  0
BLOCK
  5
121
330
2A
100
AcDbEntity
  8
0
100
AcDbBlockBegin
  2
*U18
 70
     1
 10
0.00000000000000
 20
0.00000000000000
 30
0.00000000000000
  3
*U18
  1

  0
MTEXT
  5
122
330
2A
100
AcDbEntity
  8
Zeichnung 5
 62
     7
370
    30
100
AcDbMText
 10
144.73022288911747
 20
-262.41224743781493
 30
0.00000000000000
 40
2.80000000000000
 41
0.00000000000000
 71
     7
 72
     1
  1
\fArial Narrow|b0|i0;Putzanschlussband (z.B. Contega PV)
 11
1.00000000000000
 21
0.00000000000000
 31
0.00000000000000
 73
     1
 44
1.00000000000000
  0
MTEXT
  5
123
330
2A
100
AcDbEntity
  8
Zeichnung 5
 62
     7
370
    30
100
AcDbMText
 10
144.73022288911747
 20
-264.01224743781495
 30
0.00000000000000
 40
2.80000000000000
 41
0.00000000000000
 71
     1
 72
     1
  1
\fArial Narrow|b0|i0;mit Anschlusskleber gem. Hersteller-\Pangabe auf Mauerwerk fixiert und in\PInnenputz eingearbeitet
 11
1.00000000000000
 21
0.00000000000000
 31
0.00000000000000
 73
     1
 44
1.00000000000000
  0
LINE
  5
124
330
2A
100
AcDbEntity
  8
Zeichnung 5
  6
CONTINUOUS
 62
    12
370
    25
100
AcDbLine
 10
138.00000000000037
 20
-244.70000000000078
 30
0.00000000000000
 11
143.95153185276232
 21
-263.21224743781488
 31
0.00000000000000
  0
HATCH
  5
125
330
2A
100
AcDbEntity
  8
Zeichnung 5
 62
    12
100
AcDbHatch
 10
0.00000000000000
 20
0.00000000000000
 30
0.00000000000000
210
0.00000000000000
220
0.00000000000000
230
1.00000000000000
  2
SOLID
 70
     1
 71
     0
 91
        1
 92
        0
 93
       16
 72
     1
 10
138.50000000000037
 20
-244.70000000000078
 11
138.46193976625599
 21
-244.50865828381819
 72
     1
 10
138.46193976625599
 20
-244.50865828381819
 11
138.35355339059362
 21
-244.34644660940751
 72
     1
 10
138.35355339059362
 20
-244.34644660940751
 11
138.19134171618290
 21
-244.23806023374510
 72
     1
 10
138.19134171618290
 20
-244.23806023374510
 11
138.00000000000037
 21
-244.20000000000078
 72
     1
 10
138.00000000000037
 20
-244.20000000000078
 11
137.80865828381783
 21
-244.23806023374510
 72
     1
 10
137.80865828381783
 20
-244.23806023374510
 11
137.64644660940712
 21
-244.34644660940751
 72
     1
 10
137.64644660940712
 20
-244.34644660940751
 11
137.53806023374474
 21
-244.50865828381819
 72
     1
 10
137.53806023374474
 20
-244.50865828381819
 11
137.50000000000037
 21
-244.70000000000078
 72
     1
 10
137.50000000000037
 20
-244.70000000000078
 11
137.53806023374474
 21
-244.89134171618332
 72
     1
 10
137.53806023374474
 20
-244.89134171618332
 11
137.64644660940712
 21
-245.05355339059403
 72
     1
 10
137.64644660940712
 20
-245.05355339059403
 11
137.80865828381783
 21
-245.16193976625644
 72
     1
 10
137.80865828381783
 20
-245.16193976625644
 11
138.00000000000037
 21
-245.20000000000076
 72
     1
 10
138.00000000000037
 20
-245.20000000000076
 11
138.19134171618290
 21
-245.16193976625644
 72
     1
 10
138.19134171618290
 20
-245.16193976625644
 11
138.35355339059362
 21
-245.05355339059403
 72
     1
 10
138.35355339059362
 20
-245.05355339059403
 11
138.46193976625599
 21
-244.89134171618332
 72
     1
 10
138.46193976625599
 20
-244.89134171618332
 11
138.50000000000037
 21
-244.70000000000078
 97
        0
 75
     0
 76
     0
 98
        1
 10
0.00000000000000
 20
0.00000000000000
  0
LWPOLYLINE
  5
126
330
2A
100
AcDbEntity
  8
Zeichnung 5
  6
CONTINUOUS
 62
    12
370
    25
100
AcDbPolyline
 90
       17
 70
   128
 10
138.50000000000037
 20
-244.70000000000078
 10
138.46193976625599
 20
-244.50865828381819
 10
138.35355339059362
 20
-244.34644660940751
 10
138.19134171618290
 20
-244.23806023374510
 10
138.00000000000037
 20
-244.20000000000078
 10
137.80865828381783
 20
-244.23806023374510
 10
137.64644660940712
 20
-244.34644660940751
 10
137.53806023374474
 20
-244.50865828381819
 10
137.50000000000037
 20
-244.70000000000078
 10
137.53806023374474
 20
-244.89134171618332
 10
137.64644660940712
 20
-245.05355339059403
 10
137.80865828381783
 20
-245.16193976625644
 10
138.00000000000037
 20
-245.20000000000076
 10
138.19134171618290
 20
-245.16193976625644
 10
138.35355339059362
 20
-245.05355339059403
 10
138.46193976625599
 20
-244.89134171618332
 10
138.50000000000037
 20
-244.70000000000078
  0
LINE
  5
127
330
2A
100
AcDbEntity
  8
Zeichnung 5
  6
CONTINUOUS
 62
    12
370
    25
100
AcDbLine
 10
143.95153185276232
 20
-263.21224743781488
 30
0.00000000000000
 11
199.66316174992616
 21
-263.21224743781488
 31
0.00000000000000
  0
ENDBLK
  5
128
330
2A
100
AcDbEntity
  8
0
100
AcDbBlockEnd
  0
BLOCK
  5
129
330
2B
100
AcDbEntity
  8
0
100
AcDbBlockBegin
  2
*U19
 70
     1
 10
0.00000000000000
 20
0.00000000000000
 30
0.00000000000000
  3
*U19
  1

  0
MTEXT
  5
12A
330
2B
100
AcDbEntity
  8
Zeichnung 5
 62
     7
370
    30
100
AcDbMText
 10
147.77869103635550
 20
-255.90000000000080
 30
0.00000000000000
 40
2.80000000000000
 41
0.00000000000000
 71
     7
 72
     1
  1
\fArial Narrow|b0|i0;Dauerelastische Fuge
 11
1.00000000000000
 21
0.00000000000000
 31
0.00000000000000
 73
     1
 44
1.00000000000000
  0
LINE
  5
12B
330
2B
100
AcDbEntity
  8
Zeichnung 5
  6
CONTINUOUS
 62
    12
370
    25
100
AcDbLine
 10
140.40000000000038
 20
-236.10000000000079
 30
0.00000000000000
 11
147.00000000000034
 21
-256.70000000000073
 31
0.00000000000000
  0
HATCH
  5
12C
330
2B
100
AcDbEntity
  8
Zeichnung 5
 62
    12
100
AcDbHatch
 10
0.00000000000000
 20
0.00000000000000
 30
0.00000000000000
210
0.00000000000000
220
0.00000000000000
230
1.00000000000000
  2
SOLID
 70
     1
 71
     0
 91
        1
 92
        0
 93
       16
 72
     1
 10
140.90000000000035
 20
-236.10000000000079
 11
140.86193976625603
 21
-235.90865828381823
 72
     1
 10
140.86193976625603
 20
-235.90865828381823
 11
140.75355339059365
 21
-235.74644660940751
 72
     1
 10
140.75355339059365
 20
-235.74644660940751
 11
140.59134171618291
 21
-235.63806023374511
 72
     1
 10
140.59134171618291
 20
-235.63806023374511
 11
140.40000000000038
 21
-235.60000000000079
 72
     1
 10
140.40000000000038
 20
-235.60000000000079
 11
140.20865828381784
 21
-235.63806023374511
 72
     1
 10
140.20865828381784
 20
-235.63806023374511
 11
140.04644660940710
 21
-235.74644660940751
 72
     1
 10
140.04644660940710
 20
-235.74644660940751
 11
139.93806023374475
 21
-235.90865828381823
 72
     1
 10
139.93806023374475
 20
-235.90865828381823
 11
139.90000000000038
 21
-236.10000000000079
 72
     1
 10
139.90000000000038
 20
-236.10000000000079
 11
139.93806023374475
 21
-236.29134171618335
 72
     1
 10
139.93806023374475
 20
-236.29134171618335
 11
140.04644660940710
 21
-236.45355339059404
 72
     1
 10
140.04644660940710
 20
-236.45355339059404
 11
140.20865828381784
 21
-236.56193976625644
 72
     1
 10
140.20865828381784
 20
-236.56193976625644
 11
140.40000000000038
 21
-236.60000000000079
 72
     1
 10
140.40000000000038
 20
-236.60000000000079
 11
140.59134171618291
 21
-236.56193976625644
 72
     1
 10
140.59134171618291
 20
-236.56193976625644
 11
140.75355339059365
 21
-236.45355339059404
 72
     1
 10
140.75355339059365
 20
-236.45355339059404
 11
140.86193976625603
 21
-236.29134171618335
 72
     1
 10
140.86193976625603
 20
-236.29134171618335
 11
140.90000000000035
 21
-236.10000000000079
 97
        0
 75
     0
 76
     0
 98
        1
 10
0.00000000000000
 20
0.00000000000000
  0
LWPOLYLINE
  5
12D
330
2B
100
AcDbEntity
  8
Zeichnung 5
  6
CONTINUOUS
 62
    12
370
    25
100
AcDbPolyline
 90
       17
 70
   128
 10
140.90000000000035
 20
-236.10000000000079
 10
140.86193976625603
 20
-235.90865828381823
 10
140.75355339059365
 20
-235.74644660940751
 10
140.59134171618291
 20
-235.63806023374511
 10
140.40000000000038
 20
-235.60000000000079
 10
140.20865828381784
 20
-235.63806023374511
 10
140.04644660940710
 20
-235.74644660940751
 10
139.93806023374475
 20
-235.90865828381823
 10
139.90000000000038
 20
-236.10000000000079
 10
139.93806023374475
 20
-236.29134171618335
 10
140.04644660940710
 20
-236.45355339059404
 10
140.20865828381784
 20
-236.56193976625644
 10
140.40000000000038
 20
-236.60000000000079
 10
140.59134171618291
 20
-236.56193976625644
 10
140.75355339059365
 20
-236.45355339059404
 10
140.86193976625603
 20
-236.29134171618335
 10
140.90000000000035
 20
-236.10000000000079
  0
LINE
  5
12E
330
2B
100
AcDbEntity
  8
Zeichnung 5
  6
CONTINUOUS
 62
    12
370
    25
100
AcDbLine
 10
147.00000000000034
 20
-256.70000000000073
 30
0.00000000000000
 11
179.79050820198532
 21
-256.70000000000073
 31
0.00000000000000
  0
ENDBLK
  5
12F
330
2B
100
AcDbEntity
  8
0
100
AcDbBlockEnd
  0
BLOCK
  5
130
330
2C
100
AcDbEntity
  8
0
100
AcDbBlockBegin
  2
*U20
 70
     1
 10
0.00000000000000
 20
0.00000000000000
 30
0.00000000000000
  3
*U20
  1

  0
ARC
  5
131
330
2C
100
AcDbEntity
  8
Zeichnung 5
  6
CONTINUOUS
 62
     7
370
    18
100
AcDbCircle
 10
145.60869565217413
 20
-228.19999999999985
 30
0.00000000000000
 40
2.89130434782607
100
AcDbArc
 50
0.00000000000000
 51
122.55446751640125
  0
LINE
  5
132
330
2C
100
AcDbEntity
  8
Zeichnung 5
  6
CONTINUOUS
 62
     7
370
    18
100
AcDbLine
 10
144.05288152995860
 20
-225.76297655963810
 30
0.00000000000000
 11
142.14551613182914
 21
-226.98065299782397
 31
0.00000000000000
  0
ARC
  5
133
330
2C
100
AcDbEntity
  8
Zeichnung 5
  6
CONTINUOUS
 62
     7
370
    18
100
AcDbCircle
 10
139.39130434782655
 20
-225.30869565217384
 30
0.00000000000000
 40
2.89130434782607
100
AcDbArc
 50
57.44553248360120
 51
214.99529791667362
  0
LINE
  5
134
330
2C
100
AcDbEntity
  8
Zeichnung 5
  6
CONTINUOUS
 62
     7
370
    18
100
AcDbLine
 10
140.94711847004200
 20
-222.87167221181204
 30
0.00000000000000
 11
144.05288152995871
 21
-224.85441474470949
 31
0.00000000000000
  0
ARC
  5
135
330
2C
100
AcDbEntity
  8
Zeichnung 5
  6
CONTINUOUS
 62
     7
370
    18
100
AcDbCircle
 10
145.60869565217413
 20
-222.41739130434766
 30
0.00000000000000
 40
2.89130434782607
100
AcDbArc
 50
237.44553248360157
 51
122.55446751639920
  0
LINE
  5
136
330
2C
100
AcDbEntity
  8
Zeichnung 5
  6
CONTINUOUS
 62
     7
370
    18
100
AcDbLine
 10
144.05288152995865
 20
-219.98036786398589
 30
0.00000000000000
 11
140.94711847004200
 21
-221.96311039688337
 31
0.00000000000000
  0
ARC
  5
137
330
2C
100
AcDbEntity
  8
Zeichnung 5
  6
CONTINUOUS
 62
     7
370
    18
100
AcDbCircle
 10
139.39130434782655
 20
-219.52608695652157
 30
0.00000000000000
 40
2.89130434782607
100
AcDbArc
 50
57.44553248359961
 51
302.55446751639880
  0
LINE
  5
138
330
2C
100
AcDbEntity
  8
Zeichnung 5
  6
CONTINUOUS
 62
     7
370
    18
100
AcDbLine
 10
140.94711847004206
 20
-217.08906351615980
 30
0.00000000000000
 11
144.05288152995863
 21
-219.07180604905730
 31
0.00000000000000
  0
ARC
  5
139
330
2C
100
AcDbEntity
  8
Zeichnung 5
  6
CONTINUOUS
 62
     7
370
    18
100
AcDbCircle
 10
145.60869565217413
 20
-216.63478260869553
 30
0.00000000000000
 40
2.89130434782607
100
AcDbArc
 50
237.44553248359961
 51
122.55446751640039
  0
LINE
  5
13A
330
2C
100
AcDbEntity
  8
Zeichnung 5
  6
CONTINUOUS
 62
     7
370
    18
100
AcDbLine
 10
144.05288152995863
 20
-214.19775916833376
 30
0.00000000000000
 11
140.94711847004206
 21
-216.18050170123126
 31
0.00000000000000
  0
ARC
  5
13B
330
2C
100
AcDbEntity
  8
Zeichnung 5
  6
CONTINUOUS
 62
     7
370
    18
100
AcDbCircle
 10
139.39130434782655
 20
-213.74347826086949
 30
0.00000000000000
 40
2.89130434782607
100
AcDbArc
 50
57.44553248360083
 51
302.55446751640039
  0
LINE
  5
13C
330
2C
100
AcDbEntity
  8
Zeichnung 5
  6
CONTINUOUS
 62
     7
370
    18
100
AcDbLine
 10
140.94711847004200
 20
-211.30645482050770
 30
0.00000000000000
 11
144.05288152995868
 21
-213.28919735340514
 31
0.00000000000000
  0
ARC
  5
13D
330
2C
100
AcDbEntity
  8
Zeichnung 5
  6
CONTINUOUS
 62
     7
370
    18
100
AcDbCircle
 10
145.60869565217413
 20
-210.85217391304340
 30
0.00000000000000
 40
2.89130434782607
100
AcDbArc
 50
237.44553248360072
 51
122.55446751639954
  0
LINE
  5
13E
330
2C
100
AcDbEntity
  8
Zeichnung 5
  6
CONTINUOUS
 62
     7
370
    18
100
AcDbLine
 10
144.05288152995863
 20
-208.41515047268157
 30
0.00000000000000
 11
140.94711847004200
 21
-210.39789300557908
 31
0.00000000000000
  0
ARC
  5
13F
330
2C
100
AcDbEntity
  8
Zeichnung 5
  6
CONTINUOUS
 62
     7
370
    18
100
AcDbCircle
 10
139.39130434782655
 20
-207.96086956521731
 30
0.00000000000000
 40
2.89130434782607
100
AcDbArc
 50
57.44553248360035
 51
302.55446751639965
  0
LINE
  5
140
330
2C
100
AcDbEntity
  8
Zeichnung 5
  6
CONTINUOUS
 62
     7
370
    18
100
AcDbLine
 10
140.94711847004200
 20
-205.52384612485554
 30
0.00000000000000
 11
144.05288152995863
 21
-207.50658865775307
 31
0.00000000000000
  0
ARC
  5
141
330
2C
100
AcDbEntity
  8
Zeichnung 5
  6
CONTINUOUS
 62
     7
370
    18
100
AcDbCircle
 10
145.60869565217413
 20
-205.06956521739124
 30
0.00000000000000
 40
2.89130434782607
100
AcDbArc
 50
237.44553248360046
 51
122.55446751640039
  0
LINE
  5
142
330
2C
100
AcDbEntity
  8
Zeichnung 5
  6
CONTINUOUS
 62
     7
370
    18
100
AcDbLine
 10
144.05288152995863
 20
-202.63254177702950
 30
0.00000000000000
 11
140.94711847004206
 21
-204.61528430992698
 31
0.00000000000000
  0
ARC
  5
143
330
2C
100
AcDbEntity
  8
Zeichnung 5
  6
CONTINUOUS
 62
     7
370
    18
100
AcDbCircle
 10
139.39130434782655
 20
-202.17826086956521
 30
0.00000000000000
 40
2.89130434782607
100
AcDbArc
 50
57.44553248360057
 51
302.55446751640039
  0
LINE
  5
144
330
2C
100
AcDbEntity
  8
Zeichnung 5
  6
CONTINUOUS
 62
     7
370
    18
100
AcDbLine
 10
140.94711847004200
 20
-199.74123742920344
 30
0.00000000000000
 11
144.05288152995865
 21
-201.72397996210094
 31
0.00000000000000
  0
ARC
  5
145
330
2C
100
AcDbEntity
  8
Zeichnung 5
  6
CONTINUOUS
 62
     7
370
    18
100
AcDbCircle
 10
145.60869565217413
 20
-199.28695652173911
 30
0.00000000000000
 40
2.89130434782607
100
AcDbArc
 50
237.44553248360106
 51
122.55446751640039
  0
LINE
  5
146
330
2C
100
AcDbEntity
  8
Zeichnung 5
  6
CONTINUOUS
 62
     7
370
    18
100
AcDbLine
 10
144.05288152995863
 20
-196.84993308137734
 30
0.00000000000000
 11
140.94711847004206
 21
-198.83267561427488
 31
0.00000000000000
  0
ARC
  5
147
330
2C
100
AcDbEntity
  8
Zeichnung 5
  6
CONTINUOUS
 62
     7
370
    18
100
AcDbCircle
 10
139.39130434782655
 20
-196.39565217391308
 30
0.00000000000000
 40
2.89130434782607
100
AcDbArc
 50
57.44553248360083
 51
302.55446751640039
  0
LINE
  5
148
330
2C
100
AcDbEntity
  8
Zeichnung 5
  6
CONTINUOUS
 62
     7
370
    18
100
AcDbLine
 10
140.94711847004200
 20
-193.95862873355128
 30
0.00000000000000
 11
144.05288152995868
 21
-195.94137126644875
 31
0.00000000000000
  0
ARC
  5
149
330
2C
100
AcDbEntity
  8
Zeichnung 5
  6
CONTINUOUS
 62
     7
370
    18
100
AcDbCircle
 10
145.60869565217413
 20
-193.50434782608696
 30
0.00000000000000
 40
2.89130434782607
100
AcDbArc
 50
237.44553248360094
 51
122.55446751640039
  0
LINE
  5
14A
330
2C
100
AcDbEntity
  8
Zeichnung 5
  6
CONTINUOUS
 62
     7
370
    18
100
AcDbLine
 10
144.05288152995863
 20
-191.06732438572521
 30
0.00000000000000
 11
140.94711847004206
 21
-193.05006691862269
 31
0.00000000000000
  0
ARC
  5
14B
330
2C
100
AcDbEntity
  8
Zeichnung 5
  6
CONTINUOUS
 62
     7
370
    18
100
AcDbCircle
 10
139.39130434782655
 20
-190.61304347826095
 30
0.00000000000000
 40
2.89130434782607
100
AcDbArc
 50
57.44553248360083
 51
302.55446751640039
  0
LINE
  5
14C
330
2C
100
AcDbEntity
  8
Zeichnung 5
  6
CONTINUOUS
 62
     7
370
    18
100
AcDbLine
 10
140.94711847004200
 20
-188.17602003789912
 30
0.00000000000000
 11
144.05288152995868
 21
-190.15876257079660
 31
0.00000000000000
  0
ARC
  5
14D
330
2C
100
AcDbEntity
  8
Zeichnung 5
  6
CONTINUOUS
 62
     7
370
    18
100
AcDbCircle
 10
145.60869565217413
 20
-187.72173913043483
 30
0.00000000000000
 40
2.89130434782607
100
AcDbArc
 50
237.44553248360094
 51
122.55446751640039
  0
LINE
  5
14E
330
2C
100
AcDbEntity
  8
Zeichnung 5
  6
CONTINUOUS
 62
     7
370
    18
100
AcDbLine
 10
144.05288152995863
 20
-185.28471569007306
 30
0.00000000000000
 11
140.94711847004206
 21
-187.26745822297056
 31
0.00000000000000
  0
ARC
  5
14F
330
2C
100
AcDbEntity
  8
Zeichnung 5
  6
CONTINUOUS
 62
     7
370
    18
100
AcDbCircle
 10
139.39130434782655
 20
-184.83043478260879
 30
0.00000000000000
 40
2.89130434782607
100
AcDbArc
 50
57.44553248360057
 51
302.55446751640039
  0
LINE
  5
150
330
2C
100
AcDbEntity
  8
Zeichnung 5
  6
CONTINUOUS
 62
     7
370
    18
100
AcDbLine
 10
140.94711847004200
 20
-182.39341134224702
 30
0.00000000000000
 11
144.05288152995865
 21
-184.37615387514450
 31
0.00000000000000
  0
ARC
  5
151
330
2C
100
AcDbEntity
  8
Zeichnung 5
  6
CONTINUOUS
 62
     7
370
    18
100
AcDbCircle
 10
145.60869565217413
 20
-181.93913043478270
 30
0.00000000000000
 40
2.89130434782607
100
AcDbArc
 50
237.44553248360057
 51
122.55446751640000
  0
LINE
  5
152
330
2C
100
AcDbEntity
  8
Zeichnung 5
  6
CONTINUOUS
 62
     7
370
    18
100
AcDbLine
 10
144.05288152995863
 20
-179.50210699442093
 30
0.00000000000000
 11
140.94711847004203
 21
-181.48484952731843
 31
0.00000000000000
  0
ARC
  5
153
330
2C
100
AcDbEntity
  8
Zeichnung 5
  6
CONTINUOUS
 62
     7
370
    18
100
AcDbCircle
 10
139.39130434782655
 20
-179.04782608695666
 30
0.00000000000000
 40
2.89130434782607
100
AcDbArc
 50
57.44553248360057
 51
302.55446751639977
  0
LINE
  5
154
330
2C
100
AcDbEntity
  8
Zeichnung 5
  6
CONTINUOUS
 62
     7
370
    18
100
AcDbLine
 10
140.94711847004200
 20
-176.61080264659486
 30
0.00000000000000
 11
144.05288152995865
 21
-178.59354517949234
 31
0.00000000000000
  0
ARC
  5
155
330
2C
100
AcDbEntity
  8
Zeichnung 5
  6
CONTINUOUS
 62
     7
370
    18
100
AcDbCircle
 10
145.60869565217413
 20
-176.15652173913054
 30
0.00000000000000
 40
2.89130434782607
100
AcDbArc
 50
237.44553248360057
 51
122.55446751639977
  0
LINE
  5
156
330
2C
100
AcDbEntity
  8
Zeichnung 5
  6
CONTINUOUS
 62
     7
370
    18
100
AcDbLine
 10
144.05288152995863
 20
-173.71949829876877
 30
0.00000000000000
 11
140.94711847004200
 21
-175.70224083166627
 31
0.00000000000000
  0
ARC
  5
157
330
2C
100
AcDbEntity
  8
Zeichnung 5
  6
CONTINUOUS
 62
     7
370
    18
100
AcDbCircle
 10
139.39130434782655
 20
-173.26521739130447
 30
0.00000000000000
 40
2.89130434782607
100
AcDbArc
 50
57.44553248360057
 51
302.55446751639943
  0
LINE
  5
158
330
2C
100
AcDbEntity
  8
Zeichnung 5
  6
CONTINUOUS
 62
     7
370
    18
100
AcDbLine
 10
140.94711847004200
 20
-170.82819395094270
 30
0.00000000000000
 11
144.05288152995863
 21
-172.81093648384018
 31
0.00000000000000
  0
ARC
  5
159
330
2C
100
AcDbEntity
  8
Zeichnung 5
  6
CONTINUOUS
 62
     7
370
    18
100
AcDbCircle
 10
145.60869565217413
 20
-170.37391304347841
 30
0.00000000000000
 40
2.89130434782607
100
AcDbArc
 50
237.44553248360023
 51
122.55446751639977
  0
LINE
  5
15A
330
2C
100
AcDbEntity
  8
Zeichnung 5
  6
CONTINUOUS
 62
     7
370
    18
100
AcDbLine
 10
144.05288152995863
 20
-167.93688960311661
 30
0.00000000000000
 11
140.94711847004200
 21
-169.91963213601412
 31
0.00000000000000
  0
ARC
  5
15B
330
2C
100
AcDbEntity
  8
Zeichnung 5
  6
CONTINUOUS
 62
     7
370
    18
100
AcDbCircle
 10
139.39130434782655
 20
-167.48260869565235
 30
0.00000000000000
 40
2.89130434782607
100
AcDbArc
 50
57.44553248360057
 51
302.55446751639943
  0
LINE
  5
15C
330
2C
100
AcDbEntity
  8
Zeichnung 5
  6
CONTINUOUS
 62
     7
370
    18
100
AcDbLine
 10
140.94711847004200
 20
-165.04558525529055
 30
0.00000000000000
 11
144.05288152995863
 21
-167.02832778818805
 31
0.00000000000000
  0
ARC
  5
15D
330
2C
100
AcDbEntity
  8
Zeichnung 5
  6
CONTINUOUS
 62
     7
370
    18
100
AcDbCircle
 10
145.60869565217413
 20
-164.59130434782625
 30
0.00000000000000
 40
2.89130434782607
100
AcDbArc
 50
237.44553248360023
 51
122.55446751639977
  0
LINE
  5
15E
330
2C
100
AcDbEntity
  8
Zeichnung 5
  6
CONTINUOUS
 62
     7
370
    18
100
AcDbLine
 10
144.05288152995863
 20
-162.15428090746448
 30
0.00000000000000
 11
140.94711847004200
 21
-164.13702344036196
 31
0.00000000000000
  0
ARC
  5
15F
330
2C
100
AcDbEntity
  8
Zeichnung 5
  6
CONTINUOUS
 62
     7
370
    18
100
AcDbCircle
 10
139.39130434782655
 20
-161.70000000000019
 30
0.00000000000000
 40
2.89130434782607
100
AcDbArc
 50
57.44553248360057
 51
302.55446751639943
  0
LINE
  5
160
330
2C
100
AcDbEntity
  8
Zeichnung 5
  6
CONTINUOUS
 62
     7
370
    18
100
AcDbLine
 10
140.94711847004200
 20
-159.26297655963839
 30
0.00000000000000
 11
144.05288152995865
 21
-161.24571909253589
 31
0.00000000000000
  0
ARC
  5
161
330
2C
100
AcDbEntity
  8
Zeichnung 5
  6
CONTINUOUS
 62
     7
370
    18
100
AcDbCircle
 10
145.60869565217416
 20
-158.80869565217412
 30
0.00000000000000
 40
2.89130434782607
100
AcDbArc
 50
237.44553248360023
 51
122.55446751639880
  0
LINE
  5
162
330
2C
100
AcDbEntity
  8
Zeichnung 5
  6
CONTINUOUS
 62
     7
370
    18
100
AcDbLine
 10
144.05288152995871
 20
-156.37167221181230
 30
0.00000000000000
 11
140.94711847004194
 21
-158.35441474470983
 31
0.00000000000000
  0
ARC
  5
163
330
2C
100
AcDbEntity
  8
Zeichnung 5
  6
CONTINUOUS
 62
     7
370
    18
100
AcDbCircle
 10
139.39130434782652
 20
-155.91739130434800
 30
0.00000000000000
 40
2.89130434782607
100
AcDbArc
 50
57.44553248360057
 51
302.55446751639880
  0
LINE
  5
164
330
2C
100
AcDbEntity
  8
Zeichnung 5
  6
CONTINUOUS
 62
     7
370
    18
100
AcDbLine
 10
140.94711847004197
 20
-153.48036786398623
 30
0.00000000000000
 11
144.05288152995868
 21
-155.46311039688376
 31
0.00000000000000
  0
ARC
  5
165
330
2C
100
AcDbEntity
  8
Zeichnung 5
  6
CONTINUOUS
 62
     7
370
    18
100
AcDbCircle
 10
145.60869565217416
 20
-153.02608695652197
 30
0.00000000000000
 40
2.89130434782607
100
AcDbArc
 50
237.44553248360057
 51
122.55446751639909
  0
LINE
  5
166
330
2C
100
AcDbEntity
  8
Zeichnung 5
  6
CONTINUOUS
 62
     7
370
    18
100
AcDbLine
 10
144.05288152995871
 20
-150.58906351616019
 30
0.00000000000000
 11
140.94711847004197
 21
-152.57180604905770
 31
0.00000000000000
  0
ARC
  5
167
330
2C
100
AcDbEntity
  8
Zeichnung 5
  6
CONTINUOUS
 62
     7
370
    18
100
AcDbCircle
 10
139.39130434782652
 20
-150.13478260869590
 30
0.00000000000000
 40
2.89130434782607
100
AcDbArc
 50
57.44553248360083
 51
302.55446751639920
  0
LINE
  5
168
330
2C
100
AcDbEntity
  8
Zeichnung 5
  6
CONTINUOUS
 62
     7
370
    18
100
AcDbLine
 10
140.94711847004197
 20
-147.69775916833407
 30
0.00000000000000
 11
144.05288152995871
 21
-149.68050170123158
 31
0.00000000000000
  0
ARC
  5
169
330
2C
100
AcDbEntity
  8
Zeichnung 5
  6
CONTINUOUS
 62
     7
370
    18
100
AcDbCircle
 10
145.60869565217416
 20
-147.24347826086981
 30
0.00000000000000
 40
2.89130434782607
100
AcDbArc
 50
237.44553248360094
 51
122.55446751639943
  0
LINE
  5
16A
330
2C
100
AcDbEntity
  8
Zeichnung 5
  6
CONTINUOUS
 62
     7
370
    18
100
AcDbLine
 10
144.05288152995868
 20
-144.80645482050801
 30
0.00000000000000
 11
140.94711847004197
 21
-146.78919735340554
 31
0.00000000000000
  0
ARC
  5
16B
330
2C
100
AcDbEntity
  8
Zeichnung 5
  6
CONTINUOUS
 62
     7
370
    18
100
AcDbCircle
 10
139.39130434782652
 20
-144.35217391304374
 30
0.00000000000000
 40
2.89130434782607
100
AcDbArc
 50
57.44553248360083
 51
302.55446751639943
  0
LINE
  5
16C
330
2C
100
AcDbEntity
  8
Zeichnung 5
  6
CONTINUOUS
 62
     7
370
    18
100
AcDbLine
 10
140.94711847004197
 20
-141.91515047268197
 30
0.00000000000000
 11
144.05288152995871
 21
-143.89789300557948
 31
0.00000000000000
  0
ARC
  5
16D
330
2C
100
AcDbEntity
  8
Zeichnung 5
  6
CONTINUOUS
 62
     7
370
    18
100
AcDbCircle
 10
145.60869565217416
 20
-141.46086956521771
 30
0.00000000000000
 40
2.89130434782607
100
AcDbArc
 50
237.44553248360094
 51
122.55446751639880
  0
LINE
  5
16E
330
2C
100
AcDbEntity
  8
Zeichnung 5
  6
CONTINUOUS
 62
     7
370
    18
100
AcDbLine
 10
144.05288152995871
 20
-139.02384612485588
 30
0.00000000000000
 11
140.94711847004194
 21
-141.00658865775338
 31
0.00000000000000
  0
ARC
  5
16F
330
2C
100
AcDbEntity
  8
Zeichnung 5
  6
CONTINUOUS
 62
     7
370
    18
100
AcDbCircle
 10
139.39130434782652
 20
-138.56956521739158
 30
0.00000000000000
 40
2.89130434782607
100
AcDbArc
 50
57.44553248360057
 51
302.55446751639880
  0
LINE
  5
170
330
2C
100
AcDbEntity
  8
Zeichnung 5
  6
CONTINUOUS
 62
     7
370
    18
100
AcDbLine
 10
140.94711847004197
 20
-136.13254177702979
 30
0.00000000000000
 11
144.05288152995868
 21
-138.11528430992735
 31
0.00000000000000
  0
ARC
  5
171
330
2C
100
AcDbEntity
  8
Zeichnung 5
  6
CONTINUOUS
 62
     7
370
    18
100
AcDbCircle
 10
145.60869565217416
 20
-135.67826086956555
 30
0.00000000000000
 40
2.89130434782607
100
AcDbArc
 50
237.44553248360057
 51
122.55446751639880
  0
LINE
  5
172
330
2C
100
AcDbEntity
  8
Zeichnung 5
  6
CONTINUOUS
 62
     7
370
    18
100
AcDbLine
 10
144.05288152995871
 20
-133.24123742920375
 30
0.00000000000000
 11
140.94711847004194
 21
-135.22397996210125
 31
0.00000000000000
  0
ARC
  5
173
330
2C
100
AcDbEntity
  8
Zeichnung 5
  6
CONTINUOUS
 62
     7
370
    18
100
AcDbCircle
 10
139.39130434782652
 20
-132.78695652173943
 30
0.00000000000000
 40
2.89130434782607
100
AcDbArc
 50
57.44553248360057
 51
302.55446751639880
  0
LINE
  5
174
330
2C
100
AcDbEntity
  8
Zeichnung 5
  6
CONTINUOUS
 62
     7
370
    18
100
AcDbLine
 10
140.94711847004197
 20
-130.34993308137766
 30
0.00000000000000
 11
144.05288152995868
 21
-132.33267561427516
 31
0.00000000000000
  0
ARC
  5
175
330
2C
100
AcDbEntity
  8
Zeichnung 5
  6
CONTINUOUS
 62
     7
370
    18
100
AcDbCircle
 10
145.60869565217416
 20
-129.89565217391339
 30
0.00000000000000
 40
2.89130434782607
100
AcDbArc
 50
237.44553248360057
 51
122.55446751639880
  0
LINE
  5
176
330
2C
100
AcDbEntity
  8
Zeichnung 5
  6
CONTINUOUS
 62
     7
370
    18
100
AcDbLine
 10
144.05288152995871
 20
-127.45862873355159
 30
0.00000000000000
 11
140.94711847004194
 21
-129.44137126644910
 31
0.00000000000000
  0
ARC
  5
177
330
2C
100
AcDbEntity
  8
Zeichnung 5
  6
CONTINUOUS
 62
     7
370
    18
100
AcDbCircle
 10
139.39130434782652
 20
-127.00434782608730
 30
0.00000000000000
 40
2.89130434782607
100
AcDbArc
 50
57.44553248360057
 51
302.55446751639880
  0
LINE
  5
178
330
2C
100
AcDbEntity
  8
Zeichnung 5
  6
CONTINUOUS
 62
     7
370
    18
100
AcDbLine
 10
140.94711847004197
 20
-124.56732438572551
 30
0.00000000000000
 11
144.05288152995868
 21
-126.55006691862303
 31
0.00000000000000
  0
ARC
  5
179
330
2C
100
AcDbEntity
  8
Zeichnung 5
  6
CONTINUOUS
 62
     7
370
    18
100
AcDbCircle
 10
145.60869565217416
 20
-124.11304347826125
 30
0.00000000000000
 40
2.89130434782607
100
AcDbArc
 50
237.44553248360057
 51
122.55446751639880
  0
LINE
  5
17A
330
2C
100
AcDbEntity
  8
Zeichnung 5
  6
CONTINUOUS
 62
     7
370
    18
100
AcDbLine
 10
144.05288152995871
 20
-121.67602003789943
 30
0.00000000000000
 11
140.94711847004194
 21
-123.65876257079695
 31
0.00000000000000
  0
ARC
  5
17B
330
2C
100
AcDbEntity
  8
Zeichnung 5
  6
CONTINUOUS
 62
     7
370
    18
100
AcDbCircle
 10
139.39130434782652
 20
-121.22173913043515
 30
0.00000000000000
 40
2.89130434782607
100
AcDbArc
 50
57.44553248360023
 51
302.55446751639880
  0
LINE
  5
17C
330
2C
100
AcDbEntity
  8
Zeichnung 5
  6
CONTINUOUS
 62
     7
370
    18
100
AcDbLine
 10
140.94711847004200
 20
-118.78471569007337
 30
0.00000000000000
 11
144.05288152995865
 21
-120.76745822297089
 31
0.00000000000000
  0
ARC
  5
17D
330
2C
100
AcDbEntity
  8
Zeichnung 5
  6
CONTINUOUS
 62
     7
370
    18
100
AcDbCircle
 10
145.60869565217416
 20
-118.33043478260913
 30
0.00000000000000
 40
2.89130434782607
100
AcDbArc
 50
237.44553248359998
 51
122.55446751639943
  0
LINE
  5
17E
330
2C
100
AcDbEntity
  8
Zeichnung 5
  6
CONTINUOUS
 62
     7
370
    18
100
AcDbLine
 10
144.05288152995868
 20
-115.89341134224735
 30
0.00000000000000
 11
140.94711847004197
 21
-117.87615387514485
 31
0.00000000000000
  0
ARC
  5
17F
330
2C
100
AcDbEntity
  8
Zeichnung 5
  6
CONTINUOUS
 62
     7
370
    18
100
AcDbCircle
 10
139.39130434782652
 20
-115.43913043478307
 30
0.00000000000000
 40
2.89130434782607
100
AcDbArc
 50
57.44553248360120
 51
302.55446751639943
  0
LINE
  5
180
330
2C
100
AcDbEntity
  8
Zeichnung 5
  6
CONTINUOUS
 62
     7
370
    18
100
AcDbLine
 10
140.94711847004194
 20
-113.00210699442125
 30
0.00000000000000
 11
144.05288152995871
 21
-114.98484952731879
 31
0.00000000000000
  0
ARC
  5
181
330
2C
100
AcDbEntity
  8
Zeichnung 5
  6
CONTINUOUS
 62
     7
370
    18
100
AcDbCircle
 10
145.60869565217416
 20
-112.54782608695697
 30
0.00000000000000
 40
2.89130434782607
100
AcDbArc
 50
237.44553248360120
 51
122.55446751639909
  0
LINE
  5
182
330
2C
100
AcDbEntity
  8
Zeichnung 5
  6
CONTINUOUS
 62
     7
370
    18
100
AcDbLine
 10
144.05288152995871
 20
-110.11080264659519
 30
0.00000000000000
 11
140.94711847004197
 21
-112.09354517949271
 31
0.00000000000000
  0
ARC
  5
183
330
2C
100
AcDbEntity
  8
Zeichnung 5
  6
CONTINUOUS
 62
     7
370
    18
100
AcDbCircle
 10
139.39130434782652
 20
-109.65652173913089
 30
0.00000000000000
 40
2.89130434782607
100
AcDbArc
 50
57.44553248360083
 51
302.55446751639920
  0
LINE
  5
184
330
2C
100
AcDbEntity
  8
Zeichnung 5
  6
CONTINUOUS
 62
     7
370
    18
100
AcDbLine
 10
140.94711847004197
 20
-107.21949829876908
 30
0.00000000000000
 11
144.05288152995871
 21
-109.20224083166661
 31
0.00000000000000
  0
ARC
  5
185
330
2C
100
AcDbEntity
  8
Zeichnung 5
  6
CONTINUOUS
 62
     7
370
    18
100
AcDbCircle
 10
145.60869565217416
 20
-106.76521739130483
 30
0.00000000000000
 40
2.89130434782607
100
AcDbArc
 50
237.44553248360094
 51
122.55446751639909
  0
LINE
  5
186
330
2C
100
AcDbEntity
  8
Zeichnung 5
  6
CONTINUOUS
 62
     7
370
    18
100
AcDbLine
 10
144.05288152995871
 20
-104.32819395094305
 30
0.00000000000000
 11
140.94711847004197
 21
-106.31093648384056
 31
0.00000000000000
  0
ARC
  5
187
330
2C
100
AcDbEntity
  8
Zeichnung 5
  6
CONTINUOUS
 62
     7
370
    18
100
AcDbCircle
 10
139.39130434782652
 20
-103.87391304347877
 30
0.00000000000000
 40
2.89130434782607
100
AcDbArc
 50
112.35997221533751
 51
302.55446751639920
  0
ARC
  5
188
330
2C
100
AcDbEntity
  8
Zeichnung 5
  6
CONTINUOUS
 62
     7
370
    18
100
AcDbCircle
 10
139.39130434782652
 20
-103.87391304347877
 30
0.00000000000000
 40
2.89130434782607
100
AcDbArc
 50
57.44553248360059
 51
67.64002778466210
  0
LINE
  5
189
330
2C
100
AcDbEntity
  8
Zeichnung 5
  6
CONTINUOUS
 62
     7
370
    18
100
AcDbLine
 10
140.94711847004197
 20
-101.43688960311694
 30
0.00000000000000
 11
144.05288152995871
 21
-103.41963213601446
 31
0.00000000000000
  0
ARC
  5
18A
330
2C
100
AcDbEntity
  8
Zeichnung 5
  6
CONTINUOUS
 62
     7
370
    18
100
AcDbCircle
 10
145.60869565217416
 20
-100.98260869565267
 30
0.00000000000000
 40
2.89130434782607
100
AcDbArc
 50
237.44553248360094
 51
355.70013717980692
  0
ENDBLK
  5
18B
330
2C
100
AcDbEntity
  8
0
100
AcDbBlockEnd
  0
BLOCK
  5
18C
330
2D
100
AcDbEntity
  8
0
100
AcDbBlockBegin
  2
*U21
 70
     1
 10
0.00000000000000
 20
0.00000000000000
 30
0.00000000000000
  3
*U21
  1

  0
ARC
  5
18D
330
2D
100
AcDbEntity
  8
Zeichnung 5
  6
CONTINUOUS
 62
     7
370
    18
100
AcDbCircle
 10
79.39130434782638
 20
-228.19999999999985
 30
0.00000000000000
 40
2.89130434782607
100
AcDbArc
 50
57.44553248359821
 51
179.99999999999946
  0
LINE
  5
18E
330
2D
100
AcDbEntity
  8
Zeichnung 5
  6
CONTINUOUS
 62
     7
370
    18
100
AcDbLine
 10
82.85448386817137
 20
-226.98065299782397
 30
0.00000000000000
 11
80.94711847004193
 21
-225.76297655963810
 31
0.00000000000000
  0
ARC
  5
18F
330
2D
100
AcDbEntity
  8
Zeichnung 5
  6
CONTINUOUS
 62
     7
370
    18
100
AcDbCircle
 10
85.60869565217398
 20
-225.30869565217384
 30
0.00000000000000
 40
2.89130434782608
100
AcDbArc
 50
325.00470208332638
 51
122.55446751639880
  0
LINE
  5
190
330
2D
100
AcDbEntity
  8
Zeichnung 5
  6
CONTINUOUS
 62
     7
370
    18
100
AcDbLine
 10
80.94711847004182
 20
-224.85441474470949
 30
0.00000000000000
 11
84.05288152995851
 21
-222.87167221181204
 31
0.00000000000000
  0
ARC
  5
191
330
2D
100
AcDbEntity
  8
Zeichnung 5
  6
CONTINUOUS
 62
     7
370
    18
100
AcDbCircle
 10
79.39130434782638
 20
-222.41739130434766
 30
0.00000000000000
 40
2.89130434782606
100
AcDbArc
 50
57.44553248360082
 51
302.55446751639840
  0
LINE
  5
192
330
2D
100
AcDbEntity
  8
Zeichnung 5
  6
CONTINUOUS
 62
     7
370
    18
100
AcDbLine
 10
84.05288152995851
 20
-221.96311039688337
 30
0.00000000000000
 11
80.94711847004186
 21
-219.98036786398589
 31
0.00000000000000
  0
ARC
  5
193
330
2D
100
AcDbEntity
  8
Zeichnung 5
  6
CONTINUOUS
 62
     7
370
    18
100
AcDbCircle
 10
85.60869565217398
 20
-219.52608695652157
 30
0.00000000000000
 40
2.89130434782607
100
AcDbArc
 50
237.44553248360120
 51
122.55446751640039
  0
LINE
  5
194
330
2D
100
AcDbEntity
  8
Zeichnung 5
  6
CONTINUOUS
 62
     7
370
    18
100
AcDbLine
 10
80.94711847004190
 20
-219.07180604905730
 30
0.00000000000000
 11
84.05288152995844
 21
-217.08906351615980
 31
0.00000000000000
  0
ARC
  5
195
330
2D
100
AcDbEntity
  8
Zeichnung 5
  6
CONTINUOUS
 62
     7
370
    18
100
AcDbCircle
 10
79.39130434782638
 20
-216.63478260869553
 30
0.00000000000000
 40
2.89130434782607
100
AcDbArc
 50
57.44553248359961
 51
302.55446751640039
  0
LINE
  5
196
330
2D
100
AcDbEntity
  8
Zeichnung 5
  6
CONTINUOUS
 62
     7
370
    18
100
AcDbLine
 10
84.05288152995844
 20
-216.18050170123126
 30
0.00000000000000
 11
80.94711847004190
 21
-214.19775916833376
 31
0.00000000000000
  0
ARC
  5
197
330
2D
100
AcDbEntity
  8
Zeichnung 5
  6
CONTINUOUS
 62
     7
370
    18
100
AcDbCircle
 10
85.60869565217398
 20
-213.74347826086949
 30
0.00000000000000
 40
2.89130434782607
100
AcDbArc
 50
237.44553248359961
 51
122.55446751639919
  0
LINE
  5
198
330
2D
100
AcDbEntity
  8
Zeichnung 5
  6
CONTINUOUS
 62
     7
370
    18
100
AcDbLine
 10
80.94711847004183
 20
-213.28919735340514
 30
0.00000000000000
 11
84.05288152995848
 21
-211.30645482050770
 31
0.00000000000000
  0
ARC
  5
199
330
2D
100
AcDbEntity
  8
Zeichnung 5
  6
CONTINUOUS
 62
     7
370
    18
100
AcDbCircle
 10
79.39130434782638
 20
-210.85217391304340
 30
0.00000000000000
 40
2.89130434782609
100
AcDbArc
 50
57.44553248360082
 51
302.55446751639965
  0
LINE
  5
19A
330
2D
100
AcDbEntity
  8
Zeichnung 5
  6
CONTINUOUS
 62
     7
370
    18
100
AcDbLine
 10
84.05288152995848
 20
-210.39789300557908
 30
0.00000000000000
 11
80.94711847004187
 21
-208.41515047268157
 31
0.00000000000000
  0
ARC
  5
19B
330
2D
100
AcDbEntity
  8
Zeichnung 5
  6
CONTINUOUS
 62
     7
370
    18
100
AcDbCircle
 10
85.60869565217398
 20
-207.96086956521731
 30
0.00000000000000
 40
2.89130434782605
100
AcDbArc
 50
237.44553248360072
 51
122.55446751640002
  0
LINE
  5
19C
330
2D
100
AcDbEntity
  8
Zeichnung 5
  6
CONTINUOUS
 62
     7
370
    18
100
AcDbLine
 10
80.94711847004187
 20
-207.50658865775307
 30
0.00000000000000
 11
84.05288152995848
 21
-205.52384612485554
 31
0.00000000000000
  0
ARC
  5
19D
330
2D
100
AcDbEntity
  8
Zeichnung 5
  6
CONTINUOUS
 62
     7
370
    18
100
AcDbCircle
 10
79.39130434782638
 20
-205.06956521739124
 30
0.00000000000000
 40
2.89130434782605
100
AcDbArc
 50
57.44553248359961
 51
302.55446751639954
  0
LINE
  5
19E
330
2D
100
AcDbEntity
  8
Zeichnung 5
  6
CONTINUOUS
 62
     7
370
    18
100
AcDbLine
 10
84.05288152995844
 20
-204.61528430992698
 30
0.00000000000000
 11
80.94711847004190
 21
-202.63254177702950
 31
0.00000000000000
  0
ARC
  5
19F
330
2D
100
AcDbEntity
  8
Zeichnung 5
  6
CONTINUOUS
 62
     7
370
    18
100
AcDbCircle
 10
85.60869565217398
 20
-202.17826086956521
 30
0.00000000000000
 40
2.89130434782607
100
AcDbArc
 50
237.44553248359961
 51
122.55446751639941
  0
LINE
  5
1A0
330
2D
100
AcDbEntity
  8
Zeichnung 5
  6
CONTINUOUS
 62
     7
370
    18
100
AcDbLine
 10
80.94711847004186
 20
-201.72397996210094
 30
0.00000000000000
 11
84.05288152995848
 21
-199.74123742920344
 31
0.00000000000000
  0
ARC
  5
1A1
330
2D
100
AcDbEntity
  8
Zeichnung 5
  6
CONTINUOUS
 62
     7
370
    18
100
AcDbCircle
 10
79.39130434782638
 20
-199.28695652173911
 30
0.00000000000000
 40
2.89130434782606
100
AcDbArc
 50
57.44553248359961
 51
302.55446751639897
  0
LINE
  5
1A2
330
2D
100
AcDbEntity
  8
Zeichnung 5
  6
CONTINUOUS
 62
     7
370
    18
100
AcDbLine
 10
84.05288152995844
 20
-198.83267561427488
 30
0.00000000000000
 11
80.94711847004190
 21
-196.84993308137734
 31
0.00000000000000
  0
ARC
  5
1A3
330
2D
100
AcDbEntity
  8
Zeichnung 5
  6
CONTINUOUS
 62
     7
370
    18
100
AcDbCircle
 10
85.60869565217398
 20
-196.39565217391308
 30
0.00000000000000
 40
2.89130434782607
100
AcDbArc
 50
237.44553248359983
 51
122.55446751639941
  0
LINE
  5
1A4
330
2D
100
AcDbEntity
  8
Zeichnung 5
  6
CONTINUOUS
 62
     7
370
    18
100
AcDbLine
 10
80.94711847004183
 20
-195.94137126644875
 30
0.00000000000000
 11
84.05288152995848
 21
-193.95862873355128
 31
0.00000000000000
  0
ARC
  5
1A5
330
2D
100
AcDbEntity
  8
Zeichnung 5
  6
CONTINUOUS
 62
     7
370
    18
100
AcDbCircle
 10
79.39130434782638
 20
-193.50434782608696
 30
0.00000000000000
 40
2.89130434782607
100
AcDbArc
 50
57.44553248359961
 51
302.55446751639909
  0
LINE
  5
1A6
330
2D
100
AcDbEntity
  8
Zeichnung 5
  6
CONTINUOUS
 62
     7
370
    18
100
AcDbLine
 10
84.05288152995844
 20
-193.05006691862269
 30
0.00000000000000
 11
80.94711847004190
 21
-191.06732438572521
 31
0.00000000000000
  0
ARC
  5
1A7
330
2D
100
AcDbEntity
  8
Zeichnung 5
  6
CONTINUOUS
 62
     7
370
    18
100
AcDbCircle
 10
85.60869565217398
 20
-190.61304347826095
 30
0.00000000000000
 40
2.89130434782607
100
AcDbArc
 50
237.44553248359983
 51
122.55446751639941
  0
LINE
  5
1A8
330
2D
100
AcDbEntity
  8
Zeichnung 5
  6
CONTINUOUS
 62
     7
370
    18
100
AcDbLine
 10
80.94711847004183
 20
-190.15876257079660
 30
0.00000000000000
 11
84.05288152995848
 21
-188.17602003789912
 31
0.00000000000000
  0
ARC
  5
1A9
330
2D
100
AcDbEntity
  8
Zeichnung 5
  6
CONTINUOUS
 62
     7
370
    18
100
AcDbCircle
 10
79.39130434782638
 20
-187.72173913043483
 30
0.00000000000000
 40
2.89130434782607
100
AcDbArc
 50
57.44553248359961
 51
302.55446751639909
  0
LINE
  5
1AA
330
2D
100
AcDbEntity
  8
Zeichnung 5
  6
CONTINUOUS
 62
     7
370
    18
100
AcDbLine
 10
84.05288152995844
 20
-187.26745822297056
 30
0.00000000000000
 11
80.94711847004190
 21
-185.28471569007306
 31
0.00000000000000
  0
ARC
  5
1AB
330
2D
100
AcDbEntity
  8
Zeichnung 5
  6
CONTINUOUS
 62
     7
370
    18
100
AcDbCircle
 10
85.60869565217398
 20
-184.83043478260879
 30
0.00000000000000
 40
2.89130434782607
100
AcDbArc
 50
237.44553248359961
 51
122.55446751639941
  0
LINE
  5
1AC
330
2D
100
AcDbEntity
  8
Zeichnung 5
  6
CONTINUOUS
 62
     7
370
    18
100
AcDbLine
 10
80.94711847004186
 20
-184.37615387514450
 30
0.00000000000000
 11
84.05288152995848
 21
-182.39341134224702
 31
0.00000000000000
  0
ARC
  5
1AD
330
2D
100
AcDbEntity
  8
Zeichnung 5
  6
CONTINUOUS
 62
     7
370
    18
100
AcDbCircle
 10
79.39130434782638
 20
-181.93913043478270
 30
0.00000000000000
 40
2.89130434782607
100
AcDbArc
 50
57.44553248359998
 51
302.55446751639943
  0
LINE
  5
1AE
330
2D
100
AcDbEntity
  8
Zeichnung 5
  6
CONTINUOUS
 62
     7
370
    18
100
AcDbLine
 10
84.05288152995847
 20
-181.48484952731843
 30
0.00000000000000
 11
80.94711847004187
 21
-179.50210699442093
 31
0.00000000000000
  0
ARC
  5
1AF
330
2D
100
AcDbEntity
  8
Zeichnung 5
  6
CONTINUOUS
 62
     7
370
    18
100
AcDbCircle
 10
85.60869565217398
 20
-179.04782608695666
 30
0.00000000000000
 40
2.89130434782608
100
AcDbArc
 50
237.44553248360023
 51
122.55446751639941
  0
LINE
  5
1B0
330
2D
100
AcDbEntity
  8
Zeichnung 5
  6
CONTINUOUS
 62
     7
370
    18
100
AcDbLine
 10
80.94711847004186
 20
-178.59354517949234
 30
0.00000000000000
 11
84.05288152995848
 21
-176.61080264659486
 31
0.00000000000000
  0
ARC
  5
1B1
330
2D
100
AcDbEntity
  8
Zeichnung 5
  6
CONTINUOUS
 62
     7
370
    18
100
AcDbCircle
 10
79.39130434782638
 20
-176.15652173913054
 30
0.00000000000000
 40
2.89130434782607
100
AcDbArc
 50
57.44553248360022
 51
302.55446751639943
  0
LINE
  5
1B2
330
2D
100
AcDbEntity
  8
Zeichnung 5
  6
CONTINUOUS
 62
     7
370
    18
100
AcDbLine
 10
84.05288152995848
 20
-175.70224083166627
 30
0.00000000000000
 11
80.94711847004187
 21
-173.71949829876877
 31
0.00000000000000
  0
ARC
  5
1B3
330
2D
100
AcDbEntity
  8
Zeichnung 5
  6
CONTINUOUS
 62
     7
370
    18
100
AcDbCircle
 10
85.60869565217398
 20
-173.26521739130447
 30
0.00000000000000
 40
2.89130434782607
100
AcDbArc
 50
237.44553248360057
 51
122.55446751639941
  0
LINE
  5
1B4
330
2D
100
AcDbEntity
  8
Zeichnung 5
  6
CONTINUOUS
 62
     7
370
    18
100
AcDbLine
 10
80.94711847004187
 20
-172.81093648384018
 30
0.00000000000000
 11
84.05288152995848
 21
-170.82819395094270
 31
0.00000000000000
  0
ARC
  5
1B5
330
2D
100
AcDbEntity
  8
Zeichnung 5
  6
CONTINUOUS
 62
     7
370
    18
100
AcDbCircle
 10
79.39130434782638
 20
-170.37391304347841
 30
0.00000000000000
 40
2.89130434782608
100
AcDbArc
 50
57.44553248360022
 51
302.55446751639977
  0
LINE
  5
1B6
330
2D
100
AcDbEntity
  8
Zeichnung 5
  6
CONTINUOUS
 62
     7
370
    18
100
AcDbLine
 10
84.05288152995848
 20
-169.91963213601412
 30
0.00000000000000
 11
80.94711847004187
 21
-167.93688960311661
 31
0.00000000000000
  0
ARC
  5
1B7
330
2D
100
AcDbEntity
  8
Zeichnung 5
  6
CONTINUOUS
 62
     7
370
    18
100
AcDbCircle
 10
85.60869565217398
 20
-167.48260869565235
 30
0.00000000000000
 40
2.89130434782607
100
AcDbArc
 50
237.44553248360057
 51
122.55446751639941
  0
LINE
  5
1B8
330
2D
100
AcDbEntity
  8
Zeichnung 5
  6
CONTINUOUS
 62
     7
370
    18
100
AcDbLine
 10
80.94711847004187
 20
-167.02832778818805
 30
0.00000000000000
 11
84.05288152995848
 21
-165.04558525529055
 31
0.00000000000000
  0
ARC
  5
1B9
330
2D
100
AcDbEntity
  8
Zeichnung 5
  6
CONTINUOUS
 62
     7
370
    18
100
AcDbCircle
 10
79.39130434782638
 20
-164.59130434782625
 30
0.00000000000000
 40
2.89130434782608
100
AcDbArc
 50
57.44553248360022
 51
302.55446751639977
  0
LINE
  5
1BA
330
2D
100
AcDbEntity
  8
Zeichnung 5
  6
CONTINUOUS
 62
     7
370
    18
100
AcDbLine
 10
84.05288152995848
 20
-164.13702344036196
 30
0.00000000000000
 11
80.94711847004187
 21
-162.15428090746448
 31
0.00000000000000
  0
ARC
  5
1BB
330
2D
100
AcDbEntity
  8
Zeichnung 5
  6
CONTINUOUS
 62
     7
370
    18
100
AcDbCircle
 10
85.60869565217398
 20
-161.70000000000019
 30
0.00000000000000
 40
2.89130434782607
100
AcDbArc
 50
237.44553248360057
 51
122.55446751639941
  0
LINE
  5
1BC
330
2D
100
AcDbEntity
  8
Zeichnung 5
  6
CONTINUOUS
 62
     7
370
    18
100
AcDbLine
 10
80.94711847004186
 20
-161.24571909253589
 30
0.00000000000000
 11
84.05288152995848
 21
-159.26297655963839
 31
0.00000000000000
  0
ARC
  5
1BD
330
2D
100
AcDbEntity
  8
Zeichnung 5
  6
CONTINUOUS
 62
     7
370
    18
100
AcDbCircle
 10
79.39130434782636
 20
-158.80869565217412
 30
0.00000000000000
 40
2.89130434782608
100
AcDbArc
 50
57.44553248360120
 51
302.55446751639977
  0
LINE
  5
1BE
330
2D
100
AcDbEntity
  8
Zeichnung 5
  6
CONTINUOUS
 62
     7
370
    18
100
AcDbLine
 10
84.05288152995856
 20
-158.35441474470983
 30
0.00000000000000
 11
80.94711847004182
 21
-156.37167221181230
 31
0.00000000000000
  0
ARC
  5
1BF
330
2D
100
AcDbEntity
  8
Zeichnung 5
  6
CONTINUOUS
 62
     7
370
    18
100
AcDbCircle
 10
85.60869565217402
 20
-155.91739130434800
 30
0.00000000000000
 40
2.89130434782607
100
AcDbArc
 50
237.44553248360120
 51
122.55446751639941
  0
LINE
  5
1C0
330
2D
100
AcDbEntity
  8
Zeichnung 5
  6
CONTINUOUS
 62
     7
370
    18
100
AcDbLine
 10
80.94711847004183
 20
-155.46311039688376
 30
0.00000000000000
 11
84.05288152995854
 21
-153.48036786398623
 31
0.00000000000000
  0
ARC
  5
1C1
330
2D
100
AcDbEntity
  8
Zeichnung 5
  6
CONTINUOUS
 62
     7
370
    18
100
AcDbCircle
 10
79.39130434782636
 20
-153.02608695652197
 30
0.00000000000000
 40
2.89130434782607
100
AcDbArc
 50
57.44553248360120
 51
302.55446751639965
  0
LINE
  5
1C2
330
2D
100
AcDbEntity
  8
Zeichnung 5
  6
CONTINUOUS
 62
     7
370
    18
100
AcDbLine
 10
84.05288152995854
 20
-152.57180604905770
 30
0.00000000000000
 11
80.94711847004182
 21
-150.58906351616019
 31
0.00000000000000
  0
ARC
  5
1C3
330
2D
100
AcDbEntity
  8
Zeichnung 5
  6
CONTINUOUS
 62
     7
370
    18
100
AcDbCircle
 10
85.60869565217402
 20
-150.13478260869590
 30
0.00000000000000
 40
2.89130434782607
100
AcDbArc
 50
237.44553248360103
 51
122.55446751639941
  0
LINE
  5
1C4
330
2D
100
AcDbEntity
  8
Zeichnung 5
  6
CONTINUOUS
 62
     7
370
    18
100
AcDbLine
 10
80.94711847004182
 20
-149.68050170123158
 30
0.00000000000000
 11
84.05288152995854
 21
-147.69775916833407
 31
0.00000000000000
  0
ARC
  5
1C5
330
2D
100
AcDbEntity
  8
Zeichnung 5
  6
CONTINUOUS
 62
     7
370
    18
100
AcDbCircle
 10
79.39130434782636
 20
-147.24347826086981
 30
0.00000000000000
 40
2.89130434782607
100
AcDbArc
 50
57.44553248360059
 51
302.55446751639903
  0
LINE
  5
1C6
330
2D
100
AcDbEntity
  8
Zeichnung 5
  6
CONTINUOUS
 62
     7
370
    18
100
AcDbLine
 10
84.05288152995854
 20
-146.78919735340554
 30
0.00000000000000
 11
80.94711847004183
 21
-144.80645482050801
 31
0.00000000000000
  0
ARC
  5
1C7
330
2D
100
AcDbEntity
  8
Zeichnung 5
  6
CONTINUOUS
 62
     7
370
    18
100
AcDbCircle
 10
85.60869565217402
 20
-144.35217391304374
 30
0.00000000000000
 40
2.89130434782607
100
AcDbArc
 50
237.44553248360080
 51
122.55446751639941
  0
LINE
  5
1C8
330
2D
100
AcDbEntity
  8
Zeichnung 5
  6
CONTINUOUS
 62
     7
370
    18
100
AcDbLine
 10
80.94711847004182
 20
-143.89789300557948
 30
0.00000000000000
 11
84.05288152995854
 21
-141.91515047268197
 31
0.00000000000000
  0
ARC
  5
1C9
330
2D
100
AcDbEntity
  8
Zeichnung 5
  6
CONTINUOUS
 62
     7
370
    18
100
AcDbCircle
 10
79.39130434782636
 20
-141.46086956521771
 30
0.00000000000000
 40
2.89130434782607
100
AcDbArc
 50
57.44553248360120
 51
302.55446751639909
  0
LINE
  5
1CA
330
2D
100
AcDbEntity
  8
Zeichnung 5
  6
CONTINUOUS
 62
     7
370
    18
100
AcDbLine
 10
84.05288152995856
 20
-141.00658865775338
 30
0.00000000000000
 11
80.94711847004182
 21
-139.02384612485588
 31
0.00000000000000
  0
ARC
  5
1CB
330
2D
100
AcDbEntity
  8
Zeichnung 5
  6
CONTINUOUS
 62
     7
370
    18
100
AcDbCircle
 10
85.60869565217402
 20
-138.56956521739158
 30
0.00000000000000
 40
2.89130434782607
100
AcDbArc
 50
237.44553248360120
 51
122.55446751639941
  0
LINE
  5
1CC
330
2D
100
AcDbEntity
  8
Zeichnung 5
  6
CONTINUOUS
 62
     7
370
    18
100
AcDbLine
 10
80.94711847004183
 20
-138.11528430992735
 30
0.00000000000000
 11
84.05288152995854
 21
-136.13254177702979
 31
0.00000000000000
  0
ARC
  5
1CD
330
2D
100
AcDbEntity
  8
Zeichnung 5
  6
CONTINUOUS
 62
     7
370
    18
100
AcDbCircle
 10
79.39130434782638
 20
-135.67826086956555
 30
0.00000000000000
 40
2.89130434782606
100
AcDbArc
 50
57.44553248360120
 51
302.55446751639943
  0
LINE
  5
1CE
330
2D
100
AcDbEntity
  8
Zeichnung 5
  6
CONTINUOUS
 62
     7
370
    18
100
AcDbLine
 10
84.05288152995857
 20
-135.22397996210125
 30
0.00000000000000
 11
80.94711847004182
 21
-133.24123742920375
 31
0.00000000000000
  0
ARC
  5
1CF
330
2D
100
AcDbEntity
  8
Zeichnung 5
  6
CONTINUOUS
 62
     7
370
    18
100
AcDbCircle
 10
85.60869565217404
 20
-132.78695652173943
 30
0.00000000000000
 40
2.89130434782607
100
AcDbArc
 50
237.44553248360120
 51
122.55446751639941
  0
LINE
  5
1D0
330
2D
100
AcDbEntity
  8
Zeichnung 5
  6
CONTINUOUS
 62
     7
370
    18
100
AcDbLine
 10
80.94711847004184
 20
-132.33267561427516
 30
0.00000000000000
 11
84.05288152995854
 21
-130.34993308137766
 31
0.00000000000000
  0
ARC
  5
1D1
330
2D
100
AcDbEntity
  8
Zeichnung 5
  6
CONTINUOUS
 62
     7
370
    18
100
AcDbCircle
 10
79.39130434782638
 20
-129.89565217391339
 30
0.00000000000000
 40
2.89130434782607
100
AcDbArc
 50
57.44553248360120
 51
302.55446751639943
  0
LINE
  5
1D2
330
2D
100
AcDbEntity
  8
Zeichnung 5
  6
CONTINUOUS
 62
     7
370
    18
100
AcDbLine
 10
84.05288152995857
 20
-129.44137126644910
 30
0.00000000000000
 11
80.94711847004182
 21
-127.45862873355159
 31
0.00000000000000
  0
ARC
  5
1D3
330
2D
100
AcDbEntity
  8
Zeichnung 5
  6
CONTINUOUS
 62
     7
370
    18
100
AcDbCircle
 10
85.60869565217404
 20
-127.00434782608730
 30
0.00000000000000
 40
2.89130434782607
100
AcDbArc
 50
237.44553248360120
 51
122.55446751639941
  0
LINE
  5
1D4
330
2D
100
AcDbEntity
  8
Zeichnung 5
  6
CONTINUOUS
 62
     7
370
    18
100
AcDbLine
 10
80.94711847004184
 20
-126.55006691862303
 30
0.00000000000000
 11
84.05288152995854
 21
-124.56732438572551
 31
0.00000000000000
  0
ARC
  5
1D5
330
2D
100
AcDbEntity
  8
Zeichnung 5
  6
CONTINUOUS
 62
     7
370
    18
100
AcDbCircle
 10
79.39130434782638
 20
-124.11304347826125
 30
0.00000000000000
 40
2.89130434782607
100
AcDbArc
 50
57.44553248360120
 51
302.55446751639943
  0
LINE
  5
1D6
330
2D
100
AcDbEntity
  8
Zeichnung 5
  6
CONTINUOUS
 62
     7
370
    18
100
AcDbLine
 10
84.05288152995857
 20
-123.65876257079695
 30
0.00000000000000
 11
80.94711847004182
 21
-121.67602003789943
 31
0.00000000000000
  0
ARC
  5
1D7
330
2D
100
AcDbEntity
  8
Zeichnung 5
  6
CONTINUOUS
 62
     7
370
    18
100
AcDbCircle
 10
85.60869565217404
 20
-121.22173913043515
 30
0.00000000000000
 40
2.89130434782607
100
AcDbArc
 50
237.44553248360120
 51
122.55446751639978
  0
LINE
  5
1D8
330
2D
100
AcDbEntity
  8
Zeichnung 5
  6
CONTINUOUS
 62
     7
370
    18
100
AcDbLine
 10
80.94711847004187
 20
-120.76745822297089
 30
0.00000000000000
 11
84.05288152995853
 21
-118.78471569007337
 31
0.00000000000000
  0
ARC
  5
1D9
330
2D
100
AcDbEntity
  8
Zeichnung 5
  6
CONTINUOUS
 62
     7
370
    18
100
AcDbCircle
 10
79.39130434782638
 20
-118.33043478260913
 30
0.00000000000000
 40
2.89130434782606
100
AcDbArc
 50
57.44553248360059
 51
302.55446751640000
  0
LINE
  5
1DA
330
2D
100
AcDbEntity
  8
Zeichnung 5
  6
CONTINUOUS
 62
     7
370
    18
100
AcDbLine
 10
84.05288152995854
 20
-117.87615387514485
 30
0.00000000000000
 11
80.94711847004184
 21
-115.89341134224735
 31
0.00000000000000
  0
ARC
  5
1DB
330
2D
100
AcDbEntity
  8
Zeichnung 5
  6
CONTINUOUS
 62
     7
370
    18
100
AcDbCircle
 10
85.60869565217404
 20
-115.43913043478307
 30
0.00000000000000
 40
2.89130434782607
100
AcDbArc
 50
237.44553248360057
 51
122.55446751639880
  0
LINE
  5
1DC
330
2D
100
AcDbEntity
  8
Zeichnung 5
  6
CONTINUOUS
 62
     7
370
    18
100
AcDbLine
 10
80.94711847004182
 20
-114.98484952731879
 30
0.00000000000000
 11
84.05288152995857
 21
-113.00210699442125
 31
0.00000000000000
  0
ARC
  5
1DD
330
2D
100
AcDbEntity
  8
Zeichnung 5
  6
CONTINUOUS
 62
     7
370
    18
100
AcDbCircle
 10
79.39130434782638
 20
-112.54782608695697
 30
0.00000000000000
 40
2.89130434782607
100
AcDbArc
 50
57.44553248360120
 51
302.55446751639909
  0
LINE
  5
1DE
330
2D
100
AcDbEntity
  8
Zeichnung 5
  6
CONTINUOUS
 62
     7
370
    18
100
AcDbLine
 10
84.05288152995854
 20
-112.09354517949271
 30
0.00000000000000
 11
80.94711847004182
 21
-110.11080264659519
 31
0.00000000000000
  0
ARC
  5
1DF
330
2D
100
AcDbEntity
  8
Zeichnung 5
  6
CONTINUOUS
 62
     7
370
    18
100
AcDbCircle
 10
85.60869565217404
 20
-109.65652173913089
 30
0.00000000000000
 40
2.89130434782607
100
AcDbArc
 50
237.44553248360103
 51
122.55446751639941
  0
LINE
  5
1E0
330
2D
100
AcDbEntity
  8
Zeichnung 5
  6
CONTINUOUS
 62
     7
370
    18
100
AcDbLine
 10
80.94711847004182
 20
-109.20224083166661
 30
0.00000000000000
 11
84.05288152995854
 21
-107.21949829876908
 31
0.00000000000000
  0
ARC
  5
1E1
330
2D
100
AcDbEntity
  8
Zeichnung 5
  6
CONTINUOUS
 62
     7
370
    18
100
AcDbCircle
 10
79.39130434782638
 20
-106.76521739130483
 30
0.00000000000000
 40
2.89130434782607
100
AcDbArc
 50
57.44553248360120
 51
302.55446751639931
  0
LINE
  5
1E2
330
2D
100
AcDbEntity
  8
Zeichnung 5
  6
CONTINUOUS
 62
     7
370
    18
100
AcDbLine
 10
84.05288152995854
 20
-106.31093648384056
 30
0.00000000000000
 11
80.94711847004182
 21
-104.32819395094305
 31
0.00000000000000
  0
ARC
  5
1E3
330
2D
100
AcDbEntity
  8
Zeichnung 5
  6
CONTINUOUS
 62
     7
370
    18
100
AcDbCircle
 10
85.60869565217404
 20
-103.87391304347877
 30
0.00000000000000
 40
2.89130434782607
100
AcDbArc
 50
112.35997221533769
 51
122.55446751639941
  0
ARC
  5
1E4
330
2D
100
AcDbEntity
  8
Zeichnung 5
  6
CONTINUOUS
 62
     7
370
    18
100
AcDbCircle
 10
85.60869565217404
 20
-103.87391304347877
 30
0.00000000000000
 40
2.89130434782607
100
AcDbArc
 50
237.44553248360120
 51
67.64002778466255
  0
LINE
  5
1E5
330
2D
100
AcDbEntity
  8
Zeichnung 5
  6
CONTINUOUS
 62
     7
370
    18
100
AcDbLine
 10
80.94711847004182
 20
-103.41963213601446
 30
0.00000000000000
 11
84.05288152995854
 21
-101.43688960311694
 31
0.00000000000000
  0
ARC
  5
1E6
330
2D
100
AcDbEntity
  8
Zeichnung 5
  6
CONTINUOUS
 62
     7
370
    18
100
AcDbCircle
 10
79.39130434782638
 20
-100.98260869565267
 30
0.00000000000000
 40
2.89130434782607
100
AcDbArc
 50
184.29986282019274
 51
302.55446751639920
  0
ENDBLK
  5
1E7
330
2D
100
AcDbEntity
  8
0
100
AcDbBlockEnd
  0
BLOCK
  5
1E8
330
2E
100
AcDbEntity
  8
0
100
AcDbBlockBegin
  2
*U22
 70
     1
 10
0.00000000000000
 20
0.00000000000000
 30
0.00000000000000
  3
*U22
  1

  0
MTEXT
  5
1E9
330
2E
100
AcDbEntity
  8
Zeichnung 5
 62
     7
370
    30
100
AcDbMText
 10
155.33780822914878
 20
-103.32739820004676
 30
0.00000000000000
 40
2.80000000000000
 41
0.00000000000000
 71
     7
 72
     1
  1
\fArial Narrow|b0|i0;Oberer Wandabschluss
 11
1.00000000000000
 21
0.00000000000000
 31
0.00000000000000
 73
     1
 44
1.00000000000000
  0
MTEXT
  5
1EA
330
2E
100
AcDbEntity
  8
Zeichnung 5
 62
     7
370
    30
100
AcDbMText
 10
155.33780822914878
 20
-104.92739820004677
 30
0.00000000000000
 40
2.80000000000000
 41
0.00000000000000
 71
     1
 72
     1
  1
\fArial Narrow|b0|i0;ggf. mit Stahlbeton-Ringanker\P(nach Angabe Statik)
 11
1.00000000000000
 21
0.00000000000000
 31
0.00000000000000
 73
     1
 44
1.00000000000000
  0
LINE
  5
1EB
330
2E
100
AcDbEntity
  8
Zeichnung 5
  6
CONTINUOUS
 62
    12
370
    25
100
AcDbLine
 10
130.42710039658067
 20
-110.02027806197508
 30
0.00000000000000
 11
152.64843668390077
 21
-104.12739820004676
 31
0.00000000000000
  0
HATCH
  5
1EC
330
2E
100
AcDbEntity
  8
Zeichnung 5
 62
    12
100
AcDbHatch
 10
0.00000000000000
 20
0.00000000000000
 30
0.00000000000000
210
0.00000000000000
220
0.00000000000000
230
1.00000000000000
  2
SOLID
 70
     1
 71
     0
 91
        1
 92
        0
 93
       16
 72
     1
 10
130.92710039658067
 20
-110.02027806197508
 11
130.88904016283630
 21
-109.82893634579254
 72
     1
 10
130.88904016283630
 20
-109.82893634579254
 11
130.78065378717392
 21
-109.66672467138181
 72
     1
 10
130.78065378717392
 20
-109.66672467138181
 11
130.61844211276320
 21
-109.55833829571944
 72
     1
 10
130.61844211276320
 20
-109.55833829571944
 11
130.42710039658067
 21
-109.52027806197509
 72
     1
 10
130.42710039658067
 20
-109.52027806197509
 11
130.23575868039813
 21
-109.55833829571944
 72
     1
 10
130.23575868039813
 20
-109.55833829571944
 11
130.07354700598742
 21
-109.66672467138181
 72
     1
 10
130.07354700598742
 20
-109.66672467138181
 11
129.96516063032504
 21
-109.82893634579254
 72
     1
 10
129.96516063032504
 20
-109.82893634579254
 11
129.92710039658070
 21
-110.02027806197508
 72
     1
 10
129.92710039658070
 20
-110.02027806197508
 11
129.96516063032504
 21
-110.21161977815761
 72
     1
 10
129.96516063032504
 20
-110.21161977815761
 11
130.07354700598742
 21
-110.37383145256835
 72
     1
 10
130.07354700598742
 20
-110.37383145256835
 11
130.23575868039813
 21
-110.48221782823072
 72
     1
 10
130.23575868039813
 20
-110.48221782823072
 11
130.42710039658067
 21
-110.52027806197506
 72
     1
 10
130.42710039658067
 20
-110.52027806197506
 11
130.61844211276320
 21
-110.48221782823072
 72
     1
 10
130.61844211276320
 20
-110.48221782823072
 11
130.78065378717392
 21
-110.37383145256835
 72
     1
 10
130.78065378717392
 20
-110.37383145256835
 11
130.88904016283630
 21
-110.21161977815761
 72
     1
 10
130.88904016283630
 20
-110.21161977815761
 11
130.92710039658067
 21
-110.02027806197508
 97
        0
 75
     0
 76
     0
 98
        1
 10
0.00000000000000
 20
0.00000000000000
  0
LWPOLYLINE
  5
1ED
330
2E
100
AcDbEntity
  8
Zeichnung 5
  6
CONTINUOUS
 62
    12
370
    25
100
AcDbPolyline
 90
       17
 70
   128
 10
130.92710039658067
 20
-110.02027806197508
 10
130.88904016283630
 20
-109.82893634579254
 10
130.78065378717392
 20
-109.66672467138181
 10
130.61844211276320
 20
-109.55833829571944
 10
130.42710039658067
 20
-109.52027806197509
 10
130.23575868039813
 20
-109.55833829571944
 10
130.07354700598742
 20
-109.66672467138181
 10
129.96516063032504
 20
-109.82893634579254
 10
129.92710039658070
 20
-110.02027806197508
 10
129.96516063032504
 20
-110.21161977815761
 10
130.07354700598742
 20
-110.37383145256835
 10
130.23575868039813
 20
-110.48221782823072
 10
130.42710039658067
 20
-110.52027806197506
 10
130.61844211276320
 20
-110.48221782823072
 10
130.78065378717392
 20
-110.37383145256835
 10
130.88904016283630
 20
-110.21161977815761
 10
130.92710039658067
 20
-110.02027806197508
  0
LINE
  5
1EE
330
2E
100
AcDbEntity
  8
Zeichnung 5
  6
CONTINUOUS
 62
    12
370
    25
100
AcDbLine
 10
152.64843668390077
 20
-104.12739820004676
 30
0.00000000000000
 11
198.37855472992638
 21
-104.12739820004676
 31
0.00000000000000
  0
ENDBLK
  5
1EF
330
2E
100
AcDbEntity
  8
0
100
AcDbBlockEnd
  0
BLOCK
  5
1F0
330
2F
100
AcDbEntity
  8
0
100
AcDbBlockBegin
  2
*U23
 70
     1
 10
0.00000000000000
 20
0.00000000000000
 30
0.00000000000000
  3
*U23
  1

  0
LINE
  5
1F1
330
2F
100
AcDbEntity
  8
Zeichnung 5
  6
DC_VERDECKT
 62
     5
 48
0.28571428571429
370
    35
100
AcDbLine
 10
87.00000000000031
 20
-233.70000000000078
 30
0.00000000000000
 11
87.00000000000036
 21
-252.20000000000036
 31
0.00000000000000
  0
LINE
  5
1F2
330
2F
100
AcDbEntity
  8
Zeichnung 5
  6
CONTINUOUS
 62
     5
370
    18
100
AcDbLine
 10
87.40000000000030
 20
-233.40000000000040
 30
0.00000000000000
 11
87.40000000000030
 21
-241.20000000000036
 31
0.00000000000000
  0
LINE
  5
1F3
330
2F
100
AcDbEntity
  8
Zeichnung 5
  6
CONTINUOUS
 62
     5
370
    18
100
AcDbLine
 10
86.55000000000017
 20
-232.55000000000024
 30
0.00000000000000
 11
87.40000000000030
 21
-233.40000000000040
 31
0.00000000000000
  0
LINE
  5
1F4
330
2F
100
AcDbEntity
  8
Zeichnung 5
  6
CONTINUOUS
 62
     5
370
    18
100
AcDbLine
 10
86.55000000000017
 20
-227.60000000000045
 30
0.00000000000000
 11
86.55000000000017
 21
-232.55000000000024
 31
0.00000000000000
  0
LINE
  5
1F5
330
2F
100
AcDbEntity
  8
Zeichnung 5
  6
CONTINUOUS
 62
     5
370
    18
100
AcDbLine
 10
86.75000000000014
 20
-232.46715728752562
 30
0.00000000000000
 11
86.75000000000014
 21
-227.60000000000039
 31
0.00000000000000
  0
LINE
  5
1F6
330
2F
100
AcDbEntity
  8
Zeichnung 5
  6
CONTINUOUS
 62
     5
370
    18
100
AcDbLine
 10
86.75000000000014
 20
-232.46715728752562
 30
0.00000000000000
 11
87.60000000000029
 21
-233.31715728752584
 31
0.00000000000000
  0
LINE
  5
1F7
330
2F
100
AcDbEntity
  8
Zeichnung 5
  6
CONTINUOUS
 62
     5
370
    18
100
AcDbLine
 10
87.60000000000029
 20
-233.31715728752584
 30
0.00000000000000
 11
87.60000000000029
 21
-241.20000000000036
 31
0.00000000000000
  0
LINE
  5
1F8
330
2F
100
AcDbEntity
  8
Zeichnung 5
  6
CONTINUOUS
 62
     5
370
    18
100
AcDbLine
 10
87.60000000000029
 20
-241.20000000000036
 30
0.00000000000000
 11
87.40000000000030
 21
-241.20000000000036
 31
0.00000000000000
  0
LINE
  5
1F9
330
2F
100
AcDbEntity
  8
Zeichnung 5
  6
CONTINUOUS
 62
     5
370
    18
100
AcDbLine
 10
86.75000000000014
 20
-227.60000000000039
 30
0.00000000000000
 11
86.55000000000017
 21
-227.60000000000039
 31
0.00000000000000
  0
ENDBLK
  5
1FA
330
2F
100
AcDbEntity
  8
0
100
AcDbBlockEnd
  0
BLOCK
  5
1FB
330
30
100
AcDbEntity
  8
0
100
AcDbBlockBegin
  2
*U24
 70
     1
 10
0.00000000000000
 20
0.00000000000000
 30
0.00000000000000
  3
*U24
  1

  0
ARC
  5
1FC
330
30
100
AcDbEntity
  8
Zeichnung 5
  6
CONTINUOUS
 62
     7
370
    18
100
AcDbCircle
 10
76.50000000000031
 20
-98.43076923076977
 30
0.00000000000000
 40
2.76923076923078
100
AcDbArc
 50
270.00000000000000
 51
28.78539082367729
  0
LINE
  5
1FD
330
30
100
AcDbEntity
  8
Zeichnung 5
  6
CONTINUOUS
 62
     7
370
    18
100
AcDbLine
 10
78.92703550593600
 20
-97.09730093111583
 30
0.00000000000000
 11
76.84219526329542
 21
-93.30269906888525
 31
0.00000000000000
  0
ARC
  5
1FE
330
30
100
AcDbEntity
  8
Zeichnung 5
  6
CONTINUOUS
 62
     7
370
    18
100
AcDbCircle
 10
79.26923076923112
 20
-91.96923076923130
 30
0.00000000000000
 40
2.76923076923078
100
AcDbArc
 50
331.21460917632220
 51
208.78539082367726
  0
LINE
  5
1FF
330
30
100
AcDbEntity
  8
Zeichnung 5
  6
CONTINUOUS
 62
     7
370
    18
100
AcDbLine
 10
81.69626627516679
 20
-93.30269906888528
 30
0.00000000000000
 11
79.61142603252618
 21
-97.09730093111580
 31
0.00000000000000
  0
ARC
  5
200
330
30
100
AcDbEntity
  8
Zeichnung 5
  6
CONTINUOUS
 62
     7
370
    18
100
AcDbCircle
 10
82.03846153846187
 20
-98.43076923076977
 30
0.00000000000000
 40
2.76923076923078
100
AcDbArc
 50
151.21460917632220
 51
28.78539082367757
  0
LINE
  5
201
330
30
100
AcDbEntity
  8
Zeichnung 5
  6
CONTINUOUS
 62
     7
370
    18
100
AcDbLine
 10
84.46549704439755
 20
-97.09730093111581
 30
0.00000000000000
 11
82.38065680175696
 21
-93.30269906888528
 31
0.00000000000000
  0
ARC
  5
202
330
30
100
AcDbEntity
  8
Zeichnung 5
  6
CONTINUOUS
 62
     7
370
    18
100
AcDbCircle
 10
84.80769230769263
 20
-91.96923076923130
 30
0.00000000000000
 40
2.76923076923078
100
AcDbArc
 50
331.21460917632254
 51
208.78539082367780
  0
LINE
  5
203
330
30
100
AcDbEntity
  8
Zeichnung 5
  6
CONTINUOUS
 62
     7
370
    18
100
AcDbLine
 10
87.23472781362834
 20
-93.30269906888526
 30
0.00000000000000
 11
85.14988757098774
 21
-97.09730093111583
 31
0.00000000000000
  0
ARC
  5
204
330
30
100
AcDbEntity
  8
Zeichnung 5
  6
CONTINUOUS
 62
     7
370
    18
100
AcDbCircle
 10
87.57692307692344
 20
-98.43076923076977
 30
0.00000000000000
 40
2.76923076923078
100
AcDbArc
 50
151.21460917632263
 51
28.78539082367740
  0
LINE
  5
205
330
30
100
AcDbEntity
  8
Zeichnung 5
  6
CONTINUOUS
 62
     7
370
    18
100
AcDbLine
 10
90.00395858285911
 20
-97.09730093111583
 30
0.00000000000000
 11
87.91911834021853
 21
-93.30269906888526
 31
0.00000000000000
  0
ARC
  5
206
330
30
100
AcDbEntity
  8
Zeichnung 5
  6
CONTINUOUS
 62
     7
370
    18
100
AcDbCircle
 10
90.34615384615422
 20
-91.96923076923130
 30
0.00000000000000
 40
2.76923076923078
100
AcDbArc
 50
331.21460917632220
 51
208.78539082367746
  0
LINE
  5
207
330
30
100
AcDbEntity
  8
Zeichnung 5
  6
CONTINUOUS
 62
     7
370
    18
100
AcDbLine
 10
92.77318935208990
 20
-93.30269906888528
 30
0.00000000000000
 11
90.68834910944931
 21
-97.09730093111581
 31
0.00000000000000
  0
ARC
  5
208
330
30
100
AcDbEntity
  8
Zeichnung 5
  6
CONTINUOUS
 62
     7
370
    18
100
AcDbCircle
 10
93.11538461538498
 20
-98.43076923076977
 30
0.00000000000000
 40
2.76923076923078
100
AcDbArc
 50
151.21460917632240
 51
28.78539082367774
  0
LINE
  5
209
330
30
100
AcDbEntity
  8
Zeichnung 5
  6
CONTINUOUS
 62
     7
370
    18
100
AcDbLine
 10
95.54242012132067
 20
-97.09730093111580
 30
0.00000000000000
 11
93.45757987868007
 21
-93.30269906888528
 31
0.00000000000000
  0
ARC
  5
20A
330
30
100
AcDbEntity
  8
Zeichnung 5
  6
CONTINUOUS
 62
     7
370
    18
100
AcDbCircle
 10
95.88461538461574
 20
-91.96923076923130
 30
0.00000000000000
 40
2.76923076923078
100
AcDbArc
 50
331.21460917632271
 51
208.78539082367780
  0
LINE
  5
20B
330
30
100
AcDbEntity
  8
Zeichnung 5
  6
CONTINUOUS
 62
     7
370
    18
100
AcDbLine
 10
98.31165089055143
 20
-93.30269906888525
 30
0.00000000000000
 11
96.22681064791085
 21
-97.09730093111583
 31
0.00000000000000
  0
ARC
  5
20C
330
30
100
AcDbEntity
  8
Zeichnung 5
  6
CONTINUOUS
 62
     7
370
    18
100
AcDbCircle
 10
98.65384615384654
 20
-98.43076923076977
 30
0.00000000000000
 40
2.76923076923078
100
AcDbArc
 50
151.21460917632274
 51
28.78539082367752
  0
LINE
  5
20D
330
30
100
AcDbEntity
  8
Zeichnung 5
  6
CONTINUOUS
 62
     7
370
    18
100
AcDbLine
 10
101.08088165978224
 20
-97.09730093111581
 30
0.00000000000000
 11
98.99604141714164
 21
-93.30269906888526
 31
0.00000000000000
  0
ARC
  5
20E
330
30
100
AcDbEntity
  8
Zeichnung 5
  6
CONTINUOUS
 62
     7
370
    18
100
AcDbCircle
 10
101.42307692307733
 20
-91.96923076923130
 30
0.00000000000000
 40
2.76923076923078
100
AcDbArc
 50
331.21460917632220
 51
208.78539082367760
  0
LINE
  5
20F
330
30
100
AcDbEntity
  8
Zeichnung 5
  6
CONTINUOUS
 62
     7
370
    18
100
AcDbLine
 10
103.85011242901301
 20
-93.30269906888528
 30
0.00000000000000
 11
101.76527218637241
 21
-97.09730093111581
 31
0.00000000000000
  0
ARC
  5
210
330
30
100
AcDbEntity
  8
Zeichnung 5
  6
CONTINUOUS
 62
     7
370
    18
100
AcDbCircle
 10
104.19230769230809
 20
-98.43076923076977
 30
0.00000000000000
 40
2.76923076923078
100
AcDbArc
 50
151.21460917632240
 51
28.78539082367740
  0
LINE
  5
211
330
30
100
AcDbEntity
  8
Zeichnung 5
  6
CONTINUOUS
 62
     7
370
    18
100
AcDbLine
 10
106.61934319824380
 20
-97.09730093111581
 30
0.00000000000000
 11
104.53450295560320
 21
-93.30269906888525
 31
0.00000000000000
  0
ARC
  5
212
330
30
100
AcDbEntity
  8
Zeichnung 5
  6
CONTINUOUS
 62
     7
370
    18
100
AcDbCircle
 10
106.96153846153888
 20
-91.96923076923130
 30
0.00000000000000
 40
2.76923076923078
100
AcDbArc
 50
331.21460917632220
 51
208.78539082367737
  0
LINE
  5
213
330
30
100
AcDbEntity
  8
Zeichnung 5
  6
CONTINUOUS
 62
     7
370
    18
100
AcDbLine
 10
109.38857396747457
 20
-93.30269906888528
 30
0.00000000000000
 11
107.30373372483398
 21
-97.09730093111581
 31
0.00000000000000
  0
ARC
  5
214
330
30
100
AcDbEntity
  8
Zeichnung 5
  6
CONTINUOUS
 62
     7
370
    18
100
AcDbCircle
 10
109.73076923076965
 20
-98.43076923076977
 30
0.00000000000000
 40
2.76923076923078
100
AcDbArc
 50
151.21460917632240
 51
28.78539082367740
  0
LINE
  5
215
330
30
100
AcDbEntity
  8
Zeichnung 5
  6
CONTINUOUS
 62
     7
370
    18
100
AcDbLine
 10
112.15780473670536
 20
-97.09730093111581
 30
0.00000000000000
 11
110.07296449406476
 21
-93.30269906888525
 31
0.00000000000000
  0
ARC
  5
216
330
30
100
AcDbEntity
  8
Zeichnung 5
  6
CONTINUOUS
 62
     7
370
    18
100
AcDbCircle
 10
112.50000000000044
 20
-91.96923076923130
 30
0.00000000000000
 40
2.76923076923078
100
AcDbArc
 50
331.21460917632220
 51
208.78539082367737
  0
LINE
  5
217
330
30
100
AcDbEntity
  8
Zeichnung 5
  6
CONTINUOUS
 62
     7
370
    18
100
AcDbLine
 10
114.92703550593613
 20
-93.30269906888528
 30
0.00000000000000
 11
112.84219526329552
 21
-97.09730093111581
 31
0.00000000000000
  0
ARC
  5
218
330
30
100
AcDbEntity
  8
Zeichnung 5
  6
CONTINUOUS
 62
     7
370
    18
100
AcDbCircle
 10
115.26923076923121
 20
-98.43076923076977
 30
0.00000000000000
 40
2.76923076923078
100
AcDbArc
 50
151.21460917632240
 51
28.78539082367740
  0
LINE
  5
219
330
30
100
AcDbEntity
  8
Zeichnung 5
  6
CONTINUOUS
 62
     7
370
    18
100
AcDbLine
 10
117.69626627516692
 20
-97.09730093111581
 30
0.00000000000000
 11
115.61142603252632
 21
-93.30269906888525
 31
0.00000000000000
  0
ARC
  5
21A
330
30
100
AcDbEntity
  8
Zeichnung 5
  6
CONTINUOUS
 62
     7
370
    18
100
AcDbCircle
 10
118.03846153846200
 20
-91.96923076923130
 30
0.00000000000000
 40
2.76923076923078
100
AcDbArc
 50
331.21460917632220
 51
208.78539082367737
  0
LINE
  5
21B
330
30
100
AcDbEntity
  8
Zeichnung 5
  6
CONTINUOUS
 62
     7
370
    18
100
AcDbLine
 10
120.46549704439768
 20
-93.30269906888528
 30
0.00000000000000
 11
118.38065680175708
 21
-97.09730093111581
 31
0.00000000000000
  0
ARC
  5
21C
330
30
100
AcDbEntity
  8
Zeichnung 5
  6
CONTINUOUS
 62
     7
370
    18
100
AcDbCircle
 10
120.80769230769278
 20
-98.43076923076977
 30
0.00000000000000
 40
2.76923076923078
100
AcDbArc
 50
151.21460917632240
 51
28.78539082367718
  0
LINE
  5
21D
330
30
100
AcDbEntity
  8
Zeichnung 5
  6
CONTINUOUS
 62
     7
370
    18
100
AcDbLine
 10
123.23472781362845
 20
-97.09730093111584
 30
0.00000000000000
 11
121.14988757098787
 21
-93.30269906888525
 31
0.00000000000000
  0
ARC
  5
21E
330
30
100
AcDbEntity
  8
Zeichnung 5
  6
CONTINUOUS
 62
     7
370
    18
100
AcDbCircle
 10
123.57692307692358
 20
-91.96923076923130
 30
0.00000000000000
 40
2.76923076923078
100
AcDbArc
 50
331.21460917632220
 51
208.78539082367715
  0
LINE
  5
21F
330
30
100
AcDbEntity
  8
Zeichnung 5
  6
CONTINUOUS
 62
     7
370
    18
100
AcDbLine
 10
126.00395858285925
 20
-93.30269906888528
 30
0.00000000000000
 11
123.91911834021865
 21
-97.09730093111580
 31
0.00000000000000
  0
ARC
  5
220
330
30
100
AcDbEntity
  8
Zeichnung 5
  6
CONTINUOUS
 62
     7
370
    18
100
AcDbCircle
 10
126.34615384615432
 20
-98.43076923076977
 30
0.00000000000000
 40
2.76923076923078
100
AcDbArc
 50
151.21460917632200
 51
28.78539082367797
  0
LINE
  5
221
330
30
100
AcDbEntity
  8
Zeichnung 5
  6
CONTINUOUS
 62
     7
370
    18
100
AcDbLine
 10
128.77318935209001
 20
-97.09730093111580
 30
0.00000000000000
 11
126.68834910944939
 21
-93.30269906888528
 31
0.00000000000000
  0
ARC
  5
222
330
30
100
AcDbEntity
  8
Zeichnung 5
  6
CONTINUOUS
 62
     7
370
    18
100
AcDbCircle
 10
129.11538461538507
 20
-91.96923076923130
 30
0.00000000000000
 40
2.76923076923078
100
AcDbArc
 50
331.21460917632282
 51
208.78539082367780
  0
LINE
  5
223
330
30
100
AcDbEntity
  8
Zeichnung 5
  6
CONTINUOUS
 62
     7
370
    18
100
AcDbLine
 10
131.54242012132079
 20
-93.30269906888525
 30
0.00000000000000
 11
129.45757987868021
 21
-97.09730093111584
 31
0.00000000000000
  0
ARC
  5
224
330
30
100
AcDbEntity
  8
Zeichnung 5
  6
CONTINUOUS
 62
     7
370
    18
100
AcDbCircle
 10
131.88461538461590
 20
-98.43076923076977
 30
0.00000000000000
 40
2.76923076923078
100
AcDbArc
 50
151.21460917632282
 51
28.78539082367740
  0
LINE
  5
225
330
30
100
AcDbEntity
  8
Zeichnung 5
  6
CONTINUOUS
 62
     7
370
    18
100
AcDbLine
 10
134.31165089055162
 20
-97.09730093111581
 30
0.00000000000000
 11
132.22681064791101
 21
-93.30269906888525
 31
0.00000000000000
  0
ARC
  5
226
330
30
100
AcDbEntity
  8
Zeichnung 5
  6
CONTINUOUS
 62
     7
370
    18
100
AcDbCircle
 10
134.65384615384667
 20
-91.96923076923130
 30
0.00000000000000
 40
2.76923076923078
100
AcDbArc
 50
331.21460917632220
 51
208.78539082367737
  0
LINE
  5
227
330
30
100
AcDbEntity
  8
Zeichnung 5
  6
CONTINUOUS
 62
     7
370
    18
100
AcDbLine
 10
137.08088165978236
 20
-93.30269906888528
 30
0.00000000000000
 11
134.99604141714178
 21
-97.09730093111581
 31
0.00000000000000
  0
ARC
  5
228
330
30
100
AcDbEntity
  8
Zeichnung 5
  6
CONTINUOUS
 62
     7
370
    18
100
AcDbCircle
 10
137.42307692307745
 20
-98.43076923076977
 30
0.00000000000000
 40
2.76923076923078
100
AcDbArc
 50
151.21460917632240
 51
28.78539082367740
  0
LINE
  5
229
330
30
100
AcDbEntity
  8
Zeichnung 5
  6
CONTINUOUS
 62
     7
370
    18
100
AcDbLine
 10
139.85011242901317
 20
-97.09730093111581
 30
0.00000000000000
 11
137.76527218637256
 21
-93.30269906888525
 31
0.00000000000000
  0
ARC
  5
22A
330
30
100
AcDbEntity
  8
Zeichnung 5
  6
CONTINUOUS
 62
     7
370
    18
100
AcDbCircle
 10
140.19230769230825
 20
-91.96923076923130
 30
0.00000000000000
 40
2.76923076923078
100
AcDbArc
 50
331.21460917632220
 51
208.78539082367737
  0
LINE
  5
22B
330
30
100
AcDbEntity
  8
Zeichnung 5
  6
CONTINUOUS
 62
     7
370
    18
100
AcDbLine
 10
142.61934319824394
 20
-93.30269906888528
 30
0.00000000000000
 11
140.53450295560333
 21
-97.09730093111581
 31
0.00000000000000
  0
ARC
  5
22C
330
30
100
AcDbEntity
  8
Zeichnung 5
  6
CONTINUOUS
 62
     7
370
    18
100
AcDbCircle
 10
142.96153846153899
 20
-98.43076923076977
 30
0.00000000000000
 40
2.76923076923078
100
AcDbArc
 50
151.21460917632240
 51
28.78539082367763
  0
LINE
  5
22D
330
30
100
AcDbEntity
  8
Zeichnung 5
  6
CONTINUOUS
 62
     7
370
    18
100
AcDbLine
 10
145.38857396747471
 20
-97.09730093111581
 30
0.00000000000000
 11
143.30373372483410
 21
-93.30269906888528
 31
0.00000000000000
  0
ARC
  5
22E
330
30
100
AcDbEntity
  8
Zeichnung 5
  6
CONTINUOUS
 62
     7
370
    18
100
AcDbCircle
 10
145.73076923076977
 20
-91.96923076923130
 30
0.00000000000000
 40
2.76923076923078
100
AcDbArc
 50
331.21460917632260
 51
208.78539082367780
  0
LINE
  5
22F
330
30
100
AcDbEntity
  8
Zeichnung 5
  6
CONTINUOUS
 62
     7
370
    18
100
AcDbLine
 10
148.15780473670546
 20
-93.30269906888525
 30
0.00000000000000
 11
146.07296449406488
 21
-97.09730093111581
 31
0.00000000000000
  0
ARC
  5
230
330
30
100
AcDbEntity
  8
Zeichnung 5
  6
CONTINUOUS
 62
     7
370
    18
100
AcDbCircle
 10
148.50000000000057
 20
-98.43076923076977
 30
0.00000000000000
 40
2.76923076923078
100
AcDbArc
 50
151.21460917632265
 51
270.00000000000000
  0
ENDBLK
  5
231
330
30
100
AcDbEntity
  8
0
100
AcDbBlockEnd
  0
BLOCK
  5
232
330
31
100
AcDbEntity
  8
0
100
AcDbBlockBegin
  2
*U25
 70
     1
 10
0.00000000000000
 20
0.00000000000000
 30
0.00000000000000
  3
*U25
  1

  0
LWPOLYLINE
  5
233
330
31
100
AcDbEntity
  8
Planrahmen
  6
CONTINUOUS
 62
     7
370
     0
100
AcDbPolyline
 90
       29
 70
   129
 10
173.38639999999998
 20
-12.97660000000002
 10
173.30445000000000
 20
-12.97660000000002
 10
173.05955000000000
 20
-12.91145000000002
 10
172.80640000000002
 20
-12.71565000000002
 10
172.64285000000001
 20
-12.38820000000002
 10
172.58480000000003
 20
-12.04320000000002
 10
172.58480000000003
 20
-11.92815000000002
 10
172.58480000000003
 20
-11.81585000000002
 10
172.64040000000003
 20
-11.47945000000002
 10
172.79960000000000
 20
-11.16235000000001
 10
173.05029999999999
 20
-10.97410000000002
 10
173.29794999999999
 20
-10.91195000000001
 10
173.38069999999999
 20
-10.91195000000001
 10
173.45800000000000
 20
-10.91195000000001
 10
173.68995000000004
 20
-10.97140000000002
 10
173.93105000000003
 20
-11.15425000000002
 10
174.08790000000002
 20
-11.46565000000001
 10
174.14404999999999
 20
-11.79990000000002
 10
174.14404999999999
 20
-11.91135000000002
 10
174.14404999999999
 20
-11.97835000000002
 10
174.12939999999998
 20
-12.17930000000002
 10
174.08730000000000
 20
-12.40425000000002
 10
174.02010000000001
 20
-12.58840000000002
 10
173.92974999999998
 20
-12.73410000000002
 10
173.81905000000003
 20
-12.84340000000002
 10
173.68995000000004
 20
-12.91885000000002
 10
173.54480000000001
 20
-12.96250000000002
 10
173.42600000000002
 20
-12.97660000000002
 10
173.38639999999998
 20
-12.97660000000002
  0
LWPOLYLINE
  5
234
330
31
100
AcDbEntity
  8
Planrahmen
  6
CONTINUOUS
 62
     7
370
     0
100
AcDbPolyline
 90
       41
 70
   129
 10
173.40834999999998
 20
-9.89635000000002
 10
173.29634999999999
 20
-9.89635000000002
 10
172.96080000000003
 20
-9.93190000000001
 10
172.56009999999998
 20
-10.03690000000002
 10
172.21015000000000
 20
-10.20780000000002
 10
171.91475000000000
 20
-10.44105000000002
 10
171.67820000000000
 20
-10.73375000000002
 10
171.50405000000001
 20
-11.08210000000002
 10
171.39690000000002
 20
-11.48300000000001
 10
171.36030000000002
 20
-11.82070000000002
 10
171.36030000000002
 20
-11.93330000000002
 10
171.36030000000002
 20
-12.05020000000002
 10
171.39690000000002
 20
-12.40100000000002
 10
171.50490000000002
 20
-12.81140000000002
 10
171.67935000000000
 20
-13.16245000000002
 10
171.91614999999999
 20
-13.45320000000002
 10
172.21129999999999
 20
-13.68190000000002
 10
172.56009999999998
 20
-13.84710000000002
 10
172.95854999999997
 20
-13.94715000000002
 10
173.29139999999998
 20
-13.98110000000002
 10
173.40264999999999
 20
-13.98110000000002
 10
173.50415000000001
 20
-13.98110000000002
 10
173.80879999999999
 20
-13.95070000000002
 10
174.18310000000002
 20
-13.85875000000002
 10
174.51835000000000
 20
-13.70390000000002
 10
174.80810000000002
 20
-13.48465000000002
 10
175.04544999999999
 20
-13.19985000000002
 10
175.22344999999999
 20
-12.84830000000002
 10
175.33515000000000
 20
-12.42805000000002
 10
175.37400000000002
 20
-12.06105000000002
 10
175.37400000000002
 20
-11.93875000000002
 10
175.37400000000002
 20
-11.82320000000002
 10
175.33789999999999
 20
-11.47730000000002
 10
175.23345000000000
 20
-11.07070000000002
 10
175.06474999999998
 20
-10.72080000000002
 10
174.83579999999998
 20
-10.42965000000002
 10
174.55120000000002
 20
-10.19940000000001
 10
174.21564999999998
 20
-10.03225000000002
 10
173.83314999999999
 20
-9.93055000000002
 10
173.51440000000002
 20
-9.89635000000002
 10
173.40834999999998
 20
-9.89635000000002
  0
LWPOLYLINE
  5
235
330
31
100
AcDbEntity
  8
Planrahmen
  6
CONTINUOUS
 62
     7
370
     0
100
AcDbPolyline
 90
        5
 70
   129
 10
173.68939999999998
 20
-8.99740000000001
 10
174.60245000000000
 20
-8.99740000000001
 10
174.60245000000000
 20
-9.77210000000001
 10
173.68939999999998
 20
-9.77210000000001
 10
173.68939999999998
 20
-8.99740000000001
  0
LWPOLYLINE
  5
236
330
31
100
AcDbEntity
  8
Planrahmen
  6
CONTINUOUS
 62
     7
370
     0
100
AcDbPolyline
 90
        7
 70
   129
 10
179.80650000000009
 20
-13.87670000000002
 10
179.80650000000009
 20
-10.00050000000001
 10
180.99760000000009
 20
-10.00050000000001
 10
180.99760000000009
 20
-12.99285000000002
 10
182.46925000000002
 20
-12.99285000000002
 10
182.46925000000002
 20
-13.87670000000002
 10
179.80650000000009
 20
-13.87670000000002
  0
LWPOLYLINE
  5
237
330
31
100
AcDbEntity
  8
Planrahmen
  6
CONTINUOUS
 62
     7
370
     0
100
AcDbPolyline
 90
       13
 70
   129
 10
184.16599999999994
 20
-13.87670000000002
 10
184.16599999999994
 20
-12.43840000000002
 10
182.82105000000004
 20
-12.43840000000002
 10
182.82105000000004
 20
-11.43475000000001
 10
184.16599999999994
 20
-11.43475000000001
 10
184.16599999999994
 20
-10.00105000000002
 10
185.33730000000003
 20
-10.00105000000002
 10
185.33730000000003
 20
-11.43475000000001
 10
186.68280000000004
 20
-11.43475000000001
 10
186.68280000000004
 20
-12.43840000000002
 10
185.33730000000003
 20
-12.43840000000002
 10
185.33730000000003
 20
-13.87670000000002
 10
184.16599999999994
 20
-13.87670000000002
  0
LWPOLYLINE
  5
238
330
31
100
AcDbEntity
  8
Planrahmen
  6
CONTINUOUS
 62
     7
370
     0
100
AcDbPolyline
 90
       20
 70
   129
 10
177.98275000000007
 20
-11.52725000000002
 10
177.96479999999991
 20
-11.54350000000002
 10
177.83460000000005
 20
-11.60340000000002
 10
177.65314999999993
 20
-11.63110000000002
 10
177.59265000000002
 20
-11.63110000000002
 10
177.04364999999999
 20
-11.63110000000002
 10
177.04364999999999
 20
-10.91765000000002
 10
177.58185000000003
 20
-10.91765000000002
 10
177.63634999999999
 20
-10.91765000000002
 10
177.79990000000001
 20
-10.93480000000002
 10
177.92440000000008
 20
-10.97680000000002
 10
177.94370000000004
 20
-10.98930000000001
 10
177.96705000000000
 20
-11.00425000000001
 10
178.04190000000008
 20
-11.10705000000002
 10
178.07010000000000
 20
-11.23235000000002
 10
178.07010000000000
 20
-11.27440000000002
 10
178.07010000000000
 20
-11.31265000000001
 10
178.04675000000003
 20
-11.42765000000002
 10
177.99629999999999
 20
-11.51340000000002
 10
177.98275000000007
 20
-11.52725000000002
  0
LWPOLYLINE
  5
239
330
31
100
AcDbEntity
  8
Planrahmen
  6
CONTINUOUS
 62
     7
370
     0
100
AcDbPolyline
 90
       27
 70
   129
 10
178.53130000000004
 20
-12.34535000000002
 10
178.61994999999996
 20
-12.31475000000002
 10
178.87085000000002
 20
-12.17855000000002
 10
179.12070000000003
 20
-11.93955000000002
 10
179.27480000000006
 20
-11.62330000000001
 10
179.32740000000001
 20
-11.32460000000002
 10
179.32740000000001
 20
-11.22530000000002
 10
179.32740000000001
 20
-11.13820000000002
 10
179.29540000000000
 20
-10.87725000000002
 10
179.19475000000006
 20
-10.58890000000002
 10
179.01924999999997
 20
-10.35480000000002
 10
178.83100000000007
 20
-10.20780000000002
 10
178.76210000000003
 20
-10.17090000000001
 10
178.71654999999998
 20
-10.14645000000002
 10
178.56974999999997
 20
-10.09330000000002
 10
178.32809999999998
 20
-10.04045000000001
 10
178.03295000000008
 20
-10.01000000000002
 10
177.76844999999997
 20
-10.00050000000001
 10
177.68030000000002
 20
-10.00050000000001
 10
175.85765000000009
 20
-10.00050000000001
 10
175.85765000000009
 20
-13.87670000000002
 10
177.04364999999999
 20
-13.87670000000002
 10
177.04364999999999
 20
-12.53715000000002
 10
177.39515000000006
 20
-12.53715000000002
 10
178.13630000000003
 20
-13.87670000000002
 10
179.48689999999999
 20
-13.87670000000002
 10
178.53130000000004
 20
-12.34535000000002
  0
LWPOLYLINE
  5
23A
330
31
100
AcDbEntity
  8
Planrahmen
  6
CONTINUOUS
 62
     7
370
     0
100
AcDbPolyline
 90
       13
 70
   129
 10
169.67140000000003
 20
-18.59405000000003
 10
169.67140000000003
 20
-17.08495000000002
 10
168.54479999999998
 20
-17.08495000000002
 10
168.54479999999998
 20
-18.59405000000003
 10
167.35284999999999
 20
-18.59405000000003
 10
167.35284999999999
 20
-14.73360000000002
 10
168.54479999999998
 20
-14.73360000000002
 10
168.54479999999998
 20
-16.08965000000002
 10
169.67140000000003
 20
-16.08965000000002
 10
169.67140000000003
 20
-14.73360000000002
 10
170.86905000000002
 20
-14.73360000000002
 10
170.86905000000002
 20
-18.59405000000003
 10
169.67140000000003
 20
-18.59405000000003
  0
LWPOLYLINE
  5
23B
330
31
100
AcDbEntity
  8
Planrahmen
  6
CONTINUOUS
 62
     7
370
     0
100
AcDbPolyline
 90
        9
 70
   129
 10
180.25049999999999
 20
-18.59405000000003
 10
180.25049999999999
 20
-15.65240000000003
 10
179.27754999999999
 20
-15.65240000000003
 10
179.27754999999999
 20
-14.73360000000002
 10
182.42175000000003
 20
-14.73360000000002
 10
182.42175000000003
 20
-15.65240000000003
 10
181.45390000000006
 20
-15.65240000000003
 10
181.45390000000006
 20
-18.59405000000003
 10
180.25049999999999
 20
-18.59405000000003
  0
LWPOLYLINE
  5
23C
330
31
100
AcDbEntity
  8
Planrahmen
  6
CONTINUOUS
 62
     7
370
     0
100
AcDbPolyline
 90
       44
 70
   129
 10
186.20510000000002
 20
-18.59405000000003
 10
186.20510000000002
 20
-18.37780000000003
 10
186.20620000000011
 20
-17.73000000000002
 10
186.21105000000003
 20
-17.06645000000003
 10
186.22115000000005
 20
-16.50635000000002
 10
186.23335000000006
 20
-16.09125000000002
 10
186.23820000000001
 20
-15.95320000000002
 10
186.21300000000008
 20
-16.05035000000003
 10
186.13789999999997
 20
-16.34195000000002
 10
186.00629999999995
 20
-16.84490000000002
 10
185.81425000000007
 20
-17.56210000000003
 10
185.60319999999996
 20
-18.33605000000003
 10
185.53240000000002
 20
-18.59405000000003
 10
184.56474999999995
 20
-18.59405000000003
 10
184.50725000000000
 20
-18.39030000000003
 10
184.33829999999995
 20
-17.77805000000003
 10
184.15705000000003
 20
-17.09800000000002
 10
184.00460000000007
 20
-16.49875000000003
 10
183.89905000000007
 20
-16.06850000000002
 10
183.86460000000005
 20
-15.92530000000002
 10
183.86685000000003
 20
-16.01910000000002
 10
183.87355000000005
 20
-16.30155000000002
 10
183.88254999999998
 20
-16.79010000000002
 10
183.88934999999995
 20
-17.51330000000003
 10
183.89230000000001
 20
-18.32385000000002
 10
183.89230000000001
 20
-18.59405000000003
 10
182.76544999999999
 20
-18.59405000000003
 10
182.76544999999999
 20
-14.73360000000002
 10
184.44435000000004
 20
-14.73360000000002
 10
184.50210000000010
 20
-14.94600000000002
 10
184.67245000000000
 20
-15.58510000000003
 10
184.84635000000006
 20
-16.26330000000002
 10
184.97495000000009
 20
-16.79580000000003
 10
185.04544999999993
 20
-17.10670000000002
 10
185.06775000000007
 20
-17.21055000000003
 10
185.08559999999997
 20
-17.11340000000002
 10
185.14474999999996
 20
-16.82370000000002
 10
185.25789999999998
 20
-16.32485000000002
 10
185.42605000000000
 20
-15.64965000000002
 10
185.60724999999999
 20
-14.96230000000002
 10
185.66939999999997
 20
-14.73360000000002
 10
187.33169999999998
 20
-14.73360000000002
 10
187.33169999999998
 20
-18.59405000000003
 10
186.20510000000002
 20
-18.59405000000003
  0
LWPOLYLINE
  5
23D
330
31
100
AcDbEntity
  8
Planrahmen
  6
CONTINUOUS
 62
     7
370
     0
100
AcDbPolyline
 90
       31
 70
   129
 10
193.35630000000003
 20
-14.73360000000002
 10
193.45230000000001
 20
-14.90940000000002
 10
193.73935000000009
 20
-15.43805000000002
 10
194.04230000000010
 20
-16.00745000000002
 10
194.28809999999996
 20
-16.48680000000002
 10
194.44760000000005
 20
-16.81175000000002
 10
194.49915000000007
 20
-16.92110000000002
 10
194.49370000000010
 20
-16.83760000000002
 10
194.48150000000007
 20
-16.58690000000002
 10
194.46955000000011
 20
-16.17590000000002
 10
194.46280000000004
 20
-15.59055000000002
 10
194.46085000000002
 20
-14.94765000000002
 10
194.46085000000002
 20
-14.73360000000002
 10
195.63650000000010
 20
-14.73360000000002
 10
195.63650000000010
 20
-18.59405000000003
 10
194.34559999999999
 20
-18.59405000000003
 10
194.25119999999995
 20
-18.42500000000003
 10
193.97070000000005
 20
-17.91745000000002
 10
193.66365000000008
 20
-17.35270000000003
 10
193.40780000000001
 20
-16.86980000000003
 10
193.24130000000005
 20
-16.54730000000002
 10
193.18675000000007
 20
-16.43960000000002
 10
193.19004999999999
 20
-16.51420000000002
 10
193.19650000000010
 20
-16.73910000000003
 10
193.20330000000007
 20
-17.14760000000003
 10
193.20710000000008
 20
-17.74055000000002
 10
193.20845000000008
 20
-18.38050000000003
 10
193.20845000000008
 20
-18.59405000000003
 10
192.03300000000002
 20
-18.59405000000003
 10
192.03300000000002
 20
-14.73360000000002
 10
193.35630000000003
 20
-14.73360000000002
  0
LWPOLYLINE
  5
23E
330
31
100
AcDbEntity
  8
Planrahmen
  6
CONTINUOUS
 62
     7
370
     0
100
AcDbPolyline
 90
       31
 70
   129
 10
197.71950000000004
 20
-14.73360000000002
 10
197.81550000000004
 20
-14.90940000000002
 10
198.10249999999996
 20
-15.43805000000002
 10
198.40599999999998
 20
-16.00745000000002
 10
198.65150000000008
 20
-16.48680000000002
 10
198.81099999999995
 20
-16.81175000000002
 10
198.86250000000004
 20
-16.92110000000002
 10
198.85700000000006
 20
-16.83760000000002
 10
198.84500000000006
 20
-16.58690000000002
 10
198.83300000000003
 20
-16.17590000000002
 10
198.82600000000005
 20
-15.59055000000002
 10
198.82399999999998
 20
-14.94765000000002
 10
198.82399999999998
 20
-14.73360000000002
 10
200.00000000000006
 20
-14.73360000000002
 10
200.00000000000006
 20
-18.59405000000003
 10
198.70900000000003
 20
-18.59405000000003
 10
198.61450000000002
 20
-18.42500000000003
 10
198.33400000000012
 20
-17.91745000000002
 10
198.02700000000007
 20
-17.35270000000003
 10
197.77100000000002
 20
-16.86980000000003
 10
197.60450000000006
 20
-16.54730000000002
 10
197.55000000000001
 20
-16.43960000000002
 10
197.55350000000004
 20
-16.51420000000002
 10
197.56000000000006
 20
-16.73910000000003
 10
197.56700000000004
 20
-17.14760000000003
 10
197.57049999999998
 20
-17.74055000000002
 10
197.57199999999997
 20
-18.38050000000003
 10
197.57199999999997
 20
-18.59405000000003
 10
196.39649999999997
 20
-18.59405000000003
 10
196.39649999999997
 20
-14.73360000000002
 10
197.71950000000004
 20
-14.73360000000002
  0
LWPOLYLINE
  5
23F
330
31
100
AcDbEntity
  8
Planrahmen
  6
CONTINUOUS
 62
     7
370
     0
100
AcDbPolyline
 90
       20
 70
   129
 10
177.68674999999999
 20
-16.25405000000002
 10
177.66890000000001
 20
-16.27035000000002
 10
177.53944999999993
 20
-16.33030000000003
 10
177.35884999999996
 20
-16.35765000000002
 10
177.29885000000002
 20
-16.35765000000002
 10
176.75175000000010
 20
-16.35765000000002
 10
176.75175000000010
 20
-15.64695000000002
 10
177.28725000000000
 20
-15.64695000000002
 10
177.34149999999994
 20
-15.64695000000002
 10
177.50474999999997
 20
-15.66405000000003
 10
177.62924999999996
 20
-15.70555000000002
 10
177.64855000000000
 20
-15.71800000000002
 10
177.67159999999993
 20
-15.73295000000002
 10
177.74619999999996
 20
-15.83550000000002
 10
177.77414999999996
 20
-15.96055000000002
 10
177.77414999999996
 20
-16.00230000000002
 10
177.77414999999996
 20
-16.04030000000002
 10
177.75079999999997
 20
-16.15480000000002
 10
177.70034999999996
 20
-16.24020000000002
 10
177.68674999999999
 20
-16.25405000000002
  0
LWPOLYLINE
  5
240
330
31
100
AcDbEntity
  8
Planrahmen
  6
CONTINUOUS
 62
     7
370
     0
100
AcDbPolyline
 90
       27
 70
   129
 10
178.23365000000001
 20
-17.06870000000003
 10
178.32185000000001
 20
-17.03800000000003
 10
178.57195000000004
 20
-16.90265000000003
 10
178.82070000000004
 20
-16.66445000000002
 10
178.97400000000007
 20
-16.34955000000003
 10
179.02655000000001
 20
-16.05225000000003
 10
179.02655000000001
 20
-15.95320000000002
 10
179.02655000000001
 20
-15.86640000000002
 10
178.99454999999998
 20
-15.60655000000002
 10
178.89444999999992
 20
-15.31925000000002
 10
178.71954999999994
 20
-15.08625000000002
 10
178.53204999999994
 20
-14.93975000000002
 10
178.46345000000008
 20
-14.90315000000002
 10
178.41815000000005
 20
-14.87875000000002
 10
178.27190000000004
 20
-14.82585000000002
 10
178.03129999999999
 20
-14.77320000000002
 10
177.73724999999996
 20
-14.74305000000002
 10
177.47355000000007
 20
-14.73360000000002
 10
177.38595000000001
 20
-14.73360000000002
 10
175.57034999999999
 20
-14.73360000000002
 10
175.57034999999999
 20
-18.59425000000003
 10
176.75175000000010
 20
-18.59425000000003
 10
176.75175000000010
 20
-17.26045000000002
 10
177.10195000000007
 20
-17.26045000000002
 10
177.84005000000002
 20
-18.59425000000003
 10
179.18529999999998
 20
-18.59425000000003
 10
178.23365000000001
 20
-17.06870000000003
  0
LWPOLYLINE
  5
241
330
31
100
AcDbEntity
  8
Planrahmen
  6
CONTINUOUS
 62
     7
370
     0
100
AcDbPolyline
 90
       10
 70
   129
 10
172.81510000000000
 20
-17.12320000000003
 10
172.85880000000003
 20
-16.98645000000003
 10
173.03970000000001
 20
-16.39430000000002
 10
173.19080000000002
 20
-15.87405000000002
 10
173.21980000000002
 20
-15.77305000000002
 10
173.24560000000000
 20
-15.87405000000002
 10
173.38585000000000
 20
-16.39235000000002
 10
173.55595000000002
 20
-16.98515000000003
 10
173.59690000000001
 20
-17.12320000000003
 10
172.81510000000000
 20
-17.12320000000003
  0
LWPOLYLINE
  5
242
330
31
100
AcDbEntity
  8
Planrahmen
  6
CONTINUOUS
 62
     7
370
     0
100
AcDbPolyline
 90
        9
 70
   129
 10
173.96310000000003
 20
-14.73390000000002
 10
172.54170000000002
 20
-14.73390000000002
 10
171.12539999999998
 20
-18.59405000000003
 10
172.40494999999999
 20
-18.59405000000003
 10
172.59649999999999
 20
-17.97120000000003
 10
173.82150000000001
 20
-17.97120000000003
 10
174.01274999999998
 20
-18.59405000000003
 10
175.31424999999999
 20
-18.59405000000003
 10
173.96310000000003
 20
-14.73390000000002
  0
LWPOLYLINE
  5
243
330
31
100
AcDbEntity
  8
Planrahmen
  6
CONTINUOUS
 62
     7
370
     0
100
AcDbPolyline
 90
       10
 70
   129
 10
189.27755000000002
 20
-17.12320000000003
 10
189.32120000000006
 20
-16.98645000000003
 10
189.50239999999997
 20
-16.39430000000002
 10
189.65320000000008
 20
-15.87405000000002
 10
189.68225000000004
 20
-15.77305000000002
 10
189.70800000000008
 20
-15.87405000000002
 10
189.84800000000001
 20
-16.39235000000002
 10
190.01835000000000
 20
-16.98515000000003
 10
190.05955000000009
 20
-17.12320000000003
 10
189.27755000000002
 20
-17.12320000000003
  0
LWPOLYLINE
  5
244
330
31
100
AcDbEntity
  8
Planrahmen
  6
CONTINUOUS
 62
     7
370
     0
100
AcDbPolyline
 90
        9
 70
   129
 10
190.42550000000003
 20
-14.73390000000002
 10
189.00379999999993
 20
-14.73390000000002
 10
187.58780000000007
 20
-18.59405000000003
 10
188.86760000000001
 20
-18.59405000000003
 10
189.05885000000001
 20
-17.97120000000003
 10
190.28389999999996
 20
-17.97120000000003
 10
190.47515000000004
 20
-18.59405000000003
 10
191.77640000000005
 20
-18.59405000000003
 10
190.42550000000003
 20
-14.73390000000002
  0
LWPOLYLINE
  5
245
330
31
100
AcDbEntity
  8
Planrahmen
  6
CONTINUOUS
 62
     7
370
     0
100
AcDbPolyline
 90
       13
 70
   129
 10
169.67409999999998
 20
-13.87670000000002
 10
169.67409999999998
 20
-12.36160000000001
 10
168.54344999999998
 20
-12.36160000000001
 10
168.54344999999998
 20
-13.87670000000002
 10
167.34605000000002
 20
-13.87670000000002
 10
167.34605000000002
 20
-10.00050000000001
 10
168.54344999999998
 20
-10.00050000000001
 10
168.54344999999998
 20
-11.36230000000001
 10
169.67409999999998
 20
-11.36230000000001
 10
169.67409999999998
 20
-10.00050000000001
 10
170.87635000000000
 20
-10.00050000000001
 10
170.87635000000000
 20
-13.87670000000002
 10
169.67409999999998
 20
-13.87670000000002
  0
LWPOLYLINE
  5
246
330
31
100
AcDbEntity
  8
Planrahmen
  6
CONTINUOUS
 62
     7
370
     0
100
AcDbPolyline
 90
        5
 70
   129
 10
172.26710000000000
 20
-8.99740000000001
 10
173.18050000000002
 20
-8.99740000000001
 10
173.18050000000002
 20
-9.77210000000001
 10
172.26710000000000
 20
-9.77210000000001
 10
172.26710000000000
 20
-8.99740000000001
  0
LWPOLYLINE
  5
247
330
31
100
AcDbEntity
  8
Planrahmen
  6
CONTINUOUS
 62
     7
370
     0
100
AcDbPolyline
 90
       44
 70
   129
 10
168.55864999999997
 20
-24.60937000000003
 10
168.51904999999999
 20
-24.46830500000003
 10
168.40049999999999
 20
-24.04540500000003
 10
168.30664999999999
 20
-23.70577000000004
 10
168.25350000000000
 20
-23.50395000000003
 10
168.22605000000001
 20
-23.39055000000003
 10
168.21764999999999
 20
-23.35285000000003
 10
168.20925000000003
 20
-23.39085000000003
 10
168.18295000000001
 20
-23.50449500000003
 10
168.13114999999999
 20
-23.70631000000003
 10
168.03810000000001
 20
-24.04567500000003
 10
167.92034999999998
 20
-24.46830500000003
 10
167.88100000000000
 20
-24.60937000000003
 10
167.75050000000002
 20
-24.60937000000003
 10
167.35260000000002
 20
-23.16950000000003
 10
167.48740000000001
 20
-23.16950000000003
 10
167.52674999999999
 20
-23.31570000000003
 10
167.64445000000001
 20
-23.75487500000003
 10
167.74050000000000
 20
-24.11484500000003
 10
167.79365000000001
 20
-24.32182000000003
 10
167.81675000000001
 20
-24.41649500000004
 10
167.82380000000001
 20
-24.44823000000003
 10
167.83085000000003
 20
-24.41730500000003
 10
167.85335000000001
 20
-24.32534500000003
 10
167.90379999999999
 20
-24.12787000000003
 10
167.99740000000003
 20
-23.77060500000004
 10
168.11674999999997
 20
-23.31975000000004
 10
168.15665000000001
 20
-23.16950000000003
 10
168.27704999999997
 20
-23.16950000000003
 10
168.31800000000001
 20
-23.31840000000003
 10
168.44094999999999
 20
-23.76545000000003
 10
168.53800000000001
 20
-24.12298000000003
 10
168.59039999999996
 20
-24.32263000000003
 10
168.61399999999998
 20
-24.41487000000003
 10
168.62155000000001
 20
-24.44579000000004
 10
168.62779999999998
 20
-24.41432500000003
 10
168.64845000000000
 20
-24.32019500000003
 10
168.69565000000003
 20
-24.12189500000003
 10
168.78545000000000
 20
-23.76653500000003
 10
168.90129999999996
 20
-23.31865000000003
 10
168.94005000000001
 20
-23.16950000000003
 10
169.07025000000002
 20
-23.16950000000003
 10
168.68695000000000
 20
-24.60937000000003
 10
168.55864999999997
 20
-24.60937000000003
  0
LWPOLYLINE
  5
248
330
31
100
AcDbEntity
  8
Planrahmen
  6
CONTINUOUS
 62
     7
370
     0
100
AcDbPolyline
 90
        5
 70
   129
 10
169.29515000000001
 20
-23.16950000000003
 10
169.42370000000000
 20
-23.16950000000003
 10
169.42370000000000
 20
-24.60937000000003
 10
169.29515000000001
 20
-24.60937000000003
 10
169.29515000000001
 20
-23.16950000000003
  0
LWPOLYLINE
  5
249
330
31
100
AcDbEntity
  8
Planrahmen
  6
CONTINUOUS
 62
     7
370
     0
100
AcDbPolyline
 90
       20
 70
   129
 10
170.27385000000001
 20
-23.86066500000003
 10
170.32350000000002
 20
-23.86066500000003
 10
170.47299999999998
 20
-23.84086000000003
 10
170.58990000000000
 20
-23.79149500000003
 10
170.60615000000001
 20
-23.77684500000003
 10
170.62029999999999
 20
-23.76409500000003
 10
170.66970000000003
 20
-23.68651500000003
 10
170.69024999999999
 20
-23.59374500000003
 10
170.69024999999999
 20
-23.56308500000003
 10
170.69024999999999
 20
-23.53053500000003
 10
170.66370000000003
 20
-23.43370000000003
 10
170.60045000000002
 20
-23.35070000000003
 10
170.58230000000000
 20
-23.33850000000003
 10
170.56470000000002
 20
-23.32625000000003
 10
170.45399999999998
 20
-23.29370000000003
 10
170.31889999999999
 20
-23.28560000000003
 10
170.27385000000001
 20
-23.28560000000003
 10
169.93970000000002
 20
-23.28560000000003
 10
169.93970000000002
 20
-23.86066500000003
 10
170.27385000000001
 20
-23.86066500000003
  0
LWPOLYLINE
  5
24A
330
31
100
AcDbEntity
  8
Planrahmen
  6
CONTINUOUS
 62
     7
370
     0
100
AcDbPolyline
 90
       23
 70
   129
 10
170.71469999999999
 20
-24.60937000000003
 10
170.28420000000000
 20
-23.97704000000003
 10
169.93970000000002
 20
-23.97704000000003
 10
169.93970000000002
 20
-24.60937000000003
 10
169.81105000000002
 20
-24.60937000000003
 10
169.81105000000002
 20
-23.16950000000003
 10
170.25380000000001
 20
-23.16950000000003
 10
170.30425000000000
 20
-23.16950000000003
 10
170.45585000000003
 20
-23.17655000000003
 10
170.59774999999999
 20
-23.20530000000003
 10
170.62300000000002
 20
-23.21615000000003
 10
170.65174999999999
 20
-23.22835000000003
 10
170.76814999999999
 20
-23.34500000000003
 10
170.82639999999998
 20
-23.51128000000003
 10
170.82639999999998
 20
-23.56688000000003
 10
170.82639999999998
 20
-23.60486000000003
 10
170.79990000000001
 20
-23.71933500000003
 10
170.72195000000002
 20
-23.83815500000003
 10
170.59424999999999
 20
-23.92034500000003
 10
170.46320000000003
 20
-23.95778000000003
 10
170.41899999999998
 20
-23.96266500000003
 10
170.87365000000000
 20
-24.60937000000003
 10
170.71469999999999
 20
-24.60937000000003
  0
LWPOLYLINE
  5
24B
330
31
100
AcDbEntity
  8
Planrahmen
  6
CONTINUOUS
 62
     7
370
     0
100
AcDbPolyline
 90
       20
 70
   129
 10
171.71865000000003
 20
-24.49299500000003
 10
172.10194999999999
 20
-24.49299500000003
 10
172.14834999999999
 20
-24.49299500000003
 10
172.28775000000002
 20
-24.47400000000003
 10
172.39870000000002
 20
-24.42870000000003
 10
172.41420000000002
 20
-24.41568000000004
 10
172.42720000000000
 20
-24.40374500000003
 10
172.47274999999999
 20
-24.32887500000004
 10
172.49175000000000
 20
-24.23773000000004
 10
172.49175000000000
 20
-24.20762000000003
 10
172.49175000000000
 20
-24.17506000000003
 10
172.46844999999999
 20
-24.07768000000003
 10
172.41470000000004
 20
-23.99196000000003
 10
172.39955000000000
 20
-23.97866500000003
 10
172.38350000000003
 20
-23.96537500000003
 10
172.27904999999998
 20
-23.91926500000003
 10
172.14315000000002
 20
-23.89946000000003
 10
172.09790000000001
 20
-23.89946000000003
 10
171.71865000000003
 20
-23.89946000000003
 10
171.71865000000003
 20
-24.49299500000003
  0
LWPOLYLINE
  5
24C
330
31
100
AcDbEntity
  8
Planrahmen
  6
CONTINUOUS
 62
     7
370
     0
100
AcDbPolyline
 90
       20
 70
   129
 10
171.71865000000003
 20
-23.78525500000003
 10
172.08349999999999
 20
-23.78525500000003
 10
172.12254999999999
 20
-23.78525500000003
 10
172.24030000000002
 20
-23.77223500000003
 10
172.33195000000001
 20
-23.73995000000003
 10
172.34635000000003
 20
-23.73046000000003
 10
172.36260000000001
 20
-23.71961000000003
 10
172.41905000000003
 20
-23.64637000000003
 10
172.44265000000001
 20
-23.55468000000003
 10
172.44265000000001
 20
-23.52430000000003
 10
172.44265000000001
 20
-23.49662500000003
 10
172.42390000000000
 20
-23.41390000000004
 10
172.37184999999999
 20
-23.34415000000003
 10
172.35505000000001
 20
-23.33415000000003
 10
172.34175000000002
 20
-23.32600000000003
 10
172.24955000000003
 20
-23.29780000000003
 10
172.12799999999999
 20
-23.28560000000003
 10
172.08760000000001
 20
-23.28560000000003
 10
171.71865000000003
 20
-23.28560000000003
 10
171.71865000000003
 20
-23.78525500000003
  0
LWPOLYLINE
  5
24D
330
31
100
AcDbEntity
  8
Planrahmen
  6
CONTINUOUS
 62
     7
370
     0
100
AcDbPolyline
 90
       30
 70
   129
 10
172.12039999999999
 20
-23.16950000000003
 10
172.16435000000001
 20
-23.16950000000003
 10
172.29695000000001
 20
-23.18225000000004
 10
172.41040000000001
 20
-23.21480000000003
 10
172.42830000000004
 20
-23.22455000000003
 10
172.45435000000003
 20
-23.23865000000004
 10
172.53975000000000
 20
-23.33985000000003
 10
172.57315000000000
 20
-23.46896000000003
 10
172.57315000000000
 20
-23.51209000000003
 10
172.57315000000000
 20
-23.56308500000003
 10
172.51240000000001
 20
-23.71689500000003
 10
172.36810000000003
 20
-23.82432000000003
 10
172.32629999999997
 20
-23.83625000000003
 10
172.35960000000000
 20
-23.84168000000003
 10
172.45650000000001
 20
-23.87938000000003
 10
172.55035000000001
 20
-23.95778000000003
 10
172.60705000000004
 20
-24.06710500000003
 10
172.62630000000001
 20
-24.16964000000003
 10
172.62630000000001
 20
-24.20382000000004
 10
172.62630000000001
 20
-24.24641000000003
 10
172.59865000000002
 20
-24.37499500000003
 10
172.53004999999999
 20
-24.48404000000003
 10
172.50970000000004
 20
-24.50086000000004
 10
172.48820000000003
 20
-24.51822000000004
 10
172.33765000000000
 20
-24.58088000000003
 10
172.11795000000001
 20
-24.60909000000003
 10
172.04469999999998
 20
-24.60909000000003
 10
171.59004999999999
 20
-24.60909000000003
 10
171.59004999999999
 20
-23.16950000000003
 10
172.12039999999999
 20
-23.16950000000003
  0
LWPOLYLINE
  5
24E
330
31
100
AcDbEntity
  8
Planrahmen
  6
CONTINUOUS
 62
     7
370
     0
100
AcDbPolyline
 90
       20
 70
   129
 10
173.39510000000001
 20
-23.86066500000003
 10
173.44470000000001
 20
-23.86066500000003
 10
173.59420000000003
 20
-23.84086000000003
 10
173.71105000000003
 20
-23.79149500000003
 10
173.72740000000002
 20
-23.77684500000003
 10
173.74150000000000
 20
-23.76409500000003
 10
173.79085000000001
 20
-23.68651500000003
 10
173.81150000000000
 20
-23.59374500000003
 10
173.81150000000000
 20
-23.56308500000003
 10
173.81150000000000
 20
-23.53053500000003
 10
173.78490000000002
 20
-23.43370000000003
 10
173.72170000000003
 20
-23.35070000000003
 10
173.70350000000002
 20
-23.33850000000003
 10
173.68585000000002
 20
-23.32625000000003
 10
173.57515000000001
 20
-23.29370000000003
 10
173.44009999999997
 20
-23.28560000000003
 10
173.39510000000001
 20
-23.28560000000003
 10
173.06084999999999
 20
-23.28560000000003
 10
173.06084999999999
 20
-23.86066500000003
 10
173.39510000000001
 20
-23.86066500000003
  0
LWPOLYLINE
  5
24F
330
31
100
AcDbEntity
  8
Planrahmen
  6
CONTINUOUS
 62
     7
370
     0
100
AcDbPolyline
 90
       23
 70
   129
 10
173.83585000000002
 20
-24.60937000000003
 10
173.40539999999999
 20
-23.97704000000003
 10
173.06084999999999
 20
-23.97704000000003
 10
173.06084999999999
 20
-24.60937000000003
 10
172.93229999999997
 20
-24.60937000000003
 10
172.93229999999997
 20
-23.16950000000003
 10
173.37505000000002
 20
-23.16950000000003
 10
173.42545000000004
 20
-23.16950000000003
 10
173.57709999999997
 20
-23.17655000000003
 10
173.71900000000002
 20
-23.20530000000003
 10
173.74420000000001
 20
-23.21615000000003
 10
173.77320000000000
 20
-23.22835000000003
 10
173.88960000000003
 20
-23.34500000000003
 10
173.94795000000002
 20
-23.51128000000003
 10
173.94795000000002
 20
-23.56688000000003
 10
173.94795000000002
 20
-23.60486000000003
 10
173.92135000000002
 20
-23.71933500000003
 10
173.84349999999998
 20
-23.83815500000003
 10
173.71570000000003
 20
-23.92034500000003
 10
173.58470000000003
 20
-23.95778000000003
 10
173.54045000000002
 20
-23.96266500000003
 10
173.99510000000001
 20
-24.60937000000003
 10
173.83585000000002
 20
-24.60937000000003
  0
LWPOLYLINE
  5
250
330
31
100
AcDbEntity
  8
Planrahmen
  6
CONTINUOUS
 62
     7
370
     0
100
AcDbPolyline
 90
       13
 70
   129
 10
174.26639999999998
 20
-24.60937000000003
 10
174.26639999999998
 20
-23.16950000000003
 10
175.18244999999999
 20
-23.16950000000003
 10
175.18244999999999
 20
-23.28750000000003
 10
174.39710000000002
 20
-23.28750000000003
 10
174.39710000000002
 20
-23.80804000000003
 10
175.11114999999998
 20
-23.80804000000003
 10
175.11114999999998
 20
-23.92604000000003
 10
174.39710000000002
 20
-23.92604000000003
 10
174.39710000000002
 20
-24.49136000000003
 10
175.23130000000003
 20
-24.49136000000003
 10
175.23130000000003
 20
-24.60937000000003
 10
174.26639999999998
 20
-24.60937000000003
  0
LWPOLYLINE
  5
251
330
31
100
AcDbEntity
  8
Planrahmen
  6
CONTINUOUS
 62
     7
370
     0
100
AcDbPolyline
 90
       31
 70
   129
 10
176.47530000000000
 20
-24.60937000000003
 10
176.37954999999994
 20
-24.46505000000003
 10
176.09280000000004
 20
-24.03211000000003
 10
175.86034999999998
 20
-23.68055000000003
 10
175.72745000000000
 20
-23.47600500000003
 10
175.66369999999998
 20
-23.37485000000003
 10
175.64334999999997
 20
-23.34090000000003
 10
175.64364999999992
 20
-23.36860000000003
 10
175.64469999999997
 20
-23.45215000000003
 10
175.64605000000000
 20
-23.65071000000003
 10
175.64685000000003
 20
-24.01122000000003
 10
175.64740000000000
 20
-24.45962500000004
 10
175.64740000000000
 20
-24.60937000000003
 10
175.52290000000002
 20
-24.60937000000003
 10
175.52290000000002
 20
-23.16950000000003
 10
175.67184999999995
 20
-23.16950000000003
 10
175.77030000000005
 20
-23.31865000000003
 10
176.06599999999995
 20
-23.76735500000003
 10
176.30010000000007
 20
-24.12353000000003
 10
176.42674999999997
 20
-24.31911000000003
 10
176.48209999999997
 20
-24.40646000000003
 10
176.50025000000002
 20
-24.43575500000003
 10
176.49919999999997
 20
-24.40157500000004
 10
176.49729999999997
 20
-24.29903500000003
 10
176.49510000000001
 20
-24.08636000000003
 10
176.49404999999996
 20
-23.73181000000004
 10
176.49380000000002
 20
-23.31000000000003
 10
176.49380000000002
 20
-23.16950000000003
 10
176.62045000000003
 20
-23.16950000000003
 10
176.62045000000003
 20
-24.60937000000003
 10
176.47530000000000
 20
-24.60937000000003
  0
LWPOLYLINE
  5
252
330
31
100
AcDbEntity
  8
Planrahmen
  6
CONTINUOUS
 62
     7
370
     0
100
AcDbPolyline
 90
       31
 70
   129
 10
177.96050000000008
 20
-24.60937000000003
 10
177.86475000000002
 20
-24.46505000000003
 10
177.57800000000000
 20
-24.03211000000003
 10
177.34524999999999
 20
-23.68055000000003
 10
177.21230000000000
 20
-23.47600500000003
 10
177.14854999999994
 20
-23.37485000000003
 10
177.12819999999996
 20
-23.34090000000003
 10
177.12850000000003
 20
-23.36860000000003
 10
177.12959999999998
 20
-23.45215000000003
 10
177.13100000000003
 20
-23.65071000000003
 10
177.13175000000004
 20
-24.01122000000003
 10
177.13230000000001
 20
-24.45962500000004
 10
177.13230000000001
 20
-24.60937000000003
 10
177.00809999999998
 20
-24.60937000000003
 10
177.00809999999998
 20
-23.16950000000003
 10
177.15705000000003
 20
-23.16950000000003
 10
177.25544999999997
 20
-23.31865000000003
 10
177.55114999999998
 20
-23.76735500000003
 10
177.78495000000004
 20
-24.12353000000003
 10
177.91195000000005
 20
-24.31911000000003
 10
177.96705000000000
 20
-24.40646000000003
 10
177.98515000000003
 20
-24.43575500000003
 10
177.98410000000010
 20
-24.40157500000004
 10
177.98220000000009
 20
-24.29903500000003
 10
177.98030000000008
 20
-24.08636000000003
 10
177.97919999999999
 20
-23.73181000000004
 10
177.97889999999992
 20
-23.31000000000003
 10
177.97889999999992
 20
-23.16950000000003
 10
178.10534999999993
 20
-23.16950000000003
 10
178.10534999999993
 20
-24.60937000000003
 10
177.96050000000008
 20
-24.60937000000003
  0
LWPOLYLINE
  5
253
330
31
100
AcDbEntity
  8
Planrahmen
  6
CONTINUOUS
 62
     7
370
     0
100
AcDbPolyline
 90
       13
 70
   129
 10
178.49355000000000
 20
-24.60937000000003
 10
178.49355000000000
 20
-23.16950000000003
 10
179.40935000000002
 20
-23.16950000000003
 10
179.40935000000002
 20
-23.28750000000003
 10
178.62405000000004
 20
-23.28750000000003
 10
178.62405000000004
 20
-23.80804000000003
 10
179.33775000000006
 20
-23.80804000000003
 10
179.33775000000006
 20
-23.92604000000003
 10
178.62405000000004
 20
-23.92604000000003
 10
178.62405000000004
 20
-24.49136000000003
 10
179.45814999999999
 20
-24.49136000000003
 10
179.45814999999999
 20
-24.60937000000003
 10
178.49355000000000
 20
-24.60937000000003
  0
LWPOLYLINE
  5
254
330
31
100
AcDbEntity
  8
Planrahmen
  6
CONTINUOUS
 62
     7
370
     0
100
AcDbPolyline
 90
       31
 70
   129
 10
180.70275000000001
 20
-24.60937000000003
 10
180.60694999999993
 20
-24.46505000000003
 10
180.32024999999996
 20
-24.03211000000003
 10
180.08754999999999
 20
-23.68055000000003
 10
179.95459999999997
 20
-23.47600500000003
 10
179.89085000000003
 20
-23.37485000000003
 10
179.87050000000005
 20
-23.34090000000003
 10
179.87080000000000
 20
-23.36860000000003
 10
179.87184999999994
 20
-23.45215000000003
 10
179.87319999999994
 20
-23.65071000000003
 10
179.87405000000001
 20
-24.01122000000003
 10
179.87454999999997
 20
-24.45962500000004
 10
179.87454999999997
 20
-24.60937000000003
 10
179.75030000000004
 20
-24.60937000000003
 10
179.75030000000004
 20
-23.16950000000003
 10
179.89924999999994
 20
-23.16950000000003
 10
179.99774999999994
 20
-23.31865000000003
 10
180.29345000000006
 20
-23.76735500000003
 10
180.52725000000004
 20
-24.12353000000003
 10
180.65390000000002
 20
-24.31911000000003
 10
180.70900000000000
 20
-24.40646000000003
 10
180.72720000000010
 20
-24.43575500000003
 10
180.72604999999996
 20
-24.40157500000004
 10
180.72420000000000
 20
-24.29903500000003
 10
180.72224999999997
 20
-24.08636000000003
 10
180.72120000000001
 20
-23.73181000000004
 10
180.72095000000010
 20
-23.31000000000003
 10
180.72095000000010
 20
-23.16950000000003
 10
180.84760000000000
 20
-23.16950000000003
 10
180.84760000000000
 20
-24.60937000000003
 10
180.70275000000001
 20
-24.60937000000003
  0
LWPOLYLINE
  5
255
330
31
100
AcDbEntity
  8
Planrahmen
  6
CONTINUOUS
 62
     7
370
     0
100
AcDbPolyline
 90
       11
 70
   129
 10
181.68010000000001
 20
-24.60937000000003
 10
181.68010000000001
 20
-23.16950000000003
 10
182.59594999999996
 20
-23.16950000000003
 10
182.59594999999996
 20
-23.28750000000003
 10
181.81060000000005
 20
-23.28750000000003
 10
181.81060000000005
 20
-23.78715500000003
 10
182.51614999999998
 20
-23.78715500000003
 10
182.51614999999998
 20
-23.90759500000003
 10
181.81060000000005
 20
-23.90759500000003
 10
181.81060000000005
 20
-24.60937000000003
 10
181.68010000000001
 20
-24.60937000000003
  0
LWPOLYLINE
  5
256
330
31
100
AcDbEntity
  8
Planrahmen
  6
CONTINUOUS
 62
     7
370
     0
100
AcDbPolyline
 90
        5
 70
   129
 10
183.59935000000004
 20
-22.86975000000003
 10
183.71760000000003
 20
-22.86975000000003
 10
183.71760000000003
 20
-23.03735000000003
 10
183.59935000000004
 20
-23.03735000000003
 10
183.59935000000004
 20
-22.86975000000003
  0
LWPOLYLINE
  5
257
330
31
100
AcDbEntity
  8
Planrahmen
  6
CONTINUOUS
 62
     7
370
     0
100
AcDbPolyline
 90
        5
 70
   129
 10
183.11759999999998
 20
-22.86975000000003
 10
183.23800000000000
 20
-22.86975000000003
 10
183.23800000000000
 20
-23.03735000000003
 10
183.11759999999998
 20
-23.03735000000003
 10
183.11759999999998
 20
-22.86975000000003
  0
LWPOLYLINE
  5
258
330
31
100
AcDbEntity
  8
Planrahmen
  6
CONTINUOUS
 62
     7
370
     0
100
AcDbPolyline
 90
       39
 70
   129
 10
183.94224999999997
 20
-23.97107000000003
 10
183.94224999999997
 20
-24.04350000000003
 10
183.92434999999995
 20
-24.26159500000003
 10
183.87169999999998
 20
-24.41812000000004
 10
183.85434999999995
 20
-24.44443500000003
 10
183.83289999999997
 20
-24.47590500000003
 10
183.67720000000008
 20
-24.58739000000004
 10
183.47650000000004
 20
-24.63595000000003
 10
183.40975000000003
 20
-24.63595000000003
 10
183.34379999999993
 20
-24.63595000000003
 10
183.14660000000003
 20
-24.58441000000003
 10
182.99195000000000
 20
-24.46939000000004
 10
182.97134999999997
 20
-24.43765500000003
 10
182.95240000000001
 20
-24.40916500000003
 10
182.90105000000000
 20
-24.24342500000003
 10
182.88755000000000
 20
-24.04323000000003
 10
182.88755000000000
 20
-23.97677000000003
 10
182.88755000000000
 20
-23.16950000000003
 10
183.01615000000004
 20
-23.16950000000003
 10
183.01615000000004
 20
-24.05462500000003
 10
183.01615000000004
 20
-24.09693500000003
 10
183.03049999999999
 20
-24.22389500000004
 10
183.07065000000000
 20
-24.34379000000003
 10
183.08335000000008
 20
-24.36495000000003
 10
183.09855000000007
 20
-24.38991000000004
 10
183.21550000000008
 20
-24.47970000000003
 10
183.36439999999999
 20
-24.51957500000003
 10
183.41405000000000
 20
-24.51957500000003
 10
183.46230000000008
 20
-24.51957500000003
 10
183.60775000000007
 20
-24.48594000000003
 10
183.72740000000010
 20
-24.40075500000003
 10
183.74634999999995
 20
-24.37499500000003
 10
183.76099999999994
 20
-24.35464500000004
 10
183.80224999999993
 20
-24.22932000000003
 10
183.81389999999996
 20
-24.09341500000003
 10
183.81389999999996
 20
-24.04838000000003
 10
183.81389999999996
 20
-23.16950000000003
 10
183.94224999999997
 20
-23.16950000000003
 10
183.94224999999997
 20
-23.97107000000003
  0
LWPOLYLINE
  5
259
330
31
100
AcDbEntity
  8
Planrahmen
  6
CONTINUOUS
 62
     7
370
     0
100
AcDbPolyline
 90
       20
 70
   129
 10
184.79315000000008
 20
-23.86066500000003
 10
184.84280000000007
 20
-23.86066500000003
 10
184.99175000000011
 20
-23.84086000000003
 10
185.10890000000001
 20
-23.79149500000003
 10
185.12549999999993
 20
-23.77684500000003
 10
185.13959999999994
 20
-23.76409500000003
 10
185.18844999999993
 20
-23.68651500000003
 10
185.20935000000006
 20
-23.59374500000003
 10
185.20935000000006
 20
-23.56308500000003
 10
185.20935000000006
 20
-23.53053500000003
 10
185.18274999999994
 20
-23.43370000000003
 10
185.11924999999997
 20
-23.35070000000003
 10
185.10079999999996
 20
-23.33850000000003
 10
185.08345000000003
 20
-23.32625000000003
 10
184.97275000000002
 20
-23.29370000000003
 10
184.83795000000003
 20
-23.28560000000003
 10
184.79315000000008
 20
-23.28560000000003
 10
184.45815000000010
 20
-23.28560000000003
 10
184.45815000000010
 20
-23.86066500000003
 10
184.79315000000008
 20
-23.86066500000003
  0
LWPOLYLINE
  5
25A
330
31
100
AcDbEntity
  8
Planrahmen
  6
CONTINUOUS
 62
     7
370
     0
100
AcDbPolyline
 90
       23
 70
   129
 10
185.23315000000005
 20
-24.60937000000003
 10
184.80295000000001
 20
-23.97704000000003
 10
184.45815000000010
 20
-23.97704000000003
 10
184.45815000000010
 20
-24.60937000000003
 10
184.33010000000004
 20
-24.60937000000003
 10
184.33010000000004
 20
-23.16950000000003
 10
184.77280000000007
 20
-23.16950000000003
 10
184.82330000000002
 20
-23.16950000000003
 10
184.97470000000004
 20
-23.17655000000003
 10
185.11655000000005
 20
-23.20530000000003
 10
185.14175000000000
 20
-23.21615000000003
 10
185.17079999999996
 20
-23.22835000000003
 10
185.28719999999998
 20
-23.34500000000003
 10
185.34569999999994
 20
-23.51128000000003
 10
185.34569999999994
 20
-23.56688000000003
 10
185.34569999999994
 20
-23.60486000000003
 10
185.31920000000002
 20
-23.71933500000003
 10
185.24105000000000
 20
-23.83815500000003
 10
185.11299999999997
 20
-23.92034500000003
 10
184.98194999999996
 20
-23.95778000000003
 10
184.93774999999999
 20
-23.96266500000003
 10
185.39240000000001
 20
-24.60937000000003
 10
185.23315000000005
 20
-24.60937000000003
  0
LWPOLYLINE
  5
25B
330
31
100
AcDbEntity
  8
Planrahmen
  6
CONTINUOUS
 62
     7
370
     0
100
AcDbPolyline
 90
       25
 70
   129
 10
186.66140000000007
 20
-23.25900000000003
 10
186.61120000000008
 20
-23.25900000000003
 10
186.46119999999999
 20
-23.30160000000003
 10
186.30979999999997
 20
-23.42390000000003
 10
186.21380000000011
 20
-23.61598500000003
 10
186.18045000000004
 20
-23.80559500000003
 10
186.18045000000004
 20
-23.86880500000003
 10
186.18045000000004
 20
-23.93607500000003
 10
186.21460000000010
 20
-24.13871500000003
 10
186.31279999999995
 20
-24.34298000000003
 10
186.46744999999999
 20
-24.47237500000003
 10
186.62045000000003
 20
-24.51767500000003
 10
186.67140000000003
 20
-24.51767500000003
 10
186.71920000000009
 20
-24.51767500000003
 10
186.86265000000000
 20
-24.47482000000004
 10
187.00864999999999
 20
-24.35220000000003
 10
187.10195000000007
 20
-24.15689000000004
 10
187.13475000000003
 20
-23.96212000000003
 10
187.13475000000003
 20
-23.89728500000003
 10
187.13475000000003
 20
-23.82974500000004
 10
187.10170000000002
 20
-23.62791500000003
 10
187.00755000000001
 20
-23.42745000000003
 10
186.85834999999994
 20
-23.30210000000004
 10
186.71050000000011
 20
-23.25900000000003
 10
186.66140000000007
 20
-23.25900000000003
  0
LWPOLYLINE
  5
25C
330
31
100
AcDbEntity
  8
Planrahmen
  6
CONTINUOUS
 62
     7
370
     0
100
AcDbPolyline
 90
       30
 70
   129
 10
187.38164999999995
 20
-24.70512500000003
 10
187.29614999999998
 20
-24.79084000000004
 10
186.99400000000000
 20
-24.54019500000004
 10
186.97280000000003
 20
-24.55538000000003
 10
186.84774999999996
 20
-24.61072000000003
 10
186.71105000000009
 20
-24.63568000000003
 10
186.66570000000004
 20
-24.63568000000003
 10
186.59925000000010
 20
-24.63568000000003
 10
186.40045000000003
 20
-24.57980000000003
 10
186.20510000000002
 20
-24.42355000000003
 10
186.08470000000000
 20
-24.18320000000004
 10
186.04345000000001
 20
-23.95208500000003
 10
186.04345000000001
 20
-23.87531000000003
 10
186.04345000000001
 20
-23.79909000000003
 10
186.08634999999995
 20
-23.57122000000003
 10
186.20975000000007
 20
-23.34065000000003
 10
186.40559999999994
 20
-23.19415000000003
 10
186.60065000000003
 20
-23.14290000000003
 10
186.66570000000004
 20
-23.14290000000003
 10
186.73355000000001
 20
-23.14290000000003
 10
186.93780000000004
 20
-23.20310000000003
 10
187.12690000000009
 20
-23.36670000000003
 10
187.23730000000003
 20
-23.60730500000003
 10
187.27334999999999
 20
-23.82621500000003
 10
187.27334999999999
 20
-23.89919000000004
 10
187.27334999999999
 20
-23.97812500000003
 10
187.22650000000007
 20
-24.21521500000003
 10
187.11470000000008
 20
-24.42463000000003
 10
187.08210000000003
 20
-24.46043500000003
 10
187.38164999999995
 20
-24.70512500000003
  0
LWPOLYLINE
  5
25D
330
31
100
AcDbEntity
  8
Planrahmen
  6
CONTINUOUS
 62
     7
370
     0
100
AcDbPolyline
 90
       39
 70
   129
 10
188.65684999999999
 20
-23.97080000000004
 10
188.65684999999999
 20
-24.04350000000003
 10
188.63890000000006
 20
-24.26159500000003
 10
188.58635000000001
 20
-24.41812000000004
 10
188.56920000000000
 20
-24.44416000000003
 10
188.54780000000005
 20
-24.47563000000003
 10
188.39210000000006
 20
-24.58739000000004
 10
188.19134999999997
 20
-24.63595000000003
 10
188.12459999999996
 20
-24.63595000000003
 10
188.05870000000002
 20
-24.63595000000003
 10
187.86150000000001
 20
-24.58414000000003
 10
187.70659999999995
 20
-24.46939000000004
 10
187.68600000000001
 20
-24.43792500000003
 10
187.66694999999999
 20
-24.40916500000003
 10
187.61570000000006
 20
-24.24342500000003
 10
187.60245000000009
 20
-24.04377000000003
 10
187.60245000000009
 20
-23.97731500000003
 10
187.60245000000009
 20
-23.16920000000004
 10
187.73044999999999
 20
-23.16920000000004
 10
187.73044999999999
 20
-24.05489500000003
 10
187.73044999999999
 20
-24.09721500000003
 10
187.74510000000001
 20
-24.22416500000004
 10
187.78550000000004
 20
-24.34379000000003
 10
187.79829999999998
 20
-24.36495000000003
 10
187.81349999999998
 20
-24.38964000000003
 10
187.93010000000010
 20
-24.47943000000003
 10
188.07905000000002
 20
-24.51957500000003
 10
188.12870000000004
 20
-24.51957500000003
 10
188.17695000000001
 20
-24.51957500000003
 10
188.32210000000003
 20
-24.48594000000003
 10
188.44225000000003
 20
-24.40048500000004
 10
188.46130000000005
 20
-24.37471500000003
 10
188.47595000000007
 20
-24.35437500000003
 10
188.51690000000011
 20
-24.22905000000003
 10
188.52855000000002
 20
-24.09314500000003
 10
188.52855000000002
 20
-24.04811000000003
 10
188.52855000000002
 20
-23.16920000000004
 10
188.65684999999999
 20
-23.16920000000004
 10
188.65684999999999
 20
-23.97080000000004
  0
LWPOLYLINE
  5
25E
330
31
100
AcDbEntity
  8
Planrahmen
  6
CONTINUOUS
 62
     7
370
     0
100
AcDbPolyline
 90
       14
 70
   129
 10
189.78670000000008
 20
-24.07687000000004
 10
189.75710000000001
 20
-23.99739000000003
 10
189.66890000000004
 20
-23.75948500000003
 10
189.59160000000008
 20
-23.55088000000003
 10
189.54140000000007
 20
-23.41335000000003
 10
189.51379999999995
 20
-23.33550000000003
 10
189.50509999999997
 20
-23.30970000000003
 10
189.49614999999997
 20
-23.33550000000003
 10
189.46850000000003
 20
-23.41255000000003
 10
189.41744999999997
 20
-23.55115500000003
 10
189.33880000000002
 20
-23.76084000000003
 10
189.24925000000002
 20
-23.99793000000004
 10
189.21945000000005
 20
-24.07687000000004
 10
189.78670000000008
 20
-24.07687000000004
  0
LWPOLYLINE
  5
25F
330
31
100
AcDbEntity
  8
Planrahmen
  6
CONTINUOUS
 62
     7
370
     0
100
AcDbPolyline
 90
        9
 70
   129
 10
189.97870000000006
 20
-24.60909000000003
 10
189.82765000000001
 20
-24.18917500000003
 10
189.17685000000006
 20
-24.18917500000003
 10
189.02410000000003
 20
-24.60909000000003
 10
188.88095000000004
 20
-24.60909000000003
 10
189.44220000000010
 20
-23.16950000000003
 10
189.57670000000005
 20
-23.16950000000003
 10
190.12140000000011
 20
-24.60909000000003
 10
189.97870000000006
 20
-24.60909000000003
  0
LWPOLYLINE
  5
260
330
31
100
AcDbEntity
  8
Planrahmen
  6
CONTINUOUS
 62
     7
370
     0
100
AcDbPolyline
 90
        7
 70
   129
 10
190.34600000000000
 20
-24.60937000000003
 10
190.34600000000000
 20
-23.16950000000003
 10
190.47405000000006
 20
-23.16950000000003
 10
190.47405000000006
 20
-24.49136000000003
 10
191.24119999999999
 20
-24.49136000000003
 10
191.24119999999999
 20
-24.60937000000003
 10
190.34600000000000
 20
-24.60937000000003
  0
LWPOLYLINE
  5
261
330
31
100
AcDbEntity
  8
Planrahmen
  6
CONTINUOUS
 62
     7
370
     0
100
AcDbPolyline
 90
        5
 70
   129
 10
191.52280000000010
 20
-23.16950000000003
 10
191.65105000000005
 20
-23.16950000000003
 10
191.65105000000005
 20
-24.60937000000003
 10
191.52280000000010
 20
-24.60937000000003
 10
191.52280000000010
 20
-23.16950000000003
  0
LWPOLYLINE
  5
262
330
31
100
AcDbEntity
  8
Planrahmen
  6
CONTINUOUS
 62
     7
370
     0
100
AcDbPolyline
 90
        9
 70
   129
 10
192.36940000000001
 20
-24.60937000000003
 10
192.36940000000001
 20
-23.28750000000003
 10
191.92915000000011
 20
-23.28750000000003
 10
191.92915000000011
 20
-23.16950000000003
 10
192.94475000000000
 20
-23.16950000000003
 10
192.94475000000000
 20
-23.28750000000003
 10
192.50204999999997
 20
-23.28750000000003
 10
192.50204999999997
 20
-24.60937000000003
 10
192.36940000000001
 20
-24.60937000000003
  0
LWPOLYLINE
  5
263
330
31
100
AcDbEntity
  8
Planrahmen
  6
CONTINUOUS
 62
     7
370
     0
100
AcDbPolyline
 90
        5
 70
   129
 10
193.86630000000005
 20
-22.86975000000003
 10
193.98425000000009
 20
-22.86975000000003
 10
193.98425000000009
 20
-23.03735000000003
 10
193.86630000000005
 20
-23.03735000000003
 10
193.86630000000005
 20
-22.86975000000003
  0
LWPOLYLINE
  5
264
330
31
100
AcDbEntity
  8
Planrahmen
  6
CONTINUOUS
 62
     7
370
     0
100
AcDbPolyline
 90
       14
 70
   129
 10
193.96635000000006
 20
-24.07714000000003
 10
193.93705000000006
 20
-23.99766000000003
 10
193.84864999999996
 20
-23.75948500000003
 10
193.77135000000001
 20
-23.55088000000003
 10
193.72115000000011
 20
-23.41360000000003
 10
193.69350000000006
 20
-23.33575000000003
 10
193.68480000000011
 20
-23.31000000000003
 10
193.67585000000008
 20
-23.33575000000003
 10
193.64815000000002
 20
-23.41280000000003
 10
193.59720000000002
 20
-23.55142500000003
 10
193.51850000000005
 20
-23.76111000000003
 10
193.42899999999995
 20
-23.99820000000003
 10
193.39910000000003
 20
-24.07714000000003
 10
193.96635000000006
 20
-24.07714000000003
  0
LWPOLYLINE
  5
265
330
31
100
AcDbEntity
  8
Planrahmen
  6
CONTINUOUS
 62
     7
370
     0
100
AcDbPolyline
 90
        5
 70
   129
 10
193.38505000000006
 20
-22.86975000000003
 10
193.50545000000008
 20
-22.86975000000003
 10
193.50545000000008
 20
-23.03735000000003
 10
193.38505000000006
 20
-23.03735000000003
 10
193.38505000000006
 20
-22.86975000000003
  0
LWPOLYLINE
  5
266
330
31
100
AcDbEntity
  8
Planrahmen
  6
CONTINUOUS
 62
     7
370
     0
100
AcDbPolyline
 90
        9
 70
   129
 10
194.15870000000012
 20
-24.60909000000003
 10
194.00730000000010
 20
-24.18917500000003
 10
193.35654999999997
 20
-24.18917500000003
 10
193.20385000000007
 20
-24.60909000000003
 10
193.06060000000002
 20
-24.60909000000003
 10
193.62185000000008
 20
-23.16950000000003
 10
193.75640000000004
 20
-23.16950000000003
 10
194.30084999999997
 20
-24.60909000000003
 10
194.15870000000012
 20
-24.60909000000003
  0
LWPOLYLINE
  5
267
330
31
100
AcDbEntity
  8
Planrahmen
  6
CONTINUOUS
 62
     7
370
     0
100
AcDbPolyline
 90
        9
 70
   129
 10
194.85585000000006
 20
-24.60937000000003
 10
194.85585000000006
 20
-23.28750000000003
 10
194.41585000000006
 20
-23.28750000000003
 10
194.41585000000006
 20
-23.16950000000003
 10
195.43150000000009
 20
-23.16950000000003
 10
195.43150000000009
 20
-23.28750000000003
 10
194.98880000000008
 20
-23.28750000000003
 10
194.98880000000008
 20
-24.60937000000003
 10
194.85585000000006
 20
-24.60937000000003
  0
LWPOLYLINE
  5
268
330
31
100
AcDbEntity
  8
Planrahmen
  6
CONTINUOUS
 62
    20
370
     0
100
AcDbPolyline
 90
       21
 70
   129
 10
149.30544499999999
 20
-10.00000000000002
 10
149.30544499999999
 20
-16.01565000000002
 10
152.74294999999998
 20
-16.01565000000002
 10
152.74294999999998
 20
-13.43725000000002
 10
156.18044999999998
 20
-13.43725000000002
 10
156.18044999999998
 20
-21.17215000000003
 10
152.74294999999998
 20
-21.17215000000003
 10
152.74294999999998
 20
-18.59405000000003
 10
149.30544499999999
 20
-18.59405000000003
 10
149.30544499999999
 20
-24.60937000000003
 10
163.91479999999996
 20
-24.60937000000003
 10
163.91479999999996
 20
-18.59405000000003
 10
160.47760000000000
 20
-18.59405000000003
 10
160.47760000000000
 20
-21.17215000000003
 10
157.03954999999996
 20
-21.17215000000003
 10
157.03954999999996
 20
-13.43725000000002
 10
160.47760000000000
 20
-13.43725000000002
 10
160.47760000000000
 20
-16.01565000000002
 10
163.91479999999996
 20
-16.01565000000002
 10
163.91479999999996
 20
-10.00000000000002
 10
149.30544499999999
 20
-10.00000000000002
  0
ENDBLK
  5
269
330
31
100
AcDbEntity
  8
0
100
AcDbBlockEnd
  0
BLOCK
  5
26A
330
32
100
AcDbEntity
  8
0
100
AcDbBlockBegin
  2
*U26
 70
     1
 10
0.00000000000000
 20
0.00000000000000
 30
0.00000000000000
  3
*U26
  1

  0
MTEXT
  5
26B
330
32
100
AcDbEntity
  8
Planrahmen
 62
     7
370
    25
100
AcDbMText
 10
165.00000000000031
 20
-79.99999999999967
 30
0.00000000000000
 40
2.50000000000000
 41
0.00000000000000
 71
     7
 72
     1
  1
\fArial|b0|i0;Stand:\PMassstab:
 11
1.00000000000000
 21
0.00000000000000
 31
0.00000000000000
 73
     1
 44
1.00000000000000
  0
MTEXT
  5
26C
330
32
100
AcDbEntity
  8
Planrahmen
 62
     7
370
    25
100
AcDbMText
 10
200.00000000000023
 20
-79.99999999999977
 30
0.00000000000000
 40
2.50000000000000
 41
0.00000000000000
 71
     9
 72
     1
  1
\fArial|b0|i0;02/2021\P1:5
 11
1.00000000000000
 21
0.00000000000000
 31
0.00000000000000
 73
     1
 44
1.00000000000000
  0
ENDBLK
  5
26D
330
32
100
AcDbEntity
  8
0
100
AcDbBlockEnd
  0
ENDSEC
  0
SECTION
  2
ENTITIES
  0
HATCH
  5
26E
330
34
100
AcDbEntity
  8
Zeichnung 5
 62
     7
100
AcDbHatch
 10
0.00000000000000
 20
0.00000000000000
 30
0.00000000000000
210
0.00000000000000
220
0.00000000000000
230
1.00000000000000
  2
SOLID
 70
     1
 71
     0
 91
        1
 92
        0
 93
        9
 72
     1
 10
88.50000000000041
 20
-101.20000000000054
 11
76.50000000000031
 21
-101.20000000000054
 72
     1
 10
76.50000000000031
 20
-101.20000000000054
 11
76.50000000000031
 21
-228.19999999999979
 72
     1
 10
76.50000000000031
 20
-228.19999999999979
 11
80.70000000000005
 21
-228.19999999999985
 72
     2
 10
80.70000000000005
 20
-226.00000000000040
 40
2.19999999999945
 50
270.00000000000000
 51
314.99999999999841
 73
     1
 72
     1
 10
82.25563491861000
 20
-227.55563491861045
 11
84.56303604733945
 21
-225.24823378988094
 72
     2
 10
85.97724960971254
 20
-226.66244735225411
 40
2.00000000000003
 50
225.00000000000114
 51
359.99999999999977
 73
     0
 72
     1
 10
87.97724960971259
 20
-226.66244735225411
 11
87.97724960971254
 21
-226.96688532226179
 72
     1
 10
87.97724960971254
 20
-226.96688532226179
 11
88.50000000000041
 21
-225.30869565217384
 72
     1
 10
88.50000000000041
 20
-225.30869565217384
 11
88.50000000000041
 21
-101.20000000000054
 97
        0
 75
     0
 76
     0
 98
        1
 10
0.00000000000000
 20
0.00000000000000
  0
HATCH
  5
26F
330
34
100
AcDbEntity
  8
Zeichnung 5
 62
     7
100
AcDbHatch
 10
0.00000000000000
 20
0.00000000000000
 30
0.00000000000000
210
0.00000000000000
220
0.00000000000000
230
1.00000000000000
  2
SOLID
 70
     1
 71
     0
 91
        1
 92
        0
 93
        9
 72
     1
 10
136.50000000000011
 20
-101.20000000000054
 11
148.50000000000020
 21
-101.20000000000054
 72
     1
 10
148.50000000000020
 20
-101.20000000000054
 11
148.50000000000017
 21
-228.19999999999979
 72
     1
 10
148.50000000000017
 20
-228.19999999999979
 11
144.30000000000049
 21
-228.19999999999985
 72
     2
 10
144.30000000000049
 20
-226.00000000000040
 40
2.19999999999945
 50
90.00000000000000
 51
134.99999999999838
 73
     0
 72
     1
 10
142.74436508139053
 20
-227.55563491861045
 11
140.43696395266105
 21
-225.24823378988094
 72
     2
 10
139.02275039028797
 20
-226.66244735225411
 40
2.00000000000005
 50
45.00000000000135
 51
180.00000000000000
 73
     1
 72
     1
 10
137.02275039028791
 20
-226.66244735225411
 11
137.02275039028797
 21
-226.96688532226179
 72
     1
 10
137.02275039028797
 20
-226.96688532226179
 11
136.50000000000011
 21
-225.30869565217384
 72
     1
 10
136.50000000000011
 20
-225.30869565217384
 11
136.50000000000011
 21
-101.20000000000054
 97
        0
 75
     0
 76
     0
 98
        1
 10
0.00000000000000
 20
0.00000000000000
  0
SOLID
  5
270
330
34
100
AcDbEntity
  8
Zeichnung 5
 62
     7
100
AcDbTrace
 10
148.50000000000057
 20
-101.20000000000059
 30
0.00000000000000
 11
148.50000000000057
 21
-89.20000000000053
 31
0.00000000000000
 12
76.50000000000068
 22
-101.20000000000054
 32
0.00000000000000
 13
76.50000000000033
 23
-89.20000000000053
 33
0.00000000000000
  0
SOLID
  5
271
330
34
100
AcDbEntity
  8
Zeichnung 5
 62
    30
100
AcDbTrace
 10
136.50000000000011
 20
-101.20000000000054
 30
0.00000000000000
 11
136.50000000000048
 21
-127.99999999999980
 31
0.00000000000000
 12
88.50000000000043
 22
-101.20000000000054
 32
0.00000000000000
 13
88.50000000000043
 23
-127.99999999999980
 33
0.00000000000000
  0
HATCH
  5
272
330
34
100
AcDbEntity
  8
Zeichnung 5
 62
     7
370
    18
100
AcDbHatch
 10
0.00000000000000
 20
0.00000000000000
 30
0.00000000000000
210
0.00000000000000
220
0.00000000000000
230
1.00000000000000
  2
SCHRAFFUR
 70
     0
 71
     0
 91
        1
 92
        0
 93
        4
 72
     1
 10
136.50000000000011
 20
-101.20000000000054
 11
136.50000000000048
 21
-127.99999999999980
 72
     1
 10
136.50000000000048
 20
-127.99999999999980
 11
88.50000000000043
 21
-127.99999999999980
 72
     1
 10
88.50000000000043
 20
-127.99999999999980
 11
88.50000000000043
 21
-101.20000000000054
 72
     1
 10
88.50000000000043
 20
-101.20000000000054
 11
136.50000000000011
 21
-101.20000000000054
 97
        0
 75
     0
 76
     0
 52
135.00000000000017
 41
1.00000000000000
 77
     0
 78
     1
 53
135.00000000000017
 43
-1068.00000000000000
 44
902.99999999999909
 45
-2.82842712474618
 46
-2.82842712474620
 79
     0
 98
        1
 10
0.00000000000000
 20
0.00000000000000
  0
SOLID
  5
273
330
34
100
AcDbEntity
  8
Zeichnung 5
 62
    30
100
AcDbTrace
 10
136.50000000000048
 20
-128.20000000000053
 30
0.00000000000000
 11
136.50000000000048
 21
-177.99999999999983
 31
0.00000000000000
 12
88.50000000000043
 22
-128.20000000000053
 32
0.00000000000000
 13
88.50000000000043
 23
-177.99999999999983
 33
0.00000000000000
  0
HATCH
  5
274
330
34
100
AcDbEntity
  8
Zeichnung 5
 62
     7
370
    18
100
AcDbHatch
 10
0.00000000000000
 20
0.00000000000000
 30
0.00000000000000
210
0.00000000000000
220
0.00000000000000
230
1.00000000000000
  2
SCHRAFFUR
 70
     0
 71
     0
 91
        1
 92
        0
 93
        4
 72
     1
 10
136.50000000000048
 20
-128.20000000000053
 11
136.50000000000048
 21
-177.99999999999983
 72
     1
 10
136.50000000000048
 20
-177.99999999999983
 11
88.50000000000043
 21
-177.99999999999983
 72
     1
 10
88.50000000000043
 20
-177.99999999999983
 11
88.50000000000043
 21
-128.20000000000053
 72
     1
 10
88.50000000000043
 20
-128.20000000000053
 11
136.50000000000048
 21
-128.20000000000053
 97
        0
 75
     0
 76
     0
 52
135.00000000000017
 41
1.00000000000000
 77
     0
 78
     1
 53
135.00000000000017
 43
-1068.00000000000000
 44
902.99999999999909
 45
-2.82842712474618
 46
-2.82842712474620
 79
     0
 98
        1
 10
0.00000000000000
 20
0.00000000000000
  0
SOLID
  5
275
330
34
100
AcDbEntity
  8
Zeichnung 5
 62
    30
100
AcDbTrace
 10
136.50000000000011
 20
-228.20000000000044
 30
0.00000000000000
 11
136.50000000000011
 21
-265.99999999999983
 31
0.00000000000000
 12
88.50000000000043
 22
-228.20000000000044
 32
0.00000000000000
 13
88.50000000000043
 23
-265.99999999999983
 33
0.00000000000000
  0
HATCH
  5
276
330
34
100
AcDbEntity
  8
Zeichnung 5
 62
     7
370
    18
100
AcDbHatch
 10
0.00000000000000
 20
0.00000000000000
 30
0.00000000000000
210
0.00000000000000
220
0.00000000000000
230
1.00000000000000
  2
SCHRAFFUR
 70
     0
 71
     0
 91
        1
 92
        0
 93
        4
 72
     1
 10
136.50000000000011
 20
-228.20000000000044
 11
136.50000000000011
 21
-265.99999999999983
 72
     1
 10
136.50000000000011
 20
-265.99999999999983
 11
88.50000000000043
 21
-265.99999999999983
 72
     1
 10
88.50000000000043
 20
-265.99999999999983
 11
88.50000000000043
 21
-228.20000000000044
 72
     1
 10
88.50000000000043
 20
-228.20000000000044
 11
136.50000000000011
 21
-228.20000000000044
 97
        0
 75
     0
 76
     0
 52
135.00000000000017
 41
1.00000000000000
 77
     0
 78
     1
 53
135.00000000000017
 43
-1068.00000000000000
 44
914.99999999999898
 45
-2.82842712474618
 46
-2.82842712474620
 79
     0
 98
        1
 10
0.00000000000000
 20
0.00000000000000
  0
SOLID
  5
277
330
34
100
AcDbEntity
  8
Zeichnung 5
 62
    30
100
AcDbTrace
 10
136.50000000000011
 20
-178.20000000000056
 30
0.00000000000000
 11
136.50000000000011
 21
-227.99999999999986
 31
0.00000000000000
 12
88.50000000000043
 22
-178.20000000000056
 32
0.00000000000000
 13
88.50000000000043
 23
-227.99999999999986
 33
0.00000000000000
  0
HATCH
  5
278
330
34
100
AcDbEntity
  8
Zeichnung 5
 62
     7
370
    18
100
AcDbHatch
 10
0.00000000000000
 20
0.00000000000000
 30
0.00000000000000
210
0.00000000000000
220
0.00000000000000
230
1.00000000000000
  2
SCHRAFFUR
 70
     0
 71
     0
 91
        1
 92
        0
 93
        4
 72
     1
 10
136.50000000000011
 20
-178.20000000000056
 11
136.50000000000011
 21
-227.99999999999986
 72
     1
 10
136.50000000000011
 20
-227.99999999999986
 11
88.50000000000043
 21
-227.99999999999986
 72
     1
 10
88.50000000000043
 20
-227.99999999999986
 11
88.50000000000043
 21
-178.20000000000056
 72
     1
 10
88.50000000000043
 20
-178.20000000000056
 11
136.50000000000011
 21
-178.20000000000056
 97
        0
 75
     0
 76
     0
 52
135.00000000000017
 41
1.00000000000000
 77
     0
 78
     1
 53
135.00000000000017
 43
-1068.00000000000000
 44
902.99999999999909
 45
-2.82842712474618
 46
-2.82842712474620
 79
     0
 98
        1
 10
0.00000000000000
 20
0.00000000000000
  0
MTEXT
  5
279
330
34
100
AcDbEntity
  8
Planrahmen
 62
     7
370
    50
100
AcDbMText
 10
24.99999999999991
 20
-10.00000000000001
 30
0.00000000000000
 40
5.00000000000000
 41
0.00000000000000
 71
     1
 72
     1
  1
\fArial|b0|i0;Detail TW-06.3\P\H0.7x;Brandwand über Dach für Gebäudeklassen 4 bis 5
 11
1.00000000000000
 21
0.00000000000000
 31
0.00000000000000
 73
     1
 44
1.00000000000000
  0
SOLID
  5
27A
330
34
100
AcDbEntity
  8
Zeichnung 5
 62
     7
100
AcDbTrace
 10
149.30000000000049
 20
-171.40000000000012
 30
0.00000000000000
 11
148.50000000000020
 21
-171.40000000000012
 31
0.00000000000000
 12
149.30000000000049
 22
-166.40000000000023
 32
0.00000000000000
 13
148.50000000000020
 23
-166.40000000000023
 33
0.00000000000000
  0
HATCH
  5
27B
330
34
100
AcDbEntity
  8
Zeichnung 5
 62
     7
370
     9
100
AcDbHatch
 10
0.00000000000000
 20
0.00000000000000
 30
0.00000000000000
210
0.00000000000000
220
0.00000000000000
230
1.00000000000000
  2
SCHRAFFUR
 70
     0
 71
     0
 91
        1
 92
        0
 93
        4
 72
     1
 10
148.50000000000094
 20
-188.20000000000078
 11
148.50000000000057
 21
-176.20000000000070
 72
     1
 10
148.50000000000057
 20
-176.20000000000070
 11
197.99999999999963
 21
-176.20000000000002
 72
     1
 10
197.99999999999963
 20
-176.20000000000002
 11
197.99999999999963
 21
-188.20000000000010
 72
     1
 10
197.99999999999963
 20
-188.20000000000010
 11
148.50000000000094
 21
-188.20000000000078
 97
        0
 75
     0
 76
     0
 52
90.00000000000000
 41
1.00000000000000
 77
     0
 78
     1
 53
90.00000000000000
 43
-1139.91577015120040
 44
290.28874235961769
 45
-5.00000000000000
 46
0.00000000000000
 79
     0
 98
        1
 10
0.00000000000000
 20
0.00000000000000
  0
SOLID
  5
27C
330
34
100
AcDbEntity
  8
Zeichnung 5
 62
     7
100
AcDbTrace
 10
193.50000000000014
 20
-228.19999999999965
 30
0.00000000000000
 11
193.50000000000014
 21
-228.99999999999983
 31
0.00000000000000
 12
188.50000000000045
 22
-228.19999999999965
 32
0.00000000000000
 13
188.50000000000045
 23
-228.99999999999983
 33
0.00000000000000
  0
SOLID
  5
27D
330
34
100
AcDbEntity
  8
Zeichnung 5
 62
     7
100
AcDbTrace
 10
181.50000000000040
 20
-228.19999999999965
 30
0.00000000000000
 11
181.50000000000040
 21
-228.99999999999983
 31
0.00000000000000
 12
176.50000000000000
 22
-228.19999999999965
 32
0.00000000000000
 13
176.50000000000000
 23
-228.99999999999983
 33
0.00000000000000
  0
SOLID
  5
27E
330
34
100
AcDbEntity
  8
Zeichnung 5
 62
     7
100
AcDbTrace
 10
169.49999999999994
 20
-228.19999999999965
 30
0.00000000000000
 11
169.49999999999994
 21
-228.99999999999983
 31
0.00000000000000
 12
164.50000000000023
 22
-228.19999999999985
 32
0.00000000000000
 13
164.50000000000023
 23
-228.99999999999983
 33
0.00000000000000
  0
SOLID
  5
27F
330
34
100
AcDbEntity
  8
Zeichnung 5
 62
     7
100
AcDbTrace
 10
157.50000000000020
 20
-228.19999999999985
 30
0.00000000000000
 11
157.50000000000020
 21
-228.99999999999983
 31
0.00000000000000
 12
152.50000000000014
 22
-228.19999999999985
 32
0.00000000000000
 13
152.50000000000014
 23
-228.99999999999983
 33
0.00000000000000
  0
LINE
  5
280
330
34
100
AcDbEntity
  8
Zeichnung 5
  6
CONTINUOUS
 62
     7
370
    25
100
AcDbLine
 10
157.50000000000020
 20
-188.20000000000010
 30
0.00000000000000
 11
177.50000000000048
 21
-188.20000000000010
 31
0.00000000000000
  0
LINE
  5
281
330
34
100
AcDbEntity
  8
Zeichnung 5
  6
CONTINUOUS
 62
     7
370
    18
100
AcDbLine
 10
148.50000000000057
 20
-188.20000000000013
 30
0.00000000000000
 11
197.99999999999963
 21
-188.20000000000010
 31
0.00000000000000
  0
LWPOLYLINE
  5
282
330
34
100
AcDbEntity
  8
Zeichnung 5
  6
CONTINUOUS
 62
     7
370
    25
100
AcDbPolyline
 90
        4
 70
   129
 10
157.50000000000020
 20
-228.20000000000010
 10
177.50000000000048
 20
-228.20000000000010
 10
177.50000000000048
 20
-188.20000000000002
 10
157.50000000000020
 20
-188.20000000000002
  0
LINE
  5
283
330
34
100
AcDbEntity
  8
Zeichnung 5
  6
CONTINUOUS
 62
     7
370
    18
100
AcDbLine
 10
177.50000000000048
 20
-188.20000000000002
 30
0.00000000000000
 11
157.50000000000020
 21
-228.20000000000010
 31
0.00000000000000
  0
LINE
  5
284
330
34
100
AcDbEntity
  8
Zeichnung 5
  6
CONTINUOUS
 62
     7
370
    18
100
AcDbLine
 10
177.50000000000048
 20
-228.20000000000010
 30
0.00000000000000
 11
157.50000000000020
 21
-188.20000000000002
 31
0.00000000000000
  0
LINE
  5
285
330
34
100
AcDbEntity
  8
Zeichnung 5
  6
CONTINUOUS
 62
     7
370
    18
100
AcDbLine
 10
152.00000000000094
 20
-167.39999999999966
 30
0.00000000000000
 11
197.99999999999963
 21
-167.39999999999984
 31
0.00000000000000
  0
LINE
  5
286
330
34
100
AcDbEntity
  8
Zeichnung 5
  6
CONTINUOUS
 62
     7
370
    18
100
AcDbLine
 10
152.00000000000026
 20
-161.39999999999975
 30
0.00000000000000
 11
197.99999999999963
 21
-161.39999999999975
 31
0.00000000000000
  0
LWPOLYLINE
  5
287
330
34
100
AcDbEntity
  8
Zeichnung 5
  6
CONTINUOUS
 62
     7
370
    25
100
AcDbPolyline
 90
        4
 70
   129
 10
161.50000000000011
 20
-175.39999999999947
 10
173.50000000000057
 20
-175.39999999999947
 10
173.50000000000057
 20
-167.39999999999947
 10
161.50000000000011
 20
-167.39999999999947
  0
LINE
  5
288
330
34
100
AcDbEntity
  8
Zeichnung 5
  6
CONTINUOUS
 62
     7
370
    18
100
AcDbLine
 10
161.50000000000011
 20
-175.39999999999947
 30
0.00000000000000
 11
173.50000000000057
 21
-167.39999999999975
 31
0.00000000000000
  0
LINE
  5
289
330
34
100
AcDbEntity
  8
Zeichnung 5
  6
CONTINUOUS
 62
     7
370
    18
100
AcDbLine
 10
173.50000000000057
 20
-175.39999999999947
 30
0.00000000000000
 11
161.50000000000011
 21
-167.39999999999975
 31
0.00000000000000
  0
LINE
  5
28A
330
34
100
AcDbEntity
  8
Zeichnung 5
  6
CONTINUOUS
 62
     7
370
    18
100
AcDbLine
 10
197.99999999999963
 20
-228.19999999999965
 30
0.00000000000000
 11
144.30000000000049
 21
-228.19999999999979
 31
0.00000000000000
  0
LINE
  5
28B
330
34
100
AcDbEntity
  8
Zeichnung 5
  6
CONTINUOUS
 62
     7
370
    18
100
AcDbLine
 10
197.99999999999963
 20
-228.99999999999963
 30
0.00000000000000
 11
144.21715728752605
 21
-228.99999999999983
 31
0.00000000000000
  0
LINE
  5
28C
330
34
100
AcDbEntity
  8
Zeichnung 5
  6
CONTINUOUS
 62
     7
370
    18
100
AcDbLine
 10
193.50000000000014
 20
-228.19999999999985
 30
0.00000000000000
 11
193.50000000000014
 21
-228.99999999999974
 31
0.00000000000000
  0
LINE
  5
28D
330
34
100
AcDbEntity
  8
Zeichnung 5
  6
CONTINUOUS
 62
     7
370
    18
100
AcDbLine
 10
188.50000000000045
 20
-228.19999999999985
 30
0.00000000000000
 11
188.50000000000045
 21
-228.99999999999974
 31
0.00000000000000
  0
LINE
  5
28E
330
34
100
AcDbEntity
  8
Zeichnung 5
  6
CONTINUOUS
 62
     7
370
    18
100
AcDbLine
 10
181.50000000000040
 20
-228.19999999999985
 30
0.00000000000000
 11
181.50000000000040
 21
-228.99999999999974
 31
0.00000000000000
  0
LINE
  5
28F
330
34
100
AcDbEntity
  8
Zeichnung 5
  6
CONTINUOUS
 62
     7
370
    18
100
AcDbLine
 10
176.50000000000000
 20
-228.19999999999985
 30
0.00000000000000
 11
176.50000000000000
 21
-228.99999999999974
 31
0.00000000000000
  0
LINE
  5
290
330
34
100
AcDbEntity
  8
Zeichnung 5
  6
CONTINUOUS
 62
     7
370
    18
100
AcDbLine
 10
169.49999999999994
 20
-228.19999999999985
 30
0.00000000000000
 11
169.49999999999994
 21
-228.99999999999974
 31
0.00000000000000
  0
LINE
  5
291
330
34
100
AcDbEntity
  8
Zeichnung 5
  6
CONTINUOUS
 62
     7
370
    18
100
AcDbLine
 10
164.50000000000023
 20
-228.19999999999985
 30
0.00000000000000
 11
164.50000000000023
 21
-228.99999999999974
 31
0.00000000000000
  0
LINE
  5
292
330
34
100
AcDbEntity
  8
Zeichnung 5
  6
CONTINUOUS
 62
     7
370
    18
100
AcDbLine
 10
157.50000000000020
 20
-228.19999999999985
 30
0.00000000000000
 11
157.50000000000020
 21
-228.99999999999974
 31
0.00000000000000
  0
SOLID
  5
293
330
34
100
AcDbEntity
  8
Zeichnung 5
 62
     7
100
AcDbTrace
 10
193.00000000000131
 20
-175.39999999999969
 30
0.00000000000000
 11
193.00000000000131
 21
-176.19999999999987
 31
0.00000000000000
 12
188.00000000000162
 22
-175.39999999999969
 32
0.00000000000000
 13
188.00000000000162
 23
-176.19999999999987
 33
0.00000000000000
  0
ARC
  5
294
330
34
100
AcDbEntity
  8
Zeichnung 5
  6
CONTINUOUS
 62
     7
370
    18
100
AcDbCircle
 10
150.50000000000088
 20
-174.19999999999990
 30
0.00000000000000
 40
1.20000000000005
100
AcDbArc
 50
180.00000000000213
 51
270.00000000000000
  0
LINE
  5
295
330
34
100
AcDbEntity
  8
Zeichnung 5
  6
CONTINUOUS
 62
     7
370
    18
100
AcDbLine
 10
197.99999999999963
 20
-175.39999999999984
 30
0.00000000000000
 11
150.50000000000088
 21
-175.39999999999989
 31
0.00000000000000
  0
LINE
  5
296
330
34
100
AcDbEntity
  8
Zeichnung 5
  6
CONTINUOUS
 62
     7
370
    18
100
AcDbLine
 10
193.00000000000131
 20
-175.39999999999989
 30
0.00000000000000
 11
193.00000000000131
 21
-176.19999999999979
 31
0.00000000000000
  0
LINE
  5
297
330
34
100
AcDbEntity
  8
Zeichnung 5
  6
CONTINUOUS
 62
     7
370
    18
100
AcDbLine
 10
188.00000000000162
 20
-175.39999999999989
 30
0.00000000000000
 11
188.00000000000162
 21
-176.19999999999979
 31
0.00000000000000
  0
SOLID
  5
298
330
34
100
AcDbEntity
  8
Zeichnung 5
 62
     7
100
AcDbTrace
 10
181.00000000000156
 20
-175.39999999999969
 30
0.00000000000000
 11
181.00000000000156
 21
-176.19999999999987
 31
0.00000000000000
 12
176.00000000000185
 22
-175.39999999999969
 32
0.00000000000000
 13
176.00000000000185
 23
-176.19999999999987
 33
0.00000000000000
  0
LINE
  5
299
330
34
100
AcDbEntity
  8
Zeichnung 5
  6
CONTINUOUS
 62
     7
370
    18
100
AcDbLine
 10
181.00000000000156
 20
-175.39999999999989
 30
0.00000000000000
 11
181.00000000000156
 21
-176.19999999999979
 31
0.00000000000000
  0
LINE
  5
29A
330
34
100
AcDbEntity
  8
Zeichnung 5
  6
CONTINUOUS
 62
     7
370
    18
100
AcDbLine
 10
176.00000000000185
 20
-175.39999999999989
 30
0.00000000000000
 11
176.00000000000185
 21
-176.19999999999979
 31
0.00000000000000
  0
SOLID
  5
29B
330
34
100
AcDbEntity
  8
Zeichnung 5
 62
     7
100
AcDbTrace
 10
169.00000000000148
 20
-175.39999999999969
 30
0.00000000000000
 11
169.00000000000148
 21
-176.19999999999987
 31
0.00000000000000
 12
164.00000000000139
 22
-175.39999999999969
 32
0.00000000000000
 13
164.00000000000139
 23
-176.19999999999987
 33
0.00000000000000
  0
LINE
  5
29C
330
34
100
AcDbEntity
  8
Zeichnung 5
  6
CONTINUOUS
 62
     7
370
    18
100
AcDbLine
 10
169.00000000000148
 20
-175.39999999999989
 30
0.00000000000000
 11
169.00000000000148
 21
-176.19999999999979
 31
0.00000000000000
  0
LINE
  5
29D
330
34
100
AcDbEntity
  8
Zeichnung 5
  6
CONTINUOUS
 62
     7
370
    18
100
AcDbLine
 10
164.00000000000139
 20
-175.39999999999989
 30
0.00000000000000
 11
164.00000000000139
 21
-176.19999999999979
 31
0.00000000000000
  0
SOLID
  5
29E
330
34
100
AcDbEntity
  8
Zeichnung 5
 62
     7
100
AcDbTrace
 10
157.00000000000136
 20
-175.39999999999969
 30
0.00000000000000
 11
157.00000000000136
 21
-176.19999999999987
 31
0.00000000000000
 12
152.00000000000165
 22
-175.39999999999969
 32
0.00000000000000
 13
152.00000000000165
 23
-176.19999999999987
 33
0.00000000000000
  0
LINE
  5
29F
330
34
100
AcDbEntity
  8
Zeichnung 5
  6
CONTINUOUS
 62
     7
370
    18
100
AcDbLine
 10
157.00000000000136
 20
-175.39999999999989
 30
0.00000000000000
 11
157.00000000000136
 21
-176.19999999999979
 31
0.00000000000000
  0
LINE
  5
2A0
330
34
100
AcDbEntity
  8
Zeichnung 5
  6
CONTINUOUS
 62
     7
370
    18
100
AcDbLine
 10
152.00000000000165
 20
-175.39999999999989
 30
0.00000000000000
 11
152.00000000000165
 21
-176.19999999999979
 31
0.00000000000000
  0
INSERT
  5
36
330
34
100
AcDbEntity
  8
Zeichnung 5
 62
     5
370
    25
100
AcDbBlockReference
  2
*U1
 10
0.00000000000000
 20
0.00000000000000
 30
0.00000000000000
  0
INSERT
  5
37
330
34
100
AcDbEntity
  8
Zeichnung 5
 62
     5
370
    25
100
AcDbBlockReference
  2
*U2
 10
0.00000000000000
 20
0.00000000000000
 30
0.00000000000000
  0
LINE
  5
2A1
330
34
100
AcDbEntity
  8
Zeichnung 5
  6
CONTINUOUS
 62
     7
370
    35
100
AcDbLine
 10
136.50000000000011
 20
-265.99999999999983
 30
0.00000000000000
 11
136.50000000000011
 21
-101.20000000000054
 31
0.00000000000000
  0
LINE
  5
2A2
330
34
100
AcDbEntity
  8
Zeichnung 5
  6
CONTINUOUS
 62
     7
370
    35
100
AcDbLine
 10
88.50000000000043
 20
-265.99999999999983
 30
0.00000000000000
 11
88.50000000000043
 21
-101.20000000000054
 31
0.00000000000000
  0
LINE
  5
2A3
330
34
100
AcDbEntity
  8
Zeichnung 5
  6
CONTINUOUS
 62
     7
370
    35
100
AcDbLine
 10
88.50000000000043
 20
-101.20000000000054
 30
0.00000000000000
 11
136.50000000000011
 21
-101.20000000000054
 31
0.00000000000000
  0
ARC
  5
2A4
330
34
100
AcDbEntity
  8
Zeichnung 5
  6
CONTINUOUS
 62
     7
370
    18
100
AcDbCircle
 10
150.50000000000088
 20
-174.19999999999990
 30
0.00000000000000
 40
2.00000000000005
100
AcDbArc
 50
180.00000000000000
 51
270.00000000000000
  0
LINE
  5
2A5
330
34
100
AcDbEntity
  8
Zeichnung 5
  6
CONTINUOUS
 62
     7
370
    18
100
AcDbLine
 10
197.99999999999963
 20
-176.20000000000002
 30
0.00000000000000
 11
150.50000000000088
 21
-176.19999999999996
 31
0.00000000000000
  0
INSERT
  5
38
330
34
100
AcDbEntity
  8
Zeichnung 5
 62
     5
370
    25
100
AcDbBlockReference
  2
*U3
 10
0.00000000000000
 20
0.00000000000000
 30
0.00000000000000
  0
LINE
  5
2A6
330
34
100
AcDbEntity
  8
Zeichnung 5
  6
CONTINUOUS
 62
     7
370
    18
100
AcDbLine
 10
88.50000000000043
 20
-227.99999999999986
 30
0.00000000000000
 11
136.50000000000011
 21
-227.99999999999986
 31
0.00000000000000
  0
LINE
  5
2A7
330
34
100
AcDbEntity
  8
Zeichnung 5
  6
CONTINUOUS
 62
     7
370
    18
100
AcDbLine
 10
88.50000000000043
 20
-228.20000000000053
 30
0.00000000000000
 11
136.50000000000011
 21
-228.20000000000053
 31
0.00000000000000
  0
LINE
  5
2A8
330
34
100
AcDbEntity
  8
Zeichnung 5
  6
CONTINUOUS
 62
     7
370
    18
100
AcDbLine
 10
157.50000000000020
 20
-188.20000000000010
 30
0.00000000000000
 11
157.50000000000020
 21
-176.20000000000002
 31
0.00000000000000
  0
LINE
  5
2A9
330
34
100
AcDbEntity
  8
Zeichnung 5
  6
CONTINUOUS
 62
     7
370
    18
100
AcDbLine
 10
152.00000000000449
 20
-167.39999999999966
 30
0.00000000000000
 11
152.00000000000026
 21
-161.39999999999975
 31
0.00000000000000
  0
LINE
  5
2AA
330
34
100
AcDbEntity
  8
Zeichnung 5
  6
CONTINUOUS
 62
     7
370
    18
100
AcDbLine
 10
149.29999999999907
 20
-158.00000000000003
 30
0.00000000000000
 11
149.30000000000084
 21
-174.20000000000002
 31
0.00000000000000
  0
LINE
  5
2AB
330
34
100
AcDbEntity
  8
Zeichnung 5
  6
CONTINUOUS
 62
     7
370
    18
100
AcDbLine
 10
149.30000000000013
 20
-171.40000000000012
 30
0.00000000000000
 11
148.50000000000057
 21
-171.40000000000012
 31
0.00000000000000
  0
LINE
  5
2AC
330
34
100
AcDbEntity
  8
Zeichnung 5
  6
CONTINUOUS
 62
     7
370
    18
100
AcDbLine
 10
149.30000000000049
 20
-166.40000000000043
 30
0.00000000000000
 11
149.30000000000049
 21
-167.20000000000036
 31
0.00000000000000
  0
MTEXT
  5
2AD
330
34
100
AcDbEntity
  8
Zeichnung 5
 62
     7
370
    30
100
AcDbMText
 10
29.99999999999963
 20
-271.99999999999989
 30
0.00000000000000
 40
2.80000000000000
 41
0.00000000000000
 71
     1
 72
     1
  1
\fArial Narrow|b0|i0;Die Ausführung und der obere Wandabschluss sind in jedem Fall\Pmit dem zuständigen Nachweisberechtigten für Brandschutz abzustimmen.
 11
1.00000000000000
 21
0.00000000000000
 31
0.00000000000000
 73
     1
 44
1.00000000000000
  0
LINE
  5
2AE
330
34
100
AcDbEntity
  8
Zeichnung 5
  6
CONTINUOUS
 62
     7
370
    18
100
AcDbLine
 10
76.50000000000033
 20
-89.20000000000053
 30
0.00000000000000
 11
148.50000000000020
 21
-89.20000000000053
 31
0.00000000000000
  0
LINE
  5
2AF
330
34
100
AcDbEntity
  8
Zeichnung 5
  6
CONTINUOUS
 62
     7
370
    18
100
AcDbLine
 10
148.50000000000020
 20
-228.19999999999985
 30
0.00000000000000
 11
148.50000000000020
 21
-89.20000000000053
 31
0.00000000000000
  0
LINE
  5
2B0
330
34
100
AcDbEntity
  8
Zeichnung 5
  6
CONTINUOUS
 62
     7
370
    18
100
AcDbLine
 10
149.29999999999907
 20
-158.00000000000003
 30
0.00000000000000
 11
148.50000000000020
 21
-157.99999999999997
 31
0.00000000000000
  0
LINE
  5
2B1
330
34
100
AcDbEntity
  8
Zeichnung 5
  6
CONTINUOUS
 62
     7
370
    18
100
AcDbLine
 10
149.30000000000049
 20
-155.80000000000030
 30
0.00000000000000
 11
149.30000000000049
 21
-155.80000000000013
 31
0.00000000000000
  0
SOLID
  5
2B2
330
34
100
AcDbEntity
  8
Zeichnung 5
 62
     7
100
AcDbTrace
 10
149.30000000000049
 20
-160.99999999999972
 30
0.00000000000000
 11
148.50000000000020
 21
-160.99999999999972
 31
0.00000000000000
 12
149.30000000000049
 22
-157.99999999999983
 32
0.00000000000000
 13
148.50000000000020
 23
-157.99999999999983
 33
0.00000000000000
  0
INSERT
  5
39
330
34
100
AcDbEntity
  8
Zeichnung 5
 62
     5
370
    25
100
AcDbBlockReference
  2
*U4
 10
0.00000000000000
 20
0.00000000000000
 30
0.00000000000000
  0
LINE
  5
2B3
330
34
100
AcDbEntity
  8
Zeichnung 5
  6
CONTINUOUS
 62
     7
370
    18
100
AcDbLine
 10
159.56905989232439
 20
-156.20000000000047
 30
0.00000000000000
 11
159.80000000000052
 21
-156.20000000000044
 31
0.00000000000000
  0
LINE
  5
2B4
330
34
100
AcDbEntity
  8
Zeichnung 5
  6
CONTINUOUS
 62
     7
370
    18
100
AcDbLine
 10
159.80000000000052
 20
-156.20000000000047
 30
0.00000000000000
 11
157.83225977198745
 21
-152.79177394898440
 31
0.00000000000000
  0
LINE
  5
2B5
330
34
100
AcDbEntity
  8
Zeichnung 5
  6
CONTINUOUS
 62
     7
370
    18
100
AcDbLine
 10
157.83225977198745
 20
-152.79177394898440
 30
0.00000000000000
 11
150.27640221035617
 21
-152.79177394898446
 31
0.00000000000000
  0
LINE
  5
2B6
330
34
100
AcDbEntity
  8
Zeichnung 5
  6
CONTINUOUS
 62
     7
370
    18
100
AcDbLine
 10
150.16093215651827
 20
-152.99177394898433
 30
0.00000000000000
 11
157.71678971814919
 21
-152.99177394898439
 31
0.00000000000000
  0
LINE
  5
2B7
330
34
100
AcDbEntity
  8
Zeichnung 5
  6
CONTINUOUS
 62
     7
370
    18
100
AcDbLine
 10
149.70000000000024
 20
-148.21435935394442
 30
0.00000000000000
 11
149.70000000000024
 21
-151.79341603505239
 31
0.00000000000000
  0
LINE
  5
2B8
330
34
100
AcDbEntity
  8
Zeichnung 5
  6
CONTINUOUS
 62
     7
370
    18
100
AcDbLine
 10
149.70000000000024
 20
-148.21435935394442
 30
0.00000000000000
 11
148.70000000000047
 21
-146.48230854637535
 31
0.00000000000000
  0
LINE
  5
2B9
330
34
100
AcDbEntity
  8
Zeichnung 5
  6
CONTINUOUS
 62
     7
370
    18
100
AcDbLine
 10
148.70000000000047
 20
-146.48230854637535
 30
0.00000000000000
 11
148.70000000000047
 21
-101.39999999999989
 31
0.00000000000000
  0
LINE
  5
2BA
330
34
100
AcDbEntity
  8
Zeichnung 5
  6
CONTINUOUS
 62
     7
370
    18
100
AcDbLine
 10
148.49999999999986
 20
-146.53589838486167
 30
0.00000000000000
 11
149.50000000000037
 21
-148.26794919243036
 31
0.00000000000000
  0
LINE
  5
2BB
330
34
100
AcDbEntity
  8
Zeichnung 5
  6
CONTINUOUS
 62
     7
370
    18
100
AcDbLine
 10
149.50000000000037
 20
-148.26794919243036
 30
0.00000000000000
 11
149.50000000000037
 21
-151.84700587354132
 31
0.00000000000000
  0
LINE
  5
2BC
330
34
100
AcDbEntity
  8
Zeichnung 5
  6
CONTINUOUS
 62
     7
370
    18
100
AcDbLine
 10
149.70000000000024
 20
-162.21435935394442
 30
0.00000000000000
 11
149.50000000000037
 21
-162.21435935394442
 31
0.00000000000000
  0
LINE
  5
2BD
330
34
100
AcDbEntity
  8
Zeichnung 5
  6
CONTINUOUS
 62
     7
370
    18
100
AcDbLine
 10
148.50000000000020
 20
-101.20000000000054
 30
0.00000000000000
 11
152.59999999999954
 21
-101.20000000000059
 31
0.00000000000000
  0
LINE
  5
2BE
330
34
100
AcDbEntity
  8
Zeichnung 5
  6
CONTINUOUS
 62
     7
370
    18
100
AcDbLine
 10
157.71678971814919
 20
-152.99177394898439
 30
0.00000000000000
 11
159.56905989232439
 21
-156.20000000000047
 31
0.00000000000000
  0
LINE
  5
2BF
330
34
100
AcDbEntity
  8
Zeichnung 5
  6
CONTINUOUS
 62
     7
370
    18
100
AcDbLine
 10
149.70000000000095
 20
-151.79341603505395
 30
0.00000000000000
 11
150.27640221035617
 21
-152.79177394898446
 31
0.00000000000000
  0
LINE
  5
2C0
330
34
100
AcDbEntity
  8
Zeichnung 5
  6
CONTINUOUS
 62
     7
370
    18
100
AcDbLine
 10
149.50000000000037
 20
-151.84700587354081
 30
0.00000000000000
 11
150.16093215651827
 21
-152.99177394898433
 31
0.00000000000000
  0
LINE
  5
2C1
330
34
100
AcDbEntity
  8
Zeichnung 5
  6
CONTINUOUS
 62
     7
370
    18
100
AcDbLine
 10
136.26905989232469
 20
-88.80000000000004
 30
0.00000000000000
 11
88.73094010767551
 21
-88.80000000000061
 31
0.00000000000000
  0
LINE
  5
2C2
330
34
100
AcDbEntity
  8
Zeichnung 5
  6
CONTINUOUS
 62
     7
370
    18
100
AcDbLine
 10
153.26905989232449
 20
-107.20000000000019
 30
0.00000000000000
 11
153.26905989232415
 21
-84.03399315156031
 31
0.00000000000000
  0
LINE
  5
2C3
330
34
100
AcDbEntity
  8
Zeichnung 5
  6
CONTINUOUS
 62
     7
370
    18
100
AcDbLine
 10
152.86905989232434
 20
-84.43399315156030
 30
0.00000000000000
 11
152.86905989232434
 21
-105.70717967697263
 31
0.00000000000000
  0
LINE
  5
2C4
330
34
100
AcDbEntity
  8
Zeichnung 5
  6
CONTINUOUS
 62
     7
370
    18
100
AcDbLine
 10
153.26905989232449
 20
-107.20000000000019
 30
0.00000000000000
 11
151.26905989232452
 21
-103.73589838486251
 31
0.00000000000000
  0
LINE
  5
2C5
330
34
100
AcDbEntity
  8
Zeichnung 5
  6
CONTINUOUS
 62
     7
370
    18
100
AcDbLine
 10
151.61547005383824
 20
-103.53589838486243
 30
0.00000000000000
 11
152.86905989232434
 21
-105.70717967697263
 31
0.00000000000000
  0
LINE
  5
2C6
330
34
100
AcDbEntity
  8
Zeichnung 5
  6
CONTINUOUS
 62
     7
370
    18
100
AcDbLine
 10
151.61547005383824
 20
-103.53589838486243
 30
0.00000000000000
 11
151.26905989232452
 21
-103.73589838486232
 31
0.00000000000000
  0
LINE
  5
2C7
330
34
100
AcDbEntity
  8
Zeichnung 5
  6
CONTINUOUS
 62
     7
370
    18
100
AcDbLine
 10
140.86823609063748
 20
-84.83399315156039
 30
0.00000000000000
 11
152.46905989232496
 21
-84.83399315156044
 31
0.00000000000000
  0
LINE
  5
2C8
330
34
100
AcDbEntity
  8
Zeichnung 5
  6
CONTINUOUS
 62
     7
370
    18
100
AcDbLine
 10
141.09917619831327
 20
-85.23399315156040
 30
0.00000000000000
 11
152.06905989232445
 21
-85.23399315156021
 31
0.00000000000000
  0
LINE
  5
2C9
330
34
100
AcDbEntity
  8
Zeichnung 5
  6
CONTINUOUS
 62
     7
370
    18
100
AcDbLine
 10
152.46905989232459
 20
-90.00000000000000
 30
0.00000000000000
 11
152.46905989232496
 21
-84.83399315156044
 31
0.00000000000000
  0
LINE
  5
2CA
330
34
100
AcDbEntity
  8
Zeichnung 5
  6
CONTINUOUS
 62
     7
370
    18
100
AcDbLine
 10
152.06905989232479
 20
-89.99999999999992
 30
0.00000000000000
 11
152.06905989232445
 21
-85.23399315156021
 31
0.00000000000000
  0
LINE
  5
2CB
330
34
100
AcDbEntity
  8
Zeichnung 5
  6
CONTINUOUS
 62
     7
370
    18
100
AcDbLine
 10
152.46905989232459
 20
-90.00000000000000
 30
0.00000000000000
 11
152.06905989232479
 21
-90.00000000000000
 31
0.00000000000000
  0
LINE
  5
2CC
330
34
100
AcDbEntity
  8
Zeichnung 5
  6
CONTINUOUS
 62
     7
370
    18
100
AcDbLine
 10
136.26905989232469
 20
-88.80000000000004
 30
0.00000000000000
 11
140.86823609063748
 21
-84.83399315156039
 31
0.00000000000000
  0
LINE
  5
2CD
330
34
100
AcDbEntity
  8
Zeichnung 5
  6
CONTINUOUS
 62
     7
370
    18
100
AcDbLine
 10
136.50000000000048
 20
-89.20000000000009
 30
0.00000000000000
 11
141.09917619831327
 21
-85.23399315156040
 31
0.00000000000000
  0
LINE
  5
2CE
330
34
100
AcDbEntity
  8
Zeichnung 5
  6
CONTINUOUS
 62
     7
370
    18
100
AcDbLine
 10
152.59999999999954
 20
-101.20000000000059
 30
0.00000000000000
 11
152.59999999999954
 21
-103.99999999999993
 31
0.00000000000000
  0
LINE
  5
2CF
330
34
100
AcDbEntity
  8
Zeichnung 5
  6
CONTINUOUS
 62
     7
370
    18
100
AcDbLine
 10
152.39999999999932
 20
-101.39999999999989
 30
0.00000000000000
 11
152.39999999999964
 21
-103.99999999999983
 31
0.00000000000000
  0
LINE
  5
2D0
330
34
100
AcDbEntity
  8
Zeichnung 5
  6
CONTINUOUS
 62
     7
370
    18
100
AcDbLine
 10
148.70000000000047
 20
-101.39999999999989
 30
0.00000000000000
 11
152.39999999999964
 21
-101.39999999999999
 31
0.00000000000000
  0
LINE
  5
2D1
330
34
100
AcDbEntity
  8
Zeichnung 5
  6
CONTINUOUS
 62
     7
370
    18
100
AcDbLine
 10
152.59999999999954
 20
-103.99999999999987
 30
0.00000000000000
 11
152.39999999999964
 21
-103.99999999999987
 31
0.00000000000000
  0
SOLID
  5
2D2
330
34
100
AcDbEntity
  8
Zeichnung 5
 62
     7
100
AcDbTrace
 10
75.70000000000006
 20
-171.40000000000012
 30
0.00000000000000
 11
76.50000000000033
 21
-171.40000000000012
 31
0.00000000000000
 12
75.70000000000006
 22
-166.40000000000023
 32
0.00000000000000
 13
76.50000000000033
 23
-166.40000000000023
 33
0.00000000000000
  0
HATCH
  5
2D3
330
34
100
AcDbEntity
  8
Zeichnung 5
 62
     7
370
     9
100
AcDbHatch
 10
0.00000000000000
 20
0.00000000000000
 30
0.00000000000000
210
0.00000000000000
220
0.00000000000000
230
1.00000000000000
  2
SCHRAFFUR
 70
     0
 71
     0
 91
        1
 92
        0
 93
        4
 72
     1
 10
76.49999999999962
 20
-188.20000000000078
 11
76.49999999999997
 21
-176.20000000000070
 72
     1
 10
76.49999999999997
 20
-176.20000000000070
 11
27.00000000000093
 21
-176.20000000000002
 72
     1
 10
27.00000000000093
 20
-176.20000000000002
 11
27.00000000000093
 21
-188.20000000000010
 72
     1
 10
27.00000000000093
 20
-188.20000000000010
 11
76.49999999999962
 21
-188.20000000000078
 97
        0
 75
     0
 76
     0
 52
90.00000000000000
 41
1.00000000000000
 77
     0
 78
     1
 53
90.00000000000000
 43
1364.91577015120110
 44
290.28874235961752
 45
-5.00000000000000
 46
0.00000000000000
 79
     0
 98
        1
 10
0.00000000000000
 20
0.00000000000000
  0
SOLID
  5
2D4
330
34
100
AcDbEntity
  8
Zeichnung 5
 62
     7
100
AcDbTrace
 10
31.50000000000039
 20
-228.19999999999965
 30
0.00000000000000
 11
31.50000000000039
 21
-228.99999999999983
 31
0.00000000000000
 12
36.50000000000011
 22
-228.19999999999965
 32
0.00000000000000
 13
36.50000000000011
 23
-228.99999999999983
 33
0.00000000000000
  0
SOLID
  5
2D5
330
34
100
AcDbEntity
  8
Zeichnung 5
 62
     7
100
AcDbTrace
 10
43.50000000000014
 20
-228.19999999999965
 30
0.00000000000000
 11
43.50000000000014
 21
-228.99999999999983
 31
0.00000000000000
 12
48.50000000000057
 22
-228.19999999999965
 32
0.00000000000000
 13
48.50000000000057
 23
-228.99999999999983
 33
0.00000000000000
  0
SOLID
  5
2D6
330
34
100
AcDbEntity
  8
Zeichnung 5
 62
     7
100
AcDbTrace
 10
55.50000000000060
 20
-228.19999999999965
 30
0.00000000000000
 11
55.50000000000060
 21
-228.99999999999983
 31
0.00000000000000
 12
60.50000000000031
 22
-228.19999999999985
 32
0.00000000000000
 13
60.50000000000031
 23
-228.99999999999983
 33
0.00000000000000
  0
SOLID
  5
2D7
330
34
100
AcDbEntity
  8
Zeichnung 5
 62
     7
100
AcDbTrace
 10
67.50000000000034
 20
-228.19999999999985
 30
0.00000000000000
 11
67.50000000000034
 21
-228.99999999999983
 31
0.00000000000000
 12
72.50000000000041
 22
-228.19999999999985
 32
0.00000000000000
 13
72.50000000000041
 23
-228.99999999999983
 33
0.00000000000000
  0
LINE
  5
2D8
330
34
100
AcDbEntity
  8
Zeichnung 5
  6
CONTINUOUS
 62
     7
370
    25
100
AcDbLine
 10
47.50000000000006
 20
-188.20000000000010
 30
0.00000000000000
 11
67.50000000000034
 21
-188.20000000000010
 31
0.00000000000000
  0
LINE
  5
2D9
330
34
100
AcDbEntity
  8
Zeichnung 5
  6
CONTINUOUS
 62
     7
370
    18
100
AcDbLine
 10
27.00000000000093
 20
-188.20000000000010
 30
0.00000000000000
 11
76.49999999999997
 21
-188.20000000000013
 31
0.00000000000000
  0
LWPOLYLINE
  5
2DA
330
34
100
AcDbEntity
  8
Zeichnung 5
  6
CONTINUOUS
 62
     7
370
    25
100
AcDbPolyline
 90
        4
 70
   129
 10
67.50000000000034
 20
-228.20000000000010
 10
67.50000000000034
 20
-188.20000000000002
 10
47.50000000000006
 20
-188.20000000000002
 10
47.50000000000006
 20
-228.20000000000010
  0
LINE
  5
2DB
330
34
100
AcDbEntity
  8
Zeichnung 5
  6
CONTINUOUS
 62
     7
370
    18
100
AcDbLine
 10
67.50000000000034
 20
-228.20000000000010
 30
0.00000000000000
 11
47.50000000000006
 21
-188.20000000000002
 31
0.00000000000000
  0
LINE
  5
2DC
330
34
100
AcDbEntity
  8
Zeichnung 5
  6
CONTINUOUS
 62
     7
370
    18
100
AcDbLine
 10
67.50000000000034
 20
-188.20000000000002
 30
0.00000000000000
 11
47.50000000000006
 21
-228.20000000000010
 31
0.00000000000000
  0
LINE
  5
2DD
330
34
100
AcDbEntity
  8
Zeichnung 5
  6
CONTINUOUS
 62
     7
370
    18
100
AcDbLine
 10
27.00000000000093
 20
-167.39999999999984
 30
0.00000000000000
 11
72.99999999999960
 21
-167.39999999999966
 31
0.00000000000000
  0
LINE
  5
2DE
330
34
100
AcDbEntity
  8
Zeichnung 5
  6
CONTINUOUS
 62
     7
370
    18
100
AcDbLine
 10
27.00000000000093
 20
-161.39999999999975
 30
0.00000000000000
 11
73.00000000000031
 21
-161.39999999999975
 31
0.00000000000000
  0
LWPOLYLINE
  5
2DF
330
34
100
AcDbEntity
  8
Zeichnung 5
  6
CONTINUOUS
 62
     7
370
    25
100
AcDbPolyline
 90
        4
 70
   129
 10
63.50000000000043
 20
-175.39999999999947
 10
63.50000000000043
 20
-167.39999999999947
 10
51.49999999999997
 20
-167.39999999999947
 10
51.49999999999997
 20
-175.39999999999947
  0
LINE
  5
2E0
330
34
100
AcDbEntity
  8
Zeichnung 5
  6
CONTINUOUS
 62
     7
370
    18
100
AcDbLine
 10
51.49999999999997
 20
-167.39999999999975
 30
0.00000000000000
 11
63.50000000000043
 21
-175.39999999999947
 31
0.00000000000000
  0
LINE
  5
2E1
330
34
100
AcDbEntity
  8
Zeichnung 5
  6
CONTINUOUS
 62
     7
370
    18
100
AcDbLine
 10
63.50000000000043
 20
-167.39999999999975
 30
0.00000000000000
 11
51.49999999999997
 21
-175.39999999999947
 31
0.00000000000000
  0
LINE
  5
2E2
330
34
100
AcDbEntity
  8
Zeichnung 5
  6
CONTINUOUS
 62
     7
370
    18
100
AcDbLine
 10
80.78284271247452
 20
-228.99999999999977
 30
0.00000000000000
 11
27.00000000000093
 21
-228.99999999999963
 31
0.00000000000000
  0
LINE
  5
2E3
330
34
100
AcDbEntity
  8
Zeichnung 5
  6
CONTINUOUS
 62
     7
370
    18
100
AcDbLine
 10
31.50000000000039
 20
-228.99999999999974
 30
0.00000000000000
 11
31.50000000000039
 21
-228.19999999999985
 31
0.00000000000000
  0
LINE
  5
2E4
330
34
100
AcDbEntity
  8
Zeichnung 5
  6
CONTINUOUS
 62
     7
370
    18
100
AcDbLine
 10
36.50000000000011
 20
-228.99999999999974
 30
0.00000000000000
 11
36.50000000000011
 21
-228.19999999999985
 31
0.00000000000000
  0
LINE
  5
2E5
330
34
100
AcDbEntity
  8
Zeichnung 5
  6
CONTINUOUS
 62
     7
370
    18
100
AcDbLine
 10
43.50000000000014
 20
-228.99999999999974
 30
0.00000000000000
 11
43.50000000000014
 21
-228.19999999999985
 31
0.00000000000000
  0
LINE
  5
2E6
330
34
100
AcDbEntity
  8
Zeichnung 5
  6
CONTINUOUS
 62
     7
370
    18
100
AcDbLine
 10
48.50000000000057
 20
-228.99999999999974
 30
0.00000000000000
 11
48.50000000000057
 21
-228.19999999999985
 31
0.00000000000000
  0
LINE
  5
2E7
330
34
100
AcDbEntity
  8
Zeichnung 5
  6
CONTINUOUS
 62
     7
370
    18
100
AcDbLine
 10
55.50000000000060
 20
-228.99999999999974
 30
0.00000000000000
 11
55.50000000000060
 21
-228.19999999999985
 31
0.00000000000000
  0
LINE
  5
2E8
330
34
100
AcDbEntity
  8
Zeichnung 5
  6
CONTINUOUS
 62
     7
370
    18
100
AcDbLine
 10
60.50000000000031
 20
-228.99999999999974
 30
0.00000000000000
 11
60.50000000000031
 21
-228.19999999999985
 31
0.00000000000000
  0
LINE
  5
2E9
330
34
100
AcDbEntity
  8
Zeichnung 5
  6
CONTINUOUS
 62
     7
370
    18
100
AcDbLine
 10
67.50000000000034
 20
-228.99999999999974
 30
0.00000000000000
 11
67.50000000000034
 21
-228.19999999999985
 31
0.00000000000000
  0
SOLID
  5
2EA
330
34
100
AcDbEntity
  8
Zeichnung 5
 62
     7
100
AcDbTrace
 10
31.99999999999923
 20
-175.39999999999969
 30
0.00000000000000
 11
31.99999999999923
 21
-176.19999999999987
 31
0.00000000000000
 12
36.99999999999894
 22
-175.39999999999969
 32
0.00000000000000
 13
36.99999999999894
 23
-176.19999999999987
 33
0.00000000000000
  0
ARC
  5
2EB
330
34
100
AcDbEntity
  8
Zeichnung 5
  6
CONTINUOUS
 62
     7
370
    18
100
AcDbCircle
 10
74.49999999999966
 20
-174.19999999999990
 30
0.00000000000000
 40
1.20000000000005
100
AcDbArc
 50
270.00000000000000
 51
359.99999999999790
  0
LINE
  5
2EC
330
34
100
AcDbEntity
  8
Zeichnung 5
  6
CONTINUOUS
 62
     7
370
    18
100
AcDbLine
 10
74.49999999999966
 20
-175.39999999999989
 30
0.00000000000000
 11
27.00000000000093
 21
-175.39999999999984
 31
0.00000000000000
  0
LINE
  5
2ED
330
34
100
AcDbEntity
  8
Zeichnung 5
  6
CONTINUOUS
 62
     7
370
    18
100
AcDbLine
 10
31.99999999999923
 20
-176.19999999999979
 30
0.00000000000000
 11
31.99999999999923
 21
-175.39999999999989
 31
0.00000000000000
  0
LINE
  5
2EE
330
34
100
AcDbEntity
  8
Zeichnung 5
  6
CONTINUOUS
 62
     7
370
    18
100
AcDbLine
 10
36.99999999999894
 20
-176.19999999999979
 30
0.00000000000000
 11
36.99999999999894
 21
-175.39999999999989
 31
0.00000000000000
  0
SOLID
  5
2EF
330
34
100
AcDbEntity
  8
Zeichnung 5
 62
     7
100
AcDbTrace
 10
43.99999999999898
 20
-175.39999999999969
 30
0.00000000000000
 11
43.99999999999898
 21
-176.19999999999987
 31
0.00000000000000
 12
48.99999999999869
 22
-175.39999999999969
 32
0.00000000000000
 13
48.99999999999869
 23
-176.19999999999987
 33
0.00000000000000
  0
LINE
  5
2F0
330
34
100
AcDbEntity
  8
Zeichnung 5
  6
CONTINUOUS
 62
     7
370
    18
100
AcDbLine
 10
43.99999999999898
 20
-176.19999999999979
 30
0.00000000000000
 11
43.99999999999898
 21
-175.39999999999989
 31
0.00000000000000
  0
LINE
  5
2F1
330
34
100
AcDbEntity
  8
Zeichnung 5
  6
CONTINUOUS
 62
     7
370
    18
100
AcDbLine
 10
48.99999999999869
 20
-176.19999999999979
 30
0.00000000000000
 11
48.99999999999869
 21
-175.39999999999989
 31
0.00000000000000
  0
SOLID
  5
2F2
330
34
100
AcDbEntity
  8
Zeichnung 5
 62
     7
100
AcDbTrace
 10
55.99999999999908
 20
-175.39999999999969
 30
0.00000000000000
 11
55.99999999999908
 21
-176.19999999999987
 31
0.00000000000000
 12
60.99999999999915
 22
-175.39999999999969
 32
0.00000000000000
 13
60.99999999999915
 23
-176.19999999999987
 33
0.00000000000000
  0
LINE
  5
2F3
330
34
100
AcDbEntity
  8
Zeichnung 5
  6
CONTINUOUS
 62
     7
370
    18
100
AcDbLine
 10
55.99999999999908
 20
-176.19999999999979
 30
0.00000000000000
 11
55.99999999999908
 21
-175.39999999999989
 31
0.00000000000000
  0
LINE
  5
2F4
330
34
100
AcDbEntity
  8
Zeichnung 5
  6
CONTINUOUS
 62
     7
370
    18
100
AcDbLine
 10
60.99999999999915
 20
-176.19999999999979
 30
0.00000000000000
 11
60.99999999999915
 21
-175.39999999999989
 31
0.00000000000000
  0
SOLID
  5
2F5
330
34
100
AcDbEntity
  8
Zeichnung 5
 62
     7
100
AcDbTrace
 10
67.99999999999918
 20
-175.39999999999969
 30
0.00000000000000
 11
67.99999999999918
 21
-176.19999999999987
 31
0.00000000000000
 12
72.99999999999888
 22
-175.39999999999969
 32
0.00000000000000
 13
72.99999999999888
 23
-176.19999999999987
 33
0.00000000000000
  0
LINE
  5
2F6
330
34
100
AcDbEntity
  8
Zeichnung 5
  6
CONTINUOUS
 62
     7
370
    18
100
AcDbLine
 10
67.99999999999918
 20
-176.19999999999979
 30
0.00000000000000
 11
67.99999999999918
 21
-175.39999999999989
 31
0.00000000000000
  0
LINE
  5
2F7
330
34
100
AcDbEntity
  8
Zeichnung 5
  6
CONTINUOUS
 62
     7
370
    18
100
AcDbLine
 10
72.99999999999888
 20
-176.19999999999979
 30
0.00000000000000
 11
72.99999999999888
 21
-175.39999999999989
 31
0.00000000000000
  0
INSERT
  5
3A
330
34
100
AcDbEntity
  8
Zeichnung 5
 62
     5
370
    25
100
AcDbBlockReference
  2
*U5
 10
0.00000000000000
 20
0.00000000000000
 30
0.00000000000000
  0
INSERT
  5
3B
330
34
100
AcDbEntity
  8
Zeichnung 5
 62
     5
370
    25
100
AcDbBlockReference
  2
*U6
 10
0.00000000000000
 20
0.00000000000000
 30
0.00000000000000
  0
ARC
  5
2F8
330
34
100
AcDbEntity
  8
Zeichnung 5
  6
CONTINUOUS
 62
     7
370
    18
100
AcDbCircle
 10
74.49999999999966
 20
-174.19999999999990
 30
0.00000000000000
 40
1.99999999999996
100
AcDbArc
 50
270.00000000000000
 51
0.00000000000000
  0
LINE
  5
2F9
330
34
100
AcDbEntity
  8
Zeichnung 5
  6
CONTINUOUS
 62
     7
370
    18
100
AcDbLine
 10
74.49999999999966
 20
-176.19999999999996
 30
0.00000000000000
 11
27.00000000000093
 21
-176.20000000000002
 31
0.00000000000000
  0
INSERT
  5
3C
330
34
100
AcDbEntity
  8
Zeichnung 5
 62
     5
370
    25
100
AcDbBlockReference
  2
*U7
 10
0.00000000000000
 20
0.00000000000000
 30
0.00000000000000
  0
LINE
  5
2FA
330
34
100
AcDbEntity
  8
Zeichnung 5
  6
CONTINUOUS
 62
     7
370
    18
100
AcDbLine
 10
67.50000000000034
 20
-176.20000000000002
 30
0.00000000000000
 11
67.50000000000034
 21
-188.20000000000010
 31
0.00000000000000
  0
LINE
  5
2FB
330
34
100
AcDbEntity
  8
Zeichnung 5
  6
CONTINUOUS
 62
     7
370
    18
100
AcDbLine
 10
73.00000000000031
 20
-161.39999999999975
 30
0.00000000000000
 11
72.99999999999605
 21
-167.39999999999966
 31
0.00000000000000
  0
LINE
  5
2FC
330
34
100
AcDbEntity
  8
Zeichnung 5
  6
CONTINUOUS
 62
     7
370
    18
100
AcDbLine
 10
75.69999999999970
 20
-174.20000000000002
 30
0.00000000000000
 11
75.70000000000148
 21
-158.00000000000003
 31
0.00000000000000
  0
LINE
  5
2FD
330
34
100
AcDbEntity
  8
Zeichnung 5
  6
CONTINUOUS
 62
     7
370
    18
100
AcDbLine
 10
76.49999999999997
 20
-171.40000000000012
 30
0.00000000000000
 11
75.70000000000042
 21
-171.40000000000012
 31
0.00000000000000
  0
LINE
  5
2FE
330
34
100
AcDbEntity
  8
Zeichnung 5
  6
CONTINUOUS
 62
     7
370
    18
100
AcDbLine
 10
75.70000000000006
 20
-167.20000000000036
 30
0.00000000000000
 11
75.70000000000006
 21
-166.40000000000043
 31
0.00000000000000
  0
LINE
  5
2FF
330
34
100
AcDbEntity
  8
Zeichnung 5
  6
CONTINUOUS
 62
     7
370
    18
100
AcDbLine
 10
76.50000000000033
 20
-89.20000000000053
 30
0.00000000000000
 11
76.50000000000033
 21
-228.19999999999985
 31
0.00000000000000
  0
LINE
  5
300
330
34
100
AcDbEntity
  8
Zeichnung 5
  6
CONTINUOUS
 62
     7
370
    18
100
AcDbLine
 10
76.50000000000033
 20
-157.99999999999997
 30
0.00000000000000
 11
75.70000000000148
 21
-158.00000000000003
 31
0.00000000000000
  0
LINE
  5
301
330
34
100
AcDbEntity
  8
Zeichnung 5
  6
CONTINUOUS
 62
     7
370
    18
100
AcDbLine
 10
75.70000000000006
 20
-155.80000000000013
 30
0.00000000000000
 11
75.70000000000006
 21
-155.80000000000030
 31
0.00000000000000
  0
SOLID
  5
302
330
34
100
AcDbEntity
  8
Zeichnung 5
 62
     7
100
AcDbTrace
 10
75.70000000000006
 20
-160.99999999999972
 30
0.00000000000000
 11
76.50000000000033
 21
-160.99999999999972
 31
0.00000000000000
 12
75.70000000000006
 22
-157.99999999999983
 32
0.00000000000000
 13
76.50000000000033
 23
-157.99999999999983
 33
0.00000000000000
  0
INSERT
  5
3D
330
34
100
AcDbEntity
  8
Zeichnung 5
 62
     5
370
    25
100
AcDbBlockReference
  2
*U8
 10
0.00000000000000
 20
0.00000000000000
 30
0.00000000000000
  0
LINE
  5
303
330
34
100
AcDbEntity
  8
Zeichnung 5
  6
CONTINUOUS
 62
     7
370
    18
100
AcDbLine
 10
65.20000000000002
 20
-156.20000000000044
 30
0.00000000000000
 11
65.43094010767617
 21
-156.20000000000047
 31
0.00000000000000
  0
LINE
  5
304
330
34
100
AcDbEntity
  8
Zeichnung 5
  6
CONTINUOUS
 62
     7
370
    18
100
AcDbLine
 10
67.16774022801309
 20
-152.79177394898440
 30
0.00000000000000
 11
65.20000000000002
 21
-156.20000000000047
 31
0.00000000000000
  0
LINE
  5
305
330
34
100
AcDbEntity
  8
Zeichnung 5
  6
CONTINUOUS
 62
     7
370
    18
100
AcDbLine
 10
74.72359778964436
 20
-152.79177394898446
 30
0.00000000000000
 11
67.16774022801309
 21
-152.79177394898440
 31
0.00000000000000
  0
LINE
  5
306
330
34
100
AcDbEntity
  8
Zeichnung 5
  6
CONTINUOUS
 62
     7
370
    18
100
AcDbLine
 10
67.28321028185134
 20
-152.99177394898439
 30
0.00000000000000
 11
74.83906784348227
 21
-152.99177394898433
 31
0.00000000000000
  0
LINE
  5
307
330
34
100
AcDbEntity
  8
Zeichnung 5
  6
CONTINUOUS
 62
     7
370
    18
100
AcDbLine
 10
75.30000000000028
 20
-151.79341603505239
 30
0.00000000000000
 11
75.30000000000028
 21
-148.21435935394442
 31
0.00000000000000
  0
LINE
  5
308
330
34
100
AcDbEntity
  8
Zeichnung 5
  6
CONTINUOUS
 62
     7
370
    18
100
AcDbLine
 10
76.30000000000008
 20
-146.48230854637535
 30
0.00000000000000
 11
75.30000000000028
 21
-148.21435935394442
 31
0.00000000000000
  0
LINE
  5
309
330
34
100
AcDbEntity
  8
Zeichnung 5
  6
CONTINUOUS
 62
     7
370
    18
100
AcDbLine
 10
76.30000000000008
 20
-101.39999999999989
 30
0.00000000000000
 11
76.30000000000008
 21
-146.48230854637535
 31
0.00000000000000
  0
LINE
  5
30A
330
34
100
AcDbEntity
  8
Zeichnung 5
  6
CONTINUOUS
 62
     7
370
    18
100
AcDbLine
 10
75.50000000000017
 20
-148.26794919243036
 30
0.00000000000000
 11
76.50000000000068
 21
-146.53589838486167
 31
0.00000000000000
  0
LINE
  5
30B
330
34
100
AcDbEntity
  8
Zeichnung 5
  6
CONTINUOUS
 62
     7
370
    18
100
AcDbLine
 10
75.50000000000017
 20
-151.84700587354132
 30
0.00000000000000
 11
75.50000000000017
 21
-148.26794919243036
 31
0.00000000000000
  0
LINE
  5
30C
330
34
100
AcDbEntity
  8
Zeichnung 5
  6
CONTINUOUS
 62
     7
370
    18
100
AcDbLine
 10
75.50000000000017
 20
-162.21435935394442
 30
0.00000000000000
 11
75.30000000000028
 21
-162.21435935394442
 31
0.00000000000000
  0
LINE
  5
30D
330
34
100
AcDbEntity
  8
Zeichnung 5
  6
CONTINUOUS
 62
     7
370
    18
100
AcDbLine
 10
72.40000000000100
 20
-101.20000000000059
 30
0.00000000000000
 11
76.50000000000033
 21
-101.20000000000054
 31
0.00000000000000
  0
LINE
  5
30E
330
34
100
AcDbEntity
  8
Zeichnung 5
  6
CONTINUOUS
 62
     7
370
    18
100
AcDbLine
 10
65.43094010767617
 20
-156.20000000000047
 30
0.00000000000000
 11
67.28321028185134
 21
-152.99177394898439
 31
0.00000000000000
  0
LINE
  5
30F
330
34
100
AcDbEntity
  8
Zeichnung 5
  6
CONTINUOUS
 62
     7
370
    18
100
AcDbLine
 10
74.72359778964436
 20
-152.79177394898446
 30
0.00000000000000
 11
75.29999999999957
 21
-151.79341603505395
 31
0.00000000000000
  0
LINE
  5
310
330
34
100
AcDbEntity
  8
Zeichnung 5
  6
CONTINUOUS
 62
     7
370
    18
100
AcDbLine
 10
74.83906784348227
 20
-152.99177394898433
 30
0.00000000000000
 11
75.50000000000017
 21
-151.84700587354081
 31
0.00000000000000
  0
LINE
  5
311
330
34
100
AcDbEntity
  8
Zeichnung 5
  6
CONTINUOUS
 62
     7
370
    18
100
AcDbLine
 10
71.73094010767640
 20
-84.03399315156031
 30
0.00000000000000
 11
71.73094010767603
 21
-107.20000000000019
 31
0.00000000000000
  0
LINE
  5
312
330
34
100
AcDbEntity
  8
Zeichnung 5
  6
CONTINUOUS
 62
     7
370
    18
100
AcDbLine
 10
72.13094010767618
 20
-105.70717967697263
 30
0.00000000000000
 11
72.13094010767618
 21
-84.43399315156030
 31
0.00000000000000
  0
LINE
  5
313
330
34
100
AcDbEntity
  8
Zeichnung 5
  6
CONTINUOUS
 62
     7
370
    18
100
AcDbLine
 10
73.73094010767601
 20
-103.73589838486251
 30
0.00000000000000
 11
71.73094010767603
 21
-107.20000000000019
 31
0.00000000000000
  0
LINE
  5
314
330
34
100
AcDbEntity
  8
Zeichnung 5
  6
CONTINUOUS
 62
     7
370
    18
100
AcDbLine
 10
72.13094010767618
 20
-105.70717967697263
 30
0.00000000000000
 11
73.38452994616232
 21
-103.53589838486243
 31
0.00000000000000
  0
LINE
  5
315
330
34
100
AcDbEntity
  8
Zeichnung 5
  6
CONTINUOUS
 62
     7
370
    18
100
AcDbLine
 10
73.73094010767601
 20
-103.73589838486232
 30
0.00000000000000
 11
73.38452994616232
 21
-103.53589838486243
 31
0.00000000000000
  0
LINE
  5
316
330
34
100
AcDbEntity
  8
Zeichnung 5
  6
CONTINUOUS
 62
     7
370
    18
100
AcDbLine
 10
72.53094010767561
 20
-84.83399315156044
 30
0.00000000000000
 11
84.13176390936306
 21
-84.83399315156039
 31
0.00000000000000
  0
LINE
  5
317
330
34
100
AcDbEntity
  8
Zeichnung 5
  6
CONTINUOUS
 62
     7
370
    18
100
AcDbLine
 10
72.93094010767609
 20
-85.23399315156021
 30
0.00000000000000
 11
83.90082380168727
 21
-85.23399315156040
 31
0.00000000000000
  0
LINE
  5
318
330
34
100
AcDbEntity
  8
Zeichnung 5
  6
CONTINUOUS
 62
     7
370
    18
100
AcDbLine
 10
72.53094010767561
 20
-84.83399315156044
 30
0.00000000000000
 11
72.53094010767595
 21
-90.00000000000000
 31
0.00000000000000
  0
LINE
  5
319
330
34
100
AcDbEntity
  8
Zeichnung 5
  6
CONTINUOUS
 62
     7
370
    18
100
AcDbLine
 10
72.93094010767609
 20
-85.23399315156021
 30
0.00000000000000
 11
72.93094010767574
 21
-89.99999999999992
 31
0.00000000000000
  0
LINE
  5
31A
330
34
100
AcDbEntity
  8
Zeichnung 5
  6
CONTINUOUS
 62
     7
370
    18
100
AcDbLine
 10
72.93094010767574
 20
-90.00000000000000
 30
0.00000000000000
 11
72.53094010767595
 21
-90.00000000000000
 31
0.00000000000000
  0
LINE
  5
31B
330
34
100
AcDbEntity
  8
Zeichnung 5
  6
CONTINUOUS
 62
     7
370
    18
100
AcDbLine
 10
84.13176390936306
 20
-84.83399315156039
 30
0.00000000000000
 11
88.73094010767586
 21
-88.80000000000004
 31
0.00000000000000
  0
LINE
  5
31C
330
34
100
AcDbEntity
  8
Zeichnung 5
  6
CONTINUOUS
 62
     7
370
    18
100
AcDbLine
 10
83.90082380168727
 20
-85.23399315156040
 30
0.00000000000000
 11
88.50000000000007
 21
-89.20000000000009
 31
0.00000000000000
  0
LINE
  5
31D
330
34
100
AcDbEntity
  8
Zeichnung 5
  6
CONTINUOUS
 62
     7
370
    18
100
AcDbLine
 10
72.13094010767618
 20
-84.43399315156030
 30
0.00000000000000
 11
152.86905989232403
 21
-84.43399315156030
 31
0.00000000000000
  0
LINE
  5
31E
330
34
100
AcDbEntity
  8
Zeichnung 5
  6
CONTINUOUS
 62
     7
370
    18
100
AcDbLine
 10
71.73094010767640
 20
-84.03399315156035
 30
0.00000000000000
 11
153.26905989232378
 21
-84.03399315156035
 31
0.00000000000000
  0
LINE
  5
31F
330
34
100
AcDbEntity
  8
Zeichnung 5
  6
CONTINUOUS
 62
     7
370
    18
100
AcDbLine
 10
72.40000000000100
 20
-103.99999999999993
 30
0.00000000000000
 11
72.40000000000100
 21
-101.20000000000059
 31
0.00000000000000
  0
LINE
  5
320
330
34
100
AcDbEntity
  8
Zeichnung 5
  6
CONTINUOUS
 62
     7
370
    18
100
AcDbLine
 10
72.60000000000089
 20
-103.99999999999983
 30
0.00000000000000
 11
72.60000000000125
 21
-101.39999999999989
 31
0.00000000000000
  0
LINE
  5
321
330
34
100
AcDbEntity
  8
Zeichnung 5
  6
CONTINUOUS
 62
     7
370
    18
100
AcDbLine
 10
72.60000000000089
 20
-101.39999999999999
 30
0.00000000000000
 11
76.30000000000008
 21
-101.39999999999989
 31
0.00000000000000
  0
LINE
  5
322
330
34
100
AcDbEntity
  8
Zeichnung 5
  6
CONTINUOUS
 62
     7
370
    18
100
AcDbLine
 10
72.60000000000089
 20
-103.99999999999987
 30
0.00000000000000
 11
72.40000000000100
 21
-103.99999999999987
 31
0.00000000000000
  0
LINE
  5
323
330
34
100
AcDbEntity
  8
Zeichnung 5
  6
CONTINUOUS
 62
     7
370
    18
100
AcDbLine
 10
88.50000000000043
 20
-101.20000000000054
 30
0.00000000000000
 11
76.50000000000033
 21
-101.20000000000054
 31
0.00000000000000
  0
LINE
  5
324
330
34
100
AcDbEntity
  8
Zeichnung 5
  6
CONTINUOUS
 62
     7
370
    18
100
AcDbLine
 10
136.50000000000011
 20
-101.20000000000054
 30
0.00000000000000
 11
148.50000000000057
 21
-101.20000000000054
 31
0.00000000000000
  0
LINE
  5
325
330
34
100
AcDbEntity
  8
Zeichnung 5
  6
CONTINUOUS
 62
     7
370
    18
100
AcDbLine
 10
88.50000000000043
 20
-177.99999999999986
 30
0.00000000000000
 11
136.50000000000011
 21
-177.99999999999986
 31
0.00000000000000
  0
LINE
  5
326
330
34
100
AcDbEntity
  8
Zeichnung 5
  6
CONTINUOUS
 62
     7
370
    18
100
AcDbLine
 10
88.50000000000043
 20
-178.20000000000056
 30
0.00000000000000
 11
136.50000000000011
 21
-178.20000000000056
 31
0.00000000000000
  0
LINE
  5
327
330
34
100
AcDbEntity
  8
Zeichnung 5
  6
CONTINUOUS
 62
     7
370
    18
100
AcDbLine
 10
88.50000000000043
 20
-127.99999999999986
 30
0.00000000000000
 11
136.50000000000011
 21
-127.99999999999986
 31
0.00000000000000
  0
LINE
  5
328
330
34
100
AcDbEntity
  8
Zeichnung 5
  6
CONTINUOUS
 62
     7
370
    18
100
AcDbLine
 10
88.50000000000043
 20
-128.20000000000053
 30
0.00000000000000
 11
136.50000000000011
 21
-128.20000000000053
 31
0.00000000000000
  0
INSERT
  5
3E
330
34
100
AcDbEntity
  8
Zeichnung 5
 62
     7
370
    25
100
AcDbBlockReference
  2
*D1
 10
0.00000000000000
 20
0.00000000000000
 30
0.00000000000000
  0
INSERT
  5
3F
330
34
100
AcDbEntity
  8
Zeichnung 5
 62
     7
370
    25
100
AcDbBlockReference
  2
*U9
 10
0.00000000000000
 20
0.00000000000000
 30
0.00000000000000
  0
INSERT
  5
40
330
34
100
AcDbEntity
  8
Zeichnung 5
 62
     7
370
    25
100
AcDbBlockReference
  2
*U10
 10
0.00000000000000
 20
0.00000000000000
 30
0.00000000000000
  0
INSERT
  5
41
330
34
100
AcDbEntity
  8
Zeichnung 5
 62
     7
370
    25
100
AcDbBlockReference
  2
*U11
 10
0.00000000000000
 20
0.00000000000000
 30
0.00000000000000
  0
INSERT
  5
42
330
34
100
AcDbEntity
  8
Zeichnung 5
 62
     7
370
    25
100
AcDbBlockReference
  2
*U12
 10
0.00000000000000
 20
0.00000000000000
 30
0.00000000000000
  0
LINE
  5
329
330
34
100
AcDbEntity
  8
Zeichnung 5
  6
CONTINUOUS
 62
     7
370
    18
100
AcDbLine
 10
80.70000000000003
 20
-228.20000000000002
 30
0.00000000000000
 11
27.00000000000093
 21
-228.19999999999973
 31
0.00000000000000
  0
INSERT
  5
43
330
34
100
AcDbEntity
  8
Zeichnung 5
 62
     7
370
    25
100
AcDbBlockReference
  2
*U13
 10
0.00000000000000
 20
0.00000000000000
 30
0.00000000000000
  0
INSERT
  5
44
330
34
100
AcDbEntity
  8
Zeichnung 5
 62
     7
370
    25
100
AcDbBlockReference
  2
*U14
 10
0.00000000000000
 20
0.00000000000000
 30
0.00000000000000
  0
INSERT
  5
45
330
34
100
AcDbEntity
  8
Zeichnung 5
 62
     7
370
    25
100
AcDbBlockReference
  2
*U15
 10
0.00000000000000
 20
0.00000000000000
 30
0.00000000000000
  0
HATCH
  5
32A
330
34
100
AcDbEntity
  8
Zeichnung 5
 62
     7
370
     9
100
AcDbHatch
 10
0.00000000000000
 20
0.00000000000000
 30
0.00000000000000
210
0.00000000000000
220
0.00000000000000
230
1.00000000000000
  2
SCHRAFFUR
 70
     0
 71
     0
 91
        1
 92
        0
 93
        4
 72
     1
 10
197.99999999999963
 20
-234.99999999999980
 11
197.99999999999980
 21
-237.49999999999974
 72
     1
 10
197.99999999999980
 20
-237.49999999999974
 11
141.50000000000020
 21
-237.49999999999974
 72
     1
 10
141.50000000000020
 20
-237.49999999999974
 11
141.50000000000020
 21
-234.99999999999980
 72
     1
 10
141.50000000000020
 20
-234.99999999999980
 11
197.99999999999963
 21
-234.99999999999980
 97
        0
 75
     0
 76
     0
 52
90.00000000000000
 41
1.00000000000000
 77
     0
 78
     1
 53
90.00000000000000
 43
-191.41577015120495
 44
-59.67125764038161
 45
-1.00000000000000
 46
0.00000000000000
 79
     0
 98
        1
 10
0.00000000000000
 20
0.00000000000000
  0
LINE
  5
32B
330
34
100
AcDbEntity
  8
Zeichnung 5
  6
CONTINUOUS
 62
     7
370
    18
100
AcDbLine
 10
139.50000000000014
 20
-265.99999999999983
 30
0.00000000000000
 11
139.50000000000020
 21
-234.30000000000075
 31
0.00000000000000
  0
LINE
  5
32C
330
34
100
AcDbEntity
  8
Zeichnung 5
  6
CONTINUOUS
 62
     7
370
    18
100
AcDbLine
 10
139.50000000000026
 20
-234.99999999999972
 30
0.00000000000000
 11
197.99999999999963
 21
-234.99999999999972
 31
0.00000000000000
  0
LINE
  5
32D
330
34
100
AcDbEntity
  8
Zeichnung 5
  6
CONTINUOUS
 62
     7
370
    18
100
AcDbLine
 10
141.50000000000020
 20
-237.49999999999974
 30
0.00000000000000
 11
197.99999999999963
 21
-237.49999999999974
 31
0.00000000000000
  0
ARC
  5
32E
330
34
100
AcDbEntity
  8
Zeichnung 5
  6
CONTINUOUS
 62
     7
370
    18
100
AcDbCircle
 10
140.50000000000003
 20
-238.38953446724781
 30
0.00000000000000
 40
1.33838393909293
100
AcDbArc
 50
41.65419548745571
 51
138.34580451252913
  0
LINE
  5
32F
330
34
100
AcDbEntity
  8
Zeichnung 5
  6
CONTINUOUS
 62
     7
370
    18
100
AcDbLine
 10
145.50000000000028
 20
-228.19999999999985
 30
0.00000000000000
 11
145.50000000000028
 21
-228.99999999999974
 31
0.00000000000000
  0
LWPOLYLINE
  5
330
330
34
100
AcDbEntity
  8
Zeichnung 5
  6
CONTINUOUS
 62
     7
370
    25
100
AcDbPolyline
 90
        4
 70
   129
 10
172.50000000000026
 20
-234.99999999999972
 10
172.50000000000026
 20
-228.99999999999974
 10
162.50000000000048
 20
-228.99999999999974
 10
162.50000000000048
 20
-234.99999999999972
  0
LINE
  5
331
330
34
100
AcDbEntity
  8
Zeichnung 5
  6
CONTINUOUS
 62
     7
370
    18
100
AcDbLine
 10
172.50000000000026
 20
-234.99999999999972
 30
0.00000000000000
 11
162.50000000000048
 21
-228.99999999999974
 31
0.00000000000000
  0
LINE
  5
332
330
34
100
AcDbEntity
  8
Zeichnung 5
  6
CONTINUOUS
 62
     7
370
    18
100
AcDbLine
 10
172.50000000000026
 20
-228.99999999999974
 30
0.00000000000000
 11
162.50000000000048
 21
-234.99999999999972
 31
0.00000000000000
  0
HATCH
  5
333
330
34
100
AcDbEntity
  8
Zeichnung 5
 62
     7
100
AcDbHatch
 10
0.00000000000000
 20
0.00000000000000
 30
0.00000000000000
210
0.00000000000000
220
0.00000000000000
230
1.00000000000000
  2
SOLID
 70
     1
 71
     0
 91
        1
 92
        0
 93
        6
 72
     2
 10
139.02275039028791
 20
-226.66244735225411
 40
2.00000000000002
 50
102.05658587736542
 51
180.00000000000006
 73
     1
 72
     1
 10
137.02275039028791
 20
-226.66244735225411
 11
137.02275039028800
 21
-228.48711484863369
 72
     1
 10
137.02275039028800
 20
-228.48711484863369
 11
137.82275039028798
 21
-228.48711484863364
 72
     1
 10
137.82275039028798
 20
-228.48711484863364
 11
137.82275039028798
 21
-226.66244735225411
 72
     2
 10
139.02275039028797
 20
-226.66244735225416
 40
1.19999999999996
 50
180.00000000000213
 51
257.94341412263304
 73
     0
 72
     1
 10
138.77209724930003
 20
-225.48891720653447
 11
138.60499515530805
 21
-224.70656377605457
 97
        0
 75
     0
 76
     0
 98
        1
 10
0.00000000000000
 20
0.00000000000000
  0
HATCH
  5
334
330
34
100
AcDbEntity
  8
Zeichnung 5
 62
     7
100
AcDbHatch
 10
0.00000000000000
 20
0.00000000000000
 30
0.00000000000000
210
0.00000000000000
220
0.00000000000000
230
1.00000000000000
  2
SOLID
 70
     1
 71
     0
 91
        1
 92
        0
 93
        8
 72
     1
 10
145.50000000000034
 20
-228.19999999999987
 11
145.50000000000028
 21
-228.99999999999983
 72
     1
 10
145.50000000000028
 20
-228.99999999999983
 11
144.21715728752602
 21
-228.99999999999983
 72
     2
 10
144.21715728752602
 20
-226.19999999999979
 40
2.80000000000005
 50
90.00000000000000
 51
134.99999999999920
 73
     0
 72
     1
 10
142.23725830020371
 20
-228.17989898732219
 11
141.53769240936242
 21
-227.48033309648085
 72
     1
 10
141.53769240936242
 20
-227.48033309648085
 11
142.10337783431169
 21
-226.91464767153170
 72
     1
 10
142.10337783431169
 20
-226.91464767153170
 11
142.74436508139053
 21
-227.55563491861045
 72
     2
 10
144.30000000000049
 20
-226.00000000000040
 40
2.19999999999945
 50
225.00000000000162
 51
270.00000000000011
 73
     1
 72
     1
 10
144.30000000000049
 20
-228.19999999999985
 11
145.50000000000034
 21
-228.19999999999987
 97
        0
 75
     0
 76
     0
 98
        1
 10
0.00000000000000
 20
0.00000000000000
  0
ARC
  5
335
330
34
100
AcDbEntity
  8
Zeichnung 5
  6
CONTINUOUS
 62
     7
370
    18
100
AcDbCircle
 10
139.02275039028797
 20
-226.66244735225411
 30
0.00000000000000
 40
2.00000000000005
100
AcDbArc
 50
45.00000000000046
 51
180.00000000000000
  0
LINE
  5
336
330
34
100
AcDbEntity
  8
Zeichnung 5
  6
CONTINUOUS
 62
     7
370
    18
100
AcDbLine
 10
137.02275039028800
 20
-232.20000000000039
 30
0.00000000000000
 11
137.02275039028800
 21
-226.66244735225411
 31
0.00000000000000
  0
ARC
  5
337
330
34
100
AcDbEntity
  8
Zeichnung 5
  6
CONTINUOUS
 62
     7
370
    18
100
AcDbCircle
 10
144.21715728752602
 20
-226.19999999999979
 30
0.00000000000000
 40
2.80000000000005
100
AcDbArc
 50
224.99999999999969
 51
270.00000000000000
  0
LINE
  5
338
330
34
100
AcDbEntity
  8
Zeichnung 5
  6
CONTINUOUS
 62
     7
370
    18
100
AcDbLine
 10
145.50000000000034
 20
-228.19999999999985
 30
0.00000000000000
 11
145.50000000000034
 21
-228.99999999999974
 31
0.00000000000000
  0
INSERT
  5
46
330
34
100
AcDbEntity
  8
Zeichnung 5
 62
     7
370
    25
100
AcDbBlockReference
  2
*U16
 10
0.00000000000000
 20
0.00000000000000
 30
0.00000000000000
  0
INSERT
  5
47
330
34
100
AcDbEntity
  8
Zeichnung 5
 62
     5
370
    25
100
AcDbBlockReference
  2
*U17
 10
0.00000000000000
 20
0.00000000000000
 30
0.00000000000000
  0
ARC
  5
339
330
34
100
AcDbEntity
  8
Zeichnung 5
  6
CONTINUOUS
 62
     7
370
    18
100
AcDbCircle
 10
144.30000000000049
 20
-226.00000000000040
 30
0.00000000000000
 40
2.19999999999945
100
AcDbArc
 50
225.00000000000134
 51
270.00000000000000
  0
LINE
  5
33A
330
34
100
AcDbEntity
  8
Zeichnung 5
  6
CONTINUOUS
 62
     7
370
    18
100
AcDbLine
 10
142.74436508139053
 20
-227.55563491861045
 30
0.00000000000000
 11
140.43696395266099
 21
-225.24823378988100
 31
0.00000000000000
  0
LINE
  5
33B
330
34
100
AcDbEntity
  8
Zeichnung 5
  6
CONTINUOUS
 62
     7
370
    18
100
AcDbLine
 10
142.23725830020371
 20
-228.17989898732210
 30
0.00000000000000
 11
139.87127852771184
 21
-225.81391921483029
 31
0.00000000000000
  0
ARC
  5
33C
330
34
100
AcDbEntity
  8
Zeichnung 5
  6
CONTINUOUS
 62
     7
370
    18
100
AcDbCircle
 10
139.02275039028797
 20
-226.66244735225416
 30
0.00000000000000
 40
1.19999999999996
100
AcDbArc
 50
44.99999999999926
 51
180.00000000000000
  0
LINE
  5
33D
330
34
100
AcDbEntity
  8
Zeichnung 5
  6
CONTINUOUS
 62
     7
370
    18
100
AcDbLine
 10
137.82275039028798
 20
-232.20000000000039
 30
0.00000000000000
 11
137.82275039028798
 21
-226.66244735225416
 31
0.00000000000000
  0
LINE
  5
33E
330
34
100
AcDbEntity
  8
Zeichnung 5
  6
CONTINUOUS
 62
     7
370
    18
100
AcDbLine
 10
137.82275039028798
 20
-232.20000000000039
 30
0.00000000000000
 11
137.02275039028800
 21
-232.20000000000039
 31
0.00000000000000
  0
LINE
  5
33F
330
34
100
AcDbEntity
  8
Zeichnung 5
  6
CONTINUOUS
 62
     7
370
    18
100
AcDbLine
 10
142.10337783431169
 20
-226.91464767153164
 30
0.00000000000000
 11
141.53769240936239
 21
-227.48033309648088
 31
0.00000000000000
  0
LINE
  5
340
330
34
100
AcDbEntity
  8
Zeichnung 5
  6
CONTINUOUS
 62
     7
370
    18
100
AcDbLine
 10
138.77209724930003
 20
-225.48891720653438
 30
0.00000000000000
 11
138.60499515530805
 21
-224.70656377605462
 31
0.00000000000000
  0
LINE
  5
341
330
34
100
AcDbEntity
  8
Zeichnung 5
  6
CONTINUOUS
 62
     7
370
    18
100
AcDbLine
 10
137.82275039028798
 20
-228.48711484863369
 30
0.00000000000000
 11
137.02275039028800
 21
-228.48711484863364
 31
0.00000000000000
  0
INSERT
  5
48
330
34
100
AcDbEntity
  8
Zeichnung 5
 62
     7
370
    25
100
AcDbBlockReference
  2
*U18
 10
0.00000000000000
 20
0.00000000000000
 30
0.00000000000000
  0
INSERT
  5
49
330
34
100
AcDbEntity
  8
Zeichnung 5
 62
     7
370
    25
100
AcDbBlockReference
  2
*U19
 10
0.00000000000000
 20
0.00000000000000
 30
0.00000000000000
  0
LINE
  5
342
330
34
100
AcDbEntity
  8
Zeichnung 5
  6
CONTINUOUS
 62
     7
370
    18
100
AcDbLine
 10
139.50000000000020
 20
-234.30000000000075
 30
0.00000000000000
 11
138.00000000000037
 21
-234.30000000000075
 31
0.00000000000000
  0
LINE
  5
343
330
34
100
AcDbEntity
  8
Zeichnung 5
  6
CONTINUOUS
 62
     7
370
    18
100
AcDbLine
 10
137.40000000000020
 20
-234.30000000000075
 30
0.00000000000000
 11
136.50000000000040
 21
-234.30000000000075
 31
0.00000000000000
  0
INSERT
  5
4A
330
34
100
AcDbEntity
  8
Zeichnung 5
 62
     5
370
    25
100
AcDbBlockReference
  2
*U20
 10
0.00000000000000
 20
0.00000000000000
 30
0.00000000000000
  0
HATCH
  5
344
330
34
100
AcDbEntity
  8
Zeichnung 5
 62
     7
370
     9
100
AcDbHatch
 10
0.00000000000000
 20
0.00000000000000
 30
0.00000000000000
210
0.00000000000000
220
0.00000000000000
230
1.00000000000000
  2
SCHRAFFUR
 70
     0
 71
     0
 91
        1
 92
        0
 93
        4
 72
     1
 10
27.00000000000089
 20
-234.99999999999980
 11
27.00000000000071
 21
-237.49999999999974
 72
     1
 10
27.00000000000071
 20
-237.49999999999974
 11
83.50000000000030
 21
-237.49999999999974
 72
     1
 10
83.50000000000030
 20
-237.49999999999974
 11
83.50000000000030
 21
-234.99999999999980
 72
     1
 10
83.50000000000030
 20
-234.99999999999980
 11
27.00000000000089
 21
-234.99999999999980
 97
        0
 75
     0
 76
     0
 52
90.00000000000000
 41
1.00000000000000
 77
     0
 78
     1
 53
90.00000000000000
 43
416.41577015120549
 44
-59.67125764038165
 45
-1.00000000000000
 46
0.00000000000000
 79
     0
 98
        1
 10
0.00000000000000
 20
0.00000000000000
  0
LINE
  5
345
330
34
100
AcDbEntity
  8
Zeichnung 5
  6
CONTINUOUS
 62
     7
370
    18
100
AcDbLine
 10
85.50000000000030
 20
-234.30000000000075
 30
0.00000000000000
 11
85.50000000000037
 21
-265.99999999999983
 31
0.00000000000000
  0
LINE
  5
346
330
34
100
AcDbEntity
  8
Zeichnung 5
  6
CONTINUOUS
 62
     7
370
    18
100
AcDbLine
 10
27.00000000000089
 20
-234.99999999999972
 30
0.00000000000000
 11
85.50000000000026
 21
-234.99999999999972
 31
0.00000000000000
  0
LINE
  5
347
330
34
100
AcDbEntity
  8
Zeichnung 5
  6
CONTINUOUS
 62
     7
370
    18
100
AcDbLine
 10
27.00000000000089
 20
-237.49999999999974
 30
0.00000000000000
 11
83.50000000000030
 21
-237.49999999999974
 31
0.00000000000000
  0
ARC
  5
348
330
34
100
AcDbEntity
  8
Zeichnung 5
  6
CONTINUOUS
 62
     7
370
    18
100
AcDbCircle
 10
84.50000000000047
 20
-238.38953446724781
 30
0.00000000000000
 40
1.33838393909293
100
AcDbArc
 50
41.65419548747120
 51
138.34580451254462
  0
LINE
  5
349
330
34
100
AcDbEntity
  8
Zeichnung 5
  6
CONTINUOUS
 62
     7
370
    18
100
AcDbLine
 10
79.50000000000021
 20
-228.99999999999974
 30
0.00000000000000
 11
79.50000000000021
 21
-228.19999999999985
 31
0.00000000000000
  0
LWPOLYLINE
  5
34A
330
34
100
AcDbEntity
  8
Zeichnung 5
  6
CONTINUOUS
 62
     7
370
    25
100
AcDbPolyline
 90
        4
 70
   129
 10
52.50000000000025
 20
-234.99999999999972
 10
62.50000000000004
 20
-234.99999999999972
 10
62.50000000000004
 20
-228.99999999999974
 10
52.50000000000025
 20
-228.99999999999974
  0
LINE
  5
34B
330
34
100
AcDbEntity
  8
Zeichnung 5
  6
CONTINUOUS
 62
     7
370
    18
100
AcDbLine
 10
62.50000000000004
 20
-228.99999999999974
 30
0.00000000000000
 11
52.50000000000025
 21
-234.99999999999972
 31
0.00000000000000
  0
LINE
  5
34C
330
34
100
AcDbEntity
  8
Zeichnung 5
  6
CONTINUOUS
 62
     7
370
    18
100
AcDbLine
 10
62.50000000000004
 20
-234.99999999999972
 30
0.00000000000000
 11
52.50000000000025
 21
-228.99999999999974
 31
0.00000000000000
  0
HATCH
  5
34D
330
34
100
AcDbEntity
  8
Zeichnung 5
 62
     7
100
AcDbHatch
 10
0.00000000000000
 20
0.00000000000000
 30
0.00000000000000
210
0.00000000000000
220
0.00000000000000
230
1.00000000000000
  2
SOLID
 70
     1
 71
     0
 91
        1
 92
        0
 93
        6
 72
     2
 10
85.97724960971259
 20
-226.66244735225411
 40
2.00000000000002
 50
282.05658587736571
 51
360.00000000000034
 73
     0
 72
     1
 10
87.97724960971259
 20
-226.66244735225411
 11
87.97724960971250
 21
-228.48711484863369
 72
     1
 10
87.97724960971250
 20
-228.48711484863369
 11
87.17724960971252
 21
-228.48711484863364
 72
     1
 10
87.17724960971252
 20
-228.48711484863364
 11
87.17724960971252
 21
-226.66244735225411
 72
     2
 10
85.97724960971254
 20
-226.66244735225416
 40
1.19999999999996
 50
0.00000000000212
 51
77.94341412263300
 73
     1
 72
     1
 10
86.22790275070047
 20
-225.48891720653447
 11
86.39500484469248
 21
-224.70656377605457
 97
        0
 75
     0
 76
     0
 98
        1
 10
0.00000000000000
 20
0.00000000000000
  0
HATCH
  5
34E
330
34
100
AcDbEntity
  8
Zeichnung 5
 62
     7
100
AcDbHatch
 10
0.00000000000000
 20
0.00000000000000
 30
0.00000000000000
210
0.00000000000000
220
0.00000000000000
230
1.00000000000000
  2
SOLID
 70
     1
 71
     0
 91
        1
 92
        0
 93
        8
 72
     1
 10
79.50000000000017
 20
-228.19999999999987
 11
79.50000000000021
 21
-228.99999999999983
 72
     1
 10
79.50000000000021
 20
-228.99999999999983
 11
80.78284271247451
 21
-228.99999999999983
 72
     2
 10
80.78284271247452
 20
-226.19999999999979
 40
2.80000000000005
 50
270.00000000000000
 51
314.99999999999920
 73
     1
 72
     1
 10
82.76274169979682
 20
-228.17989898732219
 11
83.46230759063808
 21
-227.48033309648085
 72
     1
 10
83.46230759063808
 20
-227.48033309648085
 11
82.89662216568883
 21
-226.91464767153170
 72
     1
 10
82.89662216568883
 20
-226.91464767153170
 11
82.25563491861000
 21
-227.55563491861045
 72
     2
 10
80.70000000000005
 20
-226.00000000000040
 40
2.19999999999944
 50
45.00000000000182
 51
90.00000000000028
 73
     0
 72
     1
 10
80.70000000000003
 20
-228.19999999999985
 11
79.50000000000017
 21
-228.19999999999987
 97
        0
 75
     0
 76
     0
 98
        1
 10
0.00000000000000
 20
0.00000000000000
  0
ARC
  5
34F
330
34
100
AcDbEntity
  8
Zeichnung 5
  6
CONTINUOUS
 62
     7
370
    18
100
AcDbCircle
 10
85.97724960971254
 20
-226.66244735225411
 30
0.00000000000000
 40
2.00000000000005
100
AcDbArc
 50
359.99999999999977
 51
134.99999999999932
  0
LINE
  5
350
330
34
100
AcDbEntity
  8
Zeichnung 5
  6
CONTINUOUS
 62
     7
370
    18
100
AcDbLine
 10
87.97724960971250
 20
-226.66244735225411
 30
0.00000000000000
 11
87.97724960971250
 21
-232.20000000000039
 31
0.00000000000000
  0
ARC
  5
351
330
34
100
AcDbEntity
  8
Zeichnung 5
  6
CONTINUOUS
 62
     7
370
    18
100
AcDbCircle
 10
80.78284271247452
 20
-226.19999999999979
 30
0.00000000000000
 40
2.80000000000005
100
AcDbArc
 50
269.99999999999989
 51
315.00000000000017
  0
LINE
  5
352
330
34
100
AcDbEntity
  8
Zeichnung 5
  6
CONTINUOUS
 62
     7
370
    18
100
AcDbLine
 10
79.50000000000017
 20
-228.99999999999974
 30
0.00000000000000
 11
79.50000000000017
 21
-228.19999999999985
 31
0.00000000000000
  0
ARC
  5
353
330
34
100
AcDbEntity
  8
Zeichnung 5
  6
CONTINUOUS
 62
     7
370
    18
100
AcDbCircle
 10
80.70000000000005
 20
-226.00000000000040
 30
0.00000000000000
 40
2.19999999999945
100
AcDbArc
 50
269.99999999999955
 51
314.99999999999818
  0
LINE
  5
354
330
34
100
AcDbEntity
  8
Zeichnung 5
  6
CONTINUOUS
 62
     7
370
    18
100
AcDbLine
 10
84.56303604733949
 20
-225.24823378988100
 30
0.00000000000000
 11
82.25563491861000
 21
-227.55563491861045
 31
0.00000000000000
  0
LINE
  5
355
330
34
100
AcDbEntity
  8
Zeichnung 5
  6
CONTINUOUS
 62
     7
370
    18
100
AcDbLine
 10
85.12872147228867
 20
-225.81391921483029
 30
0.00000000000000
 11
82.76274169979682
 21
-228.17989898732210
 31
0.00000000000000
  0
ARC
  5
356
330
34
100
AcDbEntity
  8
Zeichnung 5
  6
CONTINUOUS
 62
     7
370
    18
100
AcDbCircle
 10
85.97724960971254
 20
-226.66244735225416
 30
0.00000000000000
 40
1.19999999999996
100
AcDbArc
 50
0.00000000000040
 51
135.00000000000114
  0
LINE
  5
357
330
34
100
AcDbEntity
  8
Zeichnung 5
  6
CONTINUOUS
 62
     7
370
    18
100
AcDbLine
 10
87.17724960971252
 20
-226.66244735225416
 30
0.00000000000000
 11
87.17724960971252
 21
-232.20000000000039
 31
0.00000000000000
  0
LINE
  5
358
330
34
100
AcDbEntity
  8
Zeichnung 5
  6
CONTINUOUS
 62
     7
370
    18
100
AcDbLine
 10
87.97724960971250
 20
-232.20000000000039
 30
0.00000000000000
 11
87.17724960971252
 21
-232.20000000000039
 31
0.00000000000000
  0
LINE
  5
359
330
34
100
AcDbEntity
  8
Zeichnung 5
  6
CONTINUOUS
 62
     7
370
    18
100
AcDbLine
 10
83.46230759063812
 20
-227.48033309648088
 30
0.00000000000000
 11
82.89662216568883
 21
-226.91464767153164
 31
0.00000000000000
  0
LINE
  5
35A
330
34
100
AcDbEntity
  8
Zeichnung 5
  6
CONTINUOUS
 62
     7
370
    18
100
AcDbLine
 10
86.39500484469248
 20
-224.70656377605462
 30
0.00000000000000
 11
86.22790275070047
 21
-225.48891720653438
 31
0.00000000000000
  0
LINE
  5
35B
330
34
100
AcDbEntity
  8
Zeichnung 5
  6
CONTINUOUS
 62
     7
370
    18
100
AcDbLine
 10
87.97724960971250
 20
-228.48711484863364
 30
0.00000000000000
 11
87.17724960971252
 21
-228.48711484863369
 31
0.00000000000000
  0
LINE
  5
35C
330
34
100
AcDbEntity
  8
Zeichnung 5
  6
CONTINUOUS
 62
     7
370
    18
100
AcDbLine
 10
87.00000000000013
 20
-234.30000000000075
 30
0.00000000000000
 11
85.50000000000030
 21
-234.30000000000075
 31
0.00000000000000
  0
LINE
  5
35D
330
34
100
AcDbEntity
  8
Zeichnung 5
  6
CONTINUOUS
 62
     7
370
    18
100
AcDbLine
 10
88.50000000000010
 20
-234.30000000000075
 30
0.00000000000000
 11
87.60000000000029
 21
-234.30000000000075
 31
0.00000000000000
  0
INSERT
  5
4B
330
34
100
AcDbEntity
  8
Zeichnung 5
 62
     5
370
    25
100
AcDbBlockReference
  2
*U21
 10
0.00000000000000
 20
0.00000000000000
 30
0.00000000000000
  0
INSERT
  5
4C
330
34
100
AcDbEntity
  8
Zeichnung 5
 62
     7
370
    25
100
AcDbBlockReference
  2
*U22
 10
0.00000000000000
 20
0.00000000000000
 30
0.00000000000000
  0
INSERT
  5
4D
330
34
100
AcDbEntity
  8
Zeichnung 5
 62
     5
370
    25
100
AcDbBlockReference
  2
*U23
 10
0.00000000000000
 20
0.00000000000000
 30
0.00000000000000
  0
MTEXT
  5
35E
330
34
100
AcDbEntity
  8
Zeichnung 5
 62
     7
370
    25
100
AcDbMText
 10
25.00000000000036
 20
-79.99999999999965
 30
0.00000000000000
 40
2.50000000000000
 41
0.00000000000000
 71
     7
 72
     1
  1
\fArial|b0|i0;Ausführung entspricht DIN 4108 Beiblatt 2 [2019-06]\PDetail Nr. 170; Kategorie B
 11
1.00000000000000
 21
0.00000000000000
 31
0.00000000000000
 73
     1
 44
1.00000000000000
  0
INSERT
  5
4E
330
34
100
AcDbEntity
  8
Zeichnung 5
 62
     5
370
    25
100
AcDbBlockReference
  2
*U24
 10
0.00000000000000
 20
0.00000000000000
 30
0.00000000000000
  0
MTEXT
  5
35F
330
34
100
AcDbEntity
  8
Planrahmen
 62
     7
370
    25
100
AcDbMText
 10
25.00000000000025
 20
-282.99999999999960
 30
0.00000000000000
 40
2.50000000000000
 41
0.00000000000000
 71
     1
 72
     1
  3
\fArial Narrow|b0|i0;Wir übernehmen keine Haftung für die Vollständigkeit und Eignung der abgebildeten Darstellungen an konkreten Objekten. Die projektbezogene\PAusführbarkeit der Details muss in jedem Fall vom jeweiligen Fachplaner/Architekten geprü
  1
ft werden.
 11
1.00000000000000
 21
0.00000000000000
 31
0.00000000000000
 73
     1
 44
1.00000000000000
  0
INSERT
  5
4F
330
34
100
AcDbEntity
  8
Planrahmen
 62
     5
370
    25
100
AcDbBlockReference
  2
*U25
 10
0.00000000000000
 20
0.00000000000000
 30
0.00000000000000
  0
INSERT
  5
50
330
34
100
AcDbEntity
  8
Planrahmen
 62
     5
370
    25
100
AcDbBlockReference
  2
*U26
 10
0.00000000000000
 20
0.00000000000000
 30
0.00000000000000
  0
ENDSEC
  0
SECTION
  2
OBJECTS
  0
DICTIONARY
  5
360
330
0
100
AcDbDictionary
281
     1
  3
ACAD_GROUP
350
361
  3
ACAD_PLOTSTYLENAME
350
362
  3
ACAD_MLINESTYLE
350
363
  3
ACAD_LAYOUT
350
364
  0
DICTIONARY
  5
361
102
{ACAD_REACTORS
330
360
102
}
330
360
100
AcDbDictionary
281
     1
  0
ACDBDICTIONARYWDFLT
  5
362
102
{ACAD_REACTORS
330
360
102
}
330
360
100
AcDbDictionary
281
     1
  3
Normal
350
1
100
AcDbDictionaryWithDefault
340
1
  0
DICTIONARY
  5
363
102
{ACAD_REACTORS
330
360
102
}
330
360
100
AcDbDictionary
281
     1
  3
STANDARD
350
365
  0
DICTIONARY
  5
364
102
{ACAD_REACTORS
330
360
102
}
330
360
100
AcDbDictionary
281
     1
  0
ACDBPLACEHOLDER
  5
1
102
{ACAD_REACTORS
330
362
102
}
330
362
  0
MLINESTYLE
  5
365
102
{ACAD_REACTORS
330
363
102
}
330
363
100
AcDbMlineStyle
  2
STANDARD
 70
     0
  3

 62
   256
 51
90.00000000000000
 52
90.00000000000000
 71
     2
 49
0.50000000000000
 62
   256
  6
BYLAYER
 49
-0.50000000000000
 62
   256
  6
BYLAYER
  0
ENDSEC
  0
EOF
