  0
SECTION
  2
HEADER
  9
$ACADVER
  1
AC1015
  9
$INSBASE
 10
9.59353433611984
 20
-1.41199704510082
 30
0.00000000000000
  9
$EXTMIN
 10
-81.79187068672248
 20
-145.14488603110374
 30
0.00000000000000
  9
$EXTMAX
 10
100.97893935896215
 20
142.32089194090207
 30
0.00000000000000
  9
$LTSCALE
 40
1.00000000000000
  9
$CLAYER
  8
Planrahmen
  9
$TDCREATE
 40
2459081.36574074070000
  9
$TDINDWG
 40
0.06133794662269
  9
$HANDSEED
  5
FF0000
  0
ENDSEC
  0
SECTION
  2
CLASSES
  0
CLASS
  1
ACDBDICTIONARYWDFLT
  2
AcDbDictionaryWithDefault
  3
AutoCAD 2000
 90
        0
280
     0
281
     0
  0
CLASS
  1
ACDBPLACEHOLDER
  2
AcDbPlaceHolder
  3
AutoCAD 2000
 90
        0
280
     0
281
     0
  0
ENDSEC
  0
SECTION
  2
TABLES
  0
TABLE
  2
VPORT
  5
2
330
0
100
AcDbSymbolTable
 70
     0
  0
ENDTAB
  0
TABLE
  2
LTYPE
  5
3
330
0
100
AcDbSymbolTable
 70
     8
  0
LTYPE
  5
4
330
3
100
AcDbSymbolTableRecord
100
AcDbLinetypeTableRecord
  2
BYBLOCK
 70
     0
  3

 72
    65
 73
     0
 40
0.00000000000000
  0
LTYPE
  5
5
330
3
100
AcDbSymbolTableRecord
100
AcDbLinetypeTableRecord
  2
BYLAYER
 70
     0
  3

 72
    65
 73
     0
 40
0.00000000000000
  0
LTYPE
  5
6
330
3
100
AcDbSymbolTableRecord
100
AcDbLinetypeTableRecord
  2
CONTINUOUS
 70
     0
  3
Ausgezogene Linie
 72
    65
 73
     0
 40
0.00000000000000
  0
LTYPE
  5
7
330
3
100
AcDbSymbolTableRecord
100
AcDbLinetypeTableRecord
  2
DC_VERDECKT
 70
     0
  3
_ _ _ _ _ _ _ _ _ _
 72
    65
 73
     2
 40
7.00000000000000
 49
4.66900000000000
 74
     0
 49
-2.33100000000000
 74
     0
  0
LTYPE
  5
8
330
3
100
AcDbSymbolTableRecord
100
AcDbLinetypeTableRecord
  2
DC_GEPUNKTET
 70
     0
  3
...................
 72
    65
 73
     2
 40
2.00000000000000
 49
0.50000000000000
 74
     0
 49
-1.50000000000000
 74
     0
  0
LTYPE
  5
9
330
3
100
AcDbSymbolTableRecord
100
AcDbLinetypeTableRecord
  2
DC_MITTELLINIE
 70
     0
  3
____ _ ____ _ ____ 
 72
    65
 73
     4
 40
20.00000000000000
 49
15.00000000000000
 74
     0
 49
-2.00000000000000
 74
     0
 49
1.00000000000000
 74
     0
 49
-2.00000000000000
 74
     0
  0
LTYPE
  5
A
330
3
100
AcDbSymbolTableRecord
100
AcDbLinetypeTableRecord
  2
DC_PHANTOM
 70
     0
  3
_______ _ _ _______
 72
    65
 73
     6
 40
25.00000000000000
 49
17.00000000000000
 74
     0
 49
-2.00000000000000
 74
     0
 49
1.00000000000000
 74
     0
 49
-2.00000000000000
 74
     0
 49
1.00000000000000
 74
     0
 49
-2.00000000000000
 74
     0
  0
LTYPE
  5
B
330
3
100
AcDbSymbolTableRecord
100
AcDbLinetypeTableRecord
  2
DC_STRICHDREIPUNKTIERT
 70
     0
  3
______ _ _ _ ______
 72
    65
 73
     8
 40
28.00000000000000
 49
18.76000000000000
 74
     0
 49
-1.68000000000000
 74
     0
 49
0.84000000000000
 74
     0
 49
-1.68000000000000
 74
     0
 49
0.84000000000000
 74
     0
 49
-1.68000000000000
 74
     0
 49
0.84000000000000
 74
     0
 49
-1.68000000000000
 74
     0
  0
ENDTAB
  0
TABLE
  2
LAYER
  5
C
330
0
100
AcDbSymbolTable
 70
     3
  0
LAYER
  5
D
330
C
100
AcDbSymbolTableRecord
100
AcDbLayerTableRecord
  2
0
 70
     0
 62
     7
  6
CONTINUOUS
370
    25
390
1
  0
LAYER
  5
E
330
C
100
AcDbSymbolTableRecord
100
AcDbLayerTableRecord
  2
Planrahmen
 70
    64
 62
     7
  6
CONTINUOUS
370
    25
390
1
  0
LAYER
  5
F
330
C
100
AcDbSymbolTableRecord
100
AcDbLayerTableRecord
  2
Zeichnung 5
 70
    64
 62
     7
  6
CONTINUOUS
370
    25
390
1
  0
ENDTAB
  0
TABLE
  2
STYLE
  5
10
330
0
100
AcDbSymbolTable
 70
     2
  0
STYLE
  5
11
330
10
100
AcDbSymbolTableRecord
100
AcDbTextStyleTableRecord
  2
STANDARD
 70
     0
 40
0.00000000000000
 41
1.00000000000000
 50
0.00000000000000
 71
     0
 42
3.50000000000000
  3
txt
  4

  0
ENDTAB
  0
TABLE
  2
VIEW
  5
12
330
0
100
AcDbSymbolTable
 70
     0
  0
ENDTAB
  0
TABLE
  2
UCS
  5
13
330
0
100
AcDbSymbolTable
 70
     0
  0
ENDTAB
  0
TABLE
  2
APPID
  5
14
330
0
100
AcDbSymbolTable
 70
     2
  0
APPID
  5
15
330
14
100
AcDbSymbolTableRecord
100
AcDbRegAppTableRecord
  2
ACAD
 70
     0
  0
APPID
  5
16
330
14
100
AcDbSymbolTableRecord
100
AcDbRegAppTableRecord
  2
DIG-CAD
 70
     0
  0
ENDTAB
  0
TABLE
  2
DIMSTYLE
  5
17
330
0
100
AcDbSymbolTable
 70
     0
100
AcDbDimStyleTable
 71
     0
  0
ENDTAB
  0
TABLE
  2
BLOCK_RECORD
  5
38
330
0
100
AcDbSymbolTable
 70
    32
  0
BLOCK_RECORD
  5
39
330
38
100
AcDbSymbolTableRecord
100
AcDbBlockTableRecord
  2
*MODEL_SPACE
340
0
  0
BLOCK_RECORD
  5
3A
330
38
100
AcDbSymbolTableRecord
100
AcDbBlockTableRecord
  2
*PAPER_SPACE
340
0
  0
BLOCK_RECORD
  5
18
330
38
100
AcDbSymbolTableRecord
100
AcDbBlockTableRecord
  2
*U1
340
0
102
{BLKREFS
331
3B
102
}
  0
BLOCK_RECORD
  5
19
330
38
100
AcDbSymbolTableRecord
100
AcDbBlockTableRecord
  2
*U2
340
0
102
{BLKREFS
331
3C
102
}
  0
BLOCK_RECORD
  5
1A
330
38
100
AcDbSymbolTableRecord
100
AcDbBlockTableRecord
  2
*U3
340
0
102
{BLKREFS
331
3D
102
}
  0
BLOCK_RECORD
  5
1B
330
38
100
AcDbSymbolTableRecord
100
AcDbBlockTableRecord
  2
*U4
340
0
102
{BLKREFS
331
3E
102
}
  0
BLOCK_RECORD
  5
1C
330
38
100
AcDbSymbolTableRecord
100
AcDbBlockTableRecord
  2
*U5
340
0
102
{BLKREFS
331
3F
102
}
  0
BLOCK_RECORD
  5
1D
330
38
100
AcDbSymbolTableRecord
100
AcDbBlockTableRecord
  2
*U6
340
0
102
{BLKREFS
331
40
102
}
  0
BLOCK_RECORD
  5
1E
330
38
100
AcDbSymbolTableRecord
100
AcDbBlockTableRecord
  2
*U7
340
0
102
{BLKREFS
331
41
102
}
  0
BLOCK_RECORD
  5
1F
330
38
100
AcDbSymbolTableRecord
100
AcDbBlockTableRecord
  2
*U8
340
0
102
{BLKREFS
331
42
102
}
  0
BLOCK_RECORD
  5
20
330
38
100
AcDbSymbolTableRecord
100
AcDbBlockTableRecord
  2
*U9
340
0
102
{BLKREFS
331
43
102
}
  0
BLOCK_RECORD
  5
21
330
38
100
AcDbSymbolTableRecord
100
AcDbBlockTableRecord
  2
*U10
340
0
102
{BLKREFS
331
44
102
}
  0
BLOCK_RECORD
  5
22
330
38
100
AcDbSymbolTableRecord
100
AcDbBlockTableRecord
  2
*U11
340
0
102
{BLKREFS
331
45
102
}
  0
BLOCK_RECORD
  5
23
330
38
100
AcDbSymbolTableRecord
100
AcDbBlockTableRecord
  2
*U12
340
0
102
{BLKREFS
331
46
102
}
  0
BLOCK_RECORD
  5
24
330
38
100
AcDbSymbolTableRecord
100
AcDbBlockTableRecord
  2
*U13
340
0
102
{BLKREFS
331
47
102
}
  0
BLOCK_RECORD
  5
25
330
38
100
AcDbSymbolTableRecord
100
AcDbBlockTableRecord
  2
*U14
340
0
102
{BLKREFS
331
48
102
}
  0
BLOCK_RECORD
  5
26
330
38
100
AcDbSymbolTableRecord
100
AcDbBlockTableRecord
  2
*U15
340
0
102
{BLKREFS
331
49
102
}
  0
BLOCK_RECORD
  5
27
330
38
100
AcDbSymbolTableRecord
100
AcDbBlockTableRecord
  2
*U16
340
0
102
{BLKREFS
331
4A
102
}
  0
BLOCK_RECORD
  5
28
330
38
100
AcDbSymbolTableRecord
100
AcDbBlockTableRecord
  2
*U17
340
0
102
{BLKREFS
331
4B
102
}
  0
BLOCK_RECORD
  5
29
330
38
100
AcDbSymbolTableRecord
100
AcDbBlockTableRecord
  2
*U18
340
0
102
{BLKREFS
331
4C
102
}
  0
BLOCK_RECORD
  5
2A
330
38
100
AcDbSymbolTableRecord
100
AcDbBlockTableRecord
  2
*U19
340
0
102
{BLKREFS
331
4D
102
}
  0
BLOCK_RECORD
  5
2B
330
38
100
AcDbSymbolTableRecord
100
AcDbBlockTableRecord
  2
*U20
340
0
102
{BLKREFS
331
4E
102
}
  0
BLOCK_RECORD
  5
2C
330
38
100
AcDbSymbolTableRecord
100
AcDbBlockTableRecord
  2
*U21
340
0
102
{BLKREFS
331
4F
102
}
  0
BLOCK_RECORD
  5
2D
330
38
100
AcDbSymbolTableRecord
100
AcDbBlockTableRecord
  2
*U22
340
0
102
{BLKREFS
331
50
102
}
  0
BLOCK_RECORD
  5
2E
330
38
100
AcDbSymbolTableRecord
100
AcDbBlockTableRecord
  2
*U23
340
0
102
{BLKREFS
331
51
102
}
  0
BLOCK_RECORD
  5
2F
330
38
100
AcDbSymbolTableRecord
100
AcDbBlockTableRecord
  2
*U24
340
0
102
{BLKREFS
331
52
102
}
  0
BLOCK_RECORD
  5
30
330
38
100
AcDbSymbolTableRecord
100
AcDbBlockTableRecord
  2
*U25
340
0
102
{BLKREFS
331
53
102
}
  0
BLOCK_RECORD
  5
31
330
38
100
AcDbSymbolTableRecord
100
AcDbBlockTableRecord
  2
*U26
340
0
102
{BLKREFS
331
54
102
}
  0
BLOCK_RECORD
  5
32
330
38
100
AcDbSymbolTableRecord
100
AcDbBlockTableRecord
  2
*U27
340
0
102
{BLKREFS
331
55
102
}
  0
BLOCK_RECORD
  5
33
330
38
100
AcDbSymbolTableRecord
100
AcDbBlockTableRecord
  2
*U28
340
0
102
{BLKREFS
331
56
102
}
  0
BLOCK_RECORD
  5
34
330
38
100
AcDbSymbolTableRecord
100
AcDbBlockTableRecord
  2
*U29
340
0
102
{BLKREFS
331
57
102
}
  0
BLOCK_RECORD
  5
35
330
38
100
AcDbSymbolTableRecord
100
AcDbBlockTableRecord
  2
*U30
340
0
102
{BLKREFS
331
58
102
}
  0
BLOCK_RECORD
  5
36
330
38
100
AcDbSymbolTableRecord
100
AcDbBlockTableRecord
  2
*U31
340
0
102
{BLKREFS
331
59
102
}
  0
BLOCK_RECORD
  5
37
330
38
100
AcDbSymbolTableRecord
100
AcDbBlockTableRecord
  2
*U32
340
0
102
{BLKREFS
331
5A
102
}
  0
ENDTAB
  0
ENDSEC
  0
SECTION
  2
BLOCKS
  0
BLOCK
  5
5B
330
39
100
AcDbEntity
  8
0
100
AcDbBlockBegin
  2
*MODEL_SPACE
 70
     0
 10
0.00000000000000
 20
0.00000000000000
 30
0.00000000000000
  3
*MODEL_SPACE
  1

  0
ENDBLK
  5
5C
330
39
100
AcDbEntity
  8
0
100
AcDbBlockEnd
  0
BLOCK
  5
5D
330
3A
100
AcDbEntity
 67
     1
  8
0
100
AcDbBlockBegin
  2
*PAPER_SPACE
 70
     0
 10
0.00000000000000
 20
0.00000000000000
 30
0.00000000000000
  3
*PAPER_SPACE
  1

  0
ENDBLK
  5
5E
330
3A
100
AcDbEntity
 67
     1
  8
0
100
AcDbBlockEnd
  0
BLOCK
  5
5F
330
18
100
AcDbEntity
  8
0
100
AcDbBlockBegin
  2
*U1
 70
     1
 10
0.00000000000000
 20
0.00000000000000
 30
0.00000000000000
  3
*U1
  1

  0
ARC
  5
60
330
18
100
AcDbEntity
  8
Zeichnung 5
  6
CONTINUOUS
 62
     7
370
    18
100
AcDbCircle
 10
-34.24999999999999
 20
-3.49999999999930
 30
0.00000000000000
 40
3.24999999999998
100
AcDbArc
 50
180.00000000000000
 51
283.30620621631738
  0
LINE
  5
61
330
18
100
AcDbEntity
  8
Zeichnung 5
  6
CONTINUOUS
 62
     7
370
    18
100
AcDbLine
 10
-20.49800423591359
 20
-3.58724966792198
 30
0.00000000000000
 11
-33.50199576408630
 21
-6.66275033207659
 31
0.00000000000000
  0
ARC
  5
62
330
18
100
AcDbEntity
  8
Zeichnung 5
  6
CONTINUOUS
 62
     7
370
    18
100
AcDbCircle
 10
-19.74999999999989
 20
-6.74999999999928
 30
0.00000000000000
 40
3.24999999999998
100
AcDbArc
 50
256.69379378368274
 51
103.30620621631738
  0
LINE
  5
63
330
18
100
AcDbEntity
  8
Zeichnung 5
  6
CONTINUOUS
 62
     7
370
    18
100
AcDbLine
 10
-33.50199576408631
 20
-6.83724966792196
 30
0.00000000000000
 11
-20.49800423591358
 21
-9.91275033207658
 31
0.00000000000000
  0
ARC
  5
64
330
18
100
AcDbEntity
  8
Zeichnung 5
  6
CONTINUOUS
 62
     7
370
    18
100
AcDbCircle
 10
-34.24999999999999
 20
-9.99999999999926
 30
0.00000000000000
 40
3.24999999999998
100
AcDbArc
 50
76.69379378368274
 51
283.30620621631738
  0
LINE
  5
65
330
18
100
AcDbEntity
  8
Zeichnung 5
  6
CONTINUOUS
 62
     7
370
    18
100
AcDbLine
 10
-20.49800423591359
 20
-10.08724966792195
 30
0.00000000000000
 11
-33.50199576408630
 21
-13.16275033207656
 31
0.00000000000000
  0
ARC
  5
66
330
18
100
AcDbEntity
  8
Zeichnung 5
  6
CONTINUOUS
 62
     7
370
    18
100
AcDbCircle
 10
-19.74999999999989
 20
-13.24999999999924
 30
0.00000000000000
 40
3.24999999999998
100
AcDbArc
 50
256.69379378368274
 51
103.30620621631738
  0
LINE
  5
67
330
18
100
AcDbEntity
  8
Zeichnung 5
  6
CONTINUOUS
 62
     7
370
    18
100
AcDbLine
 10
-33.50199576408630
 20
-13.33724966792193
 30
0.00000000000000
 11
-20.49800423591358
 21
-16.41275033207654
 31
0.00000000000000
  0
ARC
  5
68
330
18
100
AcDbEntity
  8
Zeichnung 5
  6
CONTINUOUS
 62
     7
370
    18
100
AcDbCircle
 10
-34.24999999999999
 20
-16.49999999999923
 30
0.00000000000000
 40
3.24999999999998
100
AcDbArc
 50
76.69379378368265
 51
283.30620621631726
  0
LINE
  5
69
330
18
100
AcDbEntity
  8
Zeichnung 5
  6
CONTINUOUS
 62
     7
370
    18
100
AcDbLine
 10
-20.49800423591358
 20
-16.58724966792191
 30
0.00000000000000
 11
-33.50199576408630
 21
-19.66275033207652
 31
0.00000000000000
  0
ARC
  5
6A
330
18
100
AcDbEntity
  8
Zeichnung 5
  6
CONTINUOUS
 62
     7
370
    18
100
AcDbCircle
 10
-19.74999999999989
 20
-19.74999999999921
 30
0.00000000000000
 40
3.24999999999998
100
AcDbArc
 50
256.69379378368274
 51
103.30620621631738
  0
LINE
  5
6B
330
18
100
AcDbEntity
  8
Zeichnung 5
  6
CONTINUOUS
 62
     7
370
    18
100
AcDbLine
 10
-33.50199576408630
 20
-19.83724966792190
 30
0.00000000000000
 11
-20.49800423591358
 21
-22.91275033207651
 31
0.00000000000000
  0
ARC
  5
6C
330
18
100
AcDbEntity
  8
Zeichnung 5
  6
CONTINUOUS
 62
     7
370
    18
100
AcDbCircle
 10
-34.24999999999999
 20
-22.99999999999919
 30
0.00000000000000
 40
3.24999999999998
100
AcDbArc
 50
76.69379378368274
 51
283.30620621631726
  0
LINE
  5
6D
330
18
100
AcDbEntity
  8
Zeichnung 5
  6
CONTINUOUS
 62
     7
370
    18
100
AcDbLine
 10
-20.49800423591358
 20
-23.08724966792188
 30
0.00000000000000
 11
-33.50199576408631
 21
-26.16275033207649
 31
0.00000000000000
  0
ARC
  5
6E
330
18
100
AcDbEntity
  8
Zeichnung 5
  6
CONTINUOUS
 62
     7
370
    18
100
AcDbCircle
 10
-19.74999999999989
 20
-26.24999999999918
 30
0.00000000000000
 40
3.24999999999998
100
AcDbArc
 50
256.69379378368274
 51
103.30620621631738
  0
LINE
  5
6F
330
18
100
AcDbEntity
  8
Zeichnung 5
  6
CONTINUOUS
 62
     7
370
    18
100
AcDbLine
 10
-33.50199576408631
 20
-26.33724966792186
 30
0.00000000000000
 11
-20.49800423591358
 21
-29.41275033207647
 31
0.00000000000000
  0
ARC
  5
70
330
18
100
AcDbEntity
  8
Zeichnung 5
  6
CONTINUOUS
 62
     7
370
    18
100
AcDbCircle
 10
-34.24999999999999
 20
-29.49999999999916
 30
0.00000000000000
 40
3.24999999999998
100
AcDbArc
 50
76.69379378368274
 51
283.30620621631726
  0
LINE
  5
71
330
18
100
AcDbEntity
  8
Zeichnung 5
  6
CONTINUOUS
 62
     7
370
    18
100
AcDbLine
 10
-20.49800423591357
 20
-29.58724966792184
 30
0.00000000000000
 11
-33.50199576408631
 21
-32.66275033207646
 31
0.00000000000000
  0
ARC
  5
72
330
18
100
AcDbEntity
  8
Zeichnung 5
  6
CONTINUOUS
 62
     7
370
    18
100
AcDbCircle
 10
-19.74999999999988
 20
-32.74999999999913
 30
0.00000000000000
 40
3.24999999999998
100
AcDbArc
 50
256.69379378368268
 51
103.30620621631721
  0
LINE
  5
73
330
18
100
AcDbEntity
  8
Zeichnung 5
  6
CONTINUOUS
 62
     7
370
    18
100
AcDbLine
 10
-33.50199576408631
 20
-32.83724966792182
 30
0.00000000000000
 11
-20.49800423591357
 21
-35.91275033207644
 31
0.00000000000000
  0
ARC
  5
74
330
18
100
AcDbEntity
  8
Zeichnung 5
  6
CONTINUOUS
 62
     7
370
    18
100
AcDbCircle
 10
-34.24999999999999
 20
-35.99999999999913
 30
0.00000000000000
 40
3.24999999999998
100
AcDbArc
 50
76.69379378368274
 51
283.30620621631726
  0
LINE
  5
75
330
18
100
AcDbEntity
  8
Zeichnung 5
  6
CONTINUOUS
 62
     7
370
    18
100
AcDbLine
 10
-20.49800423591357
 20
-36.08724966792181
 30
0.00000000000000
 11
-33.50199576408631
 21
-39.16275033207643
 31
0.00000000000000
  0
ARC
  5
76
330
18
100
AcDbEntity
  8
Zeichnung 5
  6
CONTINUOUS
 62
     7
370
    18
100
AcDbCircle
 10
-19.74999999999988
 20
-39.24999999999911
 30
0.00000000000000
 40
3.24999999999998
100
AcDbArc
 50
256.69379378368274
 51
103.30620621631726
  0
LINE
  5
77
330
18
100
AcDbEntity
  8
Zeichnung 5
  6
CONTINUOUS
 62
     7
370
    18
100
AcDbLine
 10
-33.50199576408631
 20
-39.33724966792179
 30
0.00000000000000
 11
-20.49800423591357
 21
-42.41275033207640
 31
0.00000000000000
  0
ARC
  5
78
330
18
100
AcDbEntity
  8
Zeichnung 5
  6
CONTINUOUS
 62
     7
370
    18
100
AcDbCircle
 10
-34.24999999999999
 20
-42.49999999999909
 30
0.00000000000000
 40
3.24999999999998
100
AcDbArc
 50
76.69379378368274
 51
283.30620621631726
  0
LINE
  5
79
330
18
100
AcDbEntity
  8
Zeichnung 5
  6
CONTINUOUS
 62
     7
370
    18
100
AcDbLine
 10
-20.49800423591357
 20
-42.58724966792177
 30
0.00000000000000
 11
-33.50199576408631
 21
-45.66275033207639
 31
0.00000000000000
  0
ARC
  5
7A
330
18
100
AcDbEntity
  8
Zeichnung 5
  6
CONTINUOUS
 62
     7
370
    18
100
AcDbCircle
 10
-19.74999999999988
 20
-45.74999999999907
 30
0.00000000000000
 40
3.24999999999998
100
AcDbArc
 50
256.69379378368274
 51
103.30620621631726
  0
LINE
  5
7B
330
18
100
AcDbEntity
  8
Zeichnung 5
  6
CONTINUOUS
 62
     7
370
    18
100
AcDbLine
 10
-33.50199576408630
 20
-45.83724966792175
 30
0.00000000000000
 11
-20.49800423591357
 21
-48.91275033207636
 31
0.00000000000000
  0
ARC
  5
7C
330
18
100
AcDbEntity
  8
Zeichnung 5
  6
CONTINUOUS
 62
     7
370
    18
100
AcDbCircle
 10
-34.24999999999999
 20
-48.99999999999906
 30
0.00000000000000
 40
3.24999999999998
100
AcDbArc
 50
76.69379378368268
 51
283.30620621631732
  0
LINE
  5
7D
330
18
100
AcDbEntity
  8
Zeichnung 5
  6
CONTINUOUS
 62
     7
370
    18
100
AcDbLine
 10
-20.49800423591357
 20
-49.08724966792175
 30
0.00000000000000
 11
-33.50199576408630
 21
-52.16275033207636
 31
0.00000000000000
  0
ARC
  5
7E
330
18
100
AcDbEntity
  8
Zeichnung 5
  6
CONTINUOUS
 62
     7
370
    18
100
AcDbCircle
 10
-19.74999999999988
 20
-52.24999999999905
 30
0.00000000000000
 40
3.24999999999999
100
AcDbArc
 50
314.99999999999989
 51
103.30620621631726
  0
LINE
  5
7F
330
18
100
AcDbEntity
  8
Zeichnung 5
  6
CONTINUOUS
 62
     7
370
    18
100
AcDbLine
 10
-33.50199576408630
 20
-52.33724966792173
 30
0.00000000000000
 11
-22.76549271168661
 21
-54.87647942647826
 31
0.00000000000000
  0
ARC
  5
80
330
18
100
AcDbEntity
  8
Zeichnung 5
  6
CONTINUOUS
 62
     7
370
    18
100
AcDbCircle
 10
-34.24999999999999
 20
-55.49999999999903
 30
0.00000000000000
 40
3.24999999999999
100
AcDbArc
 50
76.69379378368274
 51
180.00000000000000
  0
ENDBLK
  5
81
330
18
100
AcDbEntity
  8
0
100
AcDbBlockEnd
  0
BLOCK
  5
82
330
19
100
AcDbEntity
  8
0
100
AcDbBlockBegin
  2
*U2
 70
     1
 10
0.00000000000000
 20
0.00000000000000
 30
0.00000000000000
  3
*U2
  1

  0
LINE
  5
83
330
19
100
AcDbEntity
  8
Zeichnung 5
  6
CONTINUOUS
 62
     7
370
    18
100
AcDbLine
 10
6.70000000000037
 20
17.50000000000034
 30
0.00000000000000
 11
6.70000000000037
 21
14.70000000000011
 31
0.00000000000000
  0
LINE
  5
84
330
19
100
AcDbEntity
  8
Zeichnung 5
  6
CONTINUOUS
 62
     7
370
    18
100
AcDbLine
 10
6.70000000000037
 20
14.70000000000020
 30
0.00000000000000
 11
8.30000000000037
 21
14.70000000000020
 31
0.00000000000000
  0
LINE
  5
85
330
19
100
AcDbEntity
  8
Zeichnung 5
  6
CONTINUOUS
 62
     7
370
    18
100
AcDbLine
 10
8.30000000000037
 20
14.70000000000011
 30
0.00000000000000
 11
8.30000000000037
 21
15.70000000000027
 31
0.00000000000000
  0
LINE
  5
86
330
19
100
AcDbEntity
  8
Zeichnung 5
  6
CONTINUOUS
 62
     7
370
    18
100
AcDbLine
 10
8.30000000000037
 20
15.70000000000027
 30
0.00000000000000
 11
10.70000000000029
 21
15.70000000000027
 31
0.00000000000000
  0
LINE
  5
87
330
19
100
AcDbEntity
  8
Zeichnung 5
  6
CONTINUOUS
 62
     7
370
    18
100
AcDbLine
 10
10.70000000000029
 20
15.70000000000027
 30
0.00000000000000
 11
10.70000000000029
 21
12.50000000000027
 31
0.00000000000000
  0
LINE
  5
88
330
19
100
AcDbEntity
  8
Zeichnung 5
  6
CONTINUOUS
 62
     7
370
    18
100
AcDbLine
 10
12.50000000000036
 20
17.50000000000025
 30
0.00000000000000
 11
14.50000000000031
 21
15.50000000000038
 31
0.00000000000000
  0
LINE
  5
89
330
19
100
AcDbEntity
  8
Zeichnung 5
  6
CONTINUOUS
 62
     7
370
    18
100
AcDbLine
 10
14.50000000000031
 20
15.50000000000020
 30
0.00000000000000
 11
20.50000000000037
 21
15.50000000000020
 31
0.00000000000000
  0
LINE
  5
8A
330
19
100
AcDbEntity
  8
Zeichnung 5
  6
CONTINUOUS
 62
     7
370
    18
100
AcDbLine
 10
20.50000000000037
 20
15.50000000000020
 30
0.00000000000000
 11
22.50000000000032
 21
17.50000000000016
 31
0.00000000000000
  0
LINE
  5
8B
330
19
100
AcDbEntity
  8
Zeichnung 5
  6
CONTINUOUS
 62
     7
370
    18
100
AcDbLine
 10
22.50000000000032
 20
17.50000000000025
 30
0.00000000000000
 11
32.50000000000028
 21
17.50000000000025
 31
0.00000000000000
  0
LINE
  5
8C
330
19
100
AcDbEntity
  8
Zeichnung 5
  6
CONTINUOUS
 62
     7
370
    18
100
AcDbLine
 10
40.50000000000047
 20
15.50000000000038
 30
0.00000000000000
 11
42.50000000000043
 21
17.50000000000025
 31
0.00000000000000
  0
LINE
  5
8D
330
19
100
AcDbEntity
  8
Zeichnung 5
  6
CONTINUOUS
 62
     7
370
    18
100
AcDbLine
 10
34.50000000000042
 20
15.50000000000020
 30
0.00000000000000
 11
40.50000000000047
 21
15.50000000000020
 31
0.00000000000000
  0
LINE
  5
8E
330
19
100
AcDbEntity
  8
Zeichnung 5
  6
CONTINUOUS
 62
     7
370
    18
100
AcDbLine
 10
32.50000000000046
 20
17.50000000000016
 30
0.00000000000000
 11
34.50000000000042
 21
15.50000000000020
 31
0.00000000000000
  0
LINE
  5
8F
330
19
100
AcDbEntity
  8
Zeichnung 5
  6
CONTINUOUS
 62
     7
370
    18
100
AcDbLine
 10
12.50000000000036
 20
17.50000000000034
 30
0.00000000000000
 11
6.70000000000037
 21
17.50000000000034
 31
0.00000000000000
  0
LINE
  5
90
330
19
100
AcDbEntity
  8
Zeichnung 5
  6
CONTINUOUS
 62
     7
370
    18
100
AcDbLine
 10
42.50000000000043
 20
17.50000000000025
 30
0.00000000000000
 11
44.50000000000038
 21
17.50000000000025
 31
0.00000000000000
  0
LINE
  5
91
330
19
100
AcDbEntity
  8
Zeichnung 5
  6
CONTINUOUS
 62
     7
370
    18
100
AcDbLine
 10
44.50000000000038
 20
17.50000000000025
 30
0.00000000000000
 11
44.50000000000038
 21
14.50000000000014
 31
0.00000000000000
  0
LINE
  5
92
330
19
100
AcDbEntity
  8
Zeichnung 5
  6
CONTINUOUS
 62
     7
370
    18
100
AcDbLine
 10
44.50000000000038
 20
14.50000000000014
 30
0.00000000000000
 11
46.50000000000035
 21
14.50000000000014
 31
0.00000000000000
  0
LINE
  5
93
330
19
100
AcDbEntity
  8
Zeichnung 5
  6
CONTINUOUS
 62
     7
370
    18
100
AcDbLine
 10
46.50000000000035
 20
14.50000000000014
 30
0.00000000000000
 11
46.50000000000035
 21
15.50000000000020
 31
0.00000000000000
  0
LINE
  5
94
330
19
100
AcDbEntity
  8
Zeichnung 5
  6
CONTINUOUS
 62
     7
370
    18
100
AcDbLine
 10
46.50000000000035
 20
15.50000000000020
 30
0.00000000000000
 11
48.50000000000030
 21
15.50000000000020
 31
0.00000000000000
  0
LINE
  5
95
330
19
100
AcDbEntity
  8
Zeichnung 5
  6
CONTINUOUS
 62
     7
370
    18
100
AcDbLine
 10
48.50000000000030
 20
15.50000000000020
 30
0.00000000000000
 11
48.50000000000030
 21
12.50000000000009
 31
0.00000000000000
  0
LINE
  5
96
330
19
100
AcDbEntity
  8
Zeichnung 5
  6
CONTINUOUS
 62
     7
370
    18
100
AcDbLine
 10
21.74264068711960
 20
12.50000000000018
 30
0.00000000000000
 11
23.74264068711973
 21
14.50000000000031
 31
0.00000000000000
  0
LINE
  5
97
330
19
100
AcDbEntity
  8
Zeichnung 5
  6
CONTINUOUS
 62
     7
370
    18
100
AcDbLine
 10
23.74264068711973
 20
14.50000000000031
 30
0.00000000000000
 11
31.25735931288105
 21
14.50000000000031
 31
0.00000000000000
  0
LINE
  5
98
330
19
100
AcDbEntity
  8
Zeichnung 5
  6
CONTINUOUS
 62
     7
370
    18
100
AcDbLine
 10
33.25735931288119
 20
12.50000000000000
 30
0.00000000000000
 11
31.25735931288105
 21
14.50000000000031
 31
0.00000000000000
  0
LINE
  5
99
330
19
100
AcDbEntity
  8
Zeichnung 5
  6
CONTINUOUS
 62
     7
370
    18
100
AcDbLine
 10
10.70000000000029
 20
12.50000000000036
 30
0.00000000000000
 11
15.30000000000040
 21
12.50000000000027
 31
0.00000000000000
  0
LINE
  5
9A
330
19
100
AcDbEntity
  8
Zeichnung 5
  6
CONTINUOUS
 62
     7
370
    18
100
AcDbLine
 10
17.30000000000036
 20
12.50000000000018
 30
0.00000000000000
 11
21.74264068711942
 21
12.50000000000027
 31
0.00000000000000
  0
LINE
  5
9B
330
19
100
AcDbEntity
  8
Zeichnung 5
  6
CONTINUOUS
 62
     7
370
    18
100
AcDbLine
 10
33.25735931288119
 20
12.49999999999991
 30
0.00000000000000
 11
37.87867965644072
 21
12.50000000000000
 31
0.00000000000000
  0
LINE
  5
9C
330
19
100
AcDbEntity
  8
Zeichnung 5
  6
CONTINUOUS
 62
     7
370
    18
100
AcDbLine
 10
39.87867965644068
 20
12.49999999999991
 30
0.00000000000000
 11
48.50000000000030
 21
12.50000000000027
 31
0.00000000000000
  0
ARC
  5
9D
330
19
100
AcDbEntity
  8
Zeichnung 5
  6
CONTINUOUS
 62
     7
370
    18
100
AcDbCircle
 10
16.30000000000038
 20
12.50000000000027
 30
0.00000000000000
 40
0.99999999999998
100
AcDbArc
 50
180.00000000000000
 51
0.00000000000000
  0
ARC
  5
9E
330
19
100
AcDbEntity
  8
Zeichnung 5
  6
CONTINUOUS
 62
     7
370
    18
100
AcDbCircle
 10
38.87867965644070
 20
12.50000000000009
 30
0.00000000000000
 40
1.00000000000016
100
AcDbArc
 50
180.00000000000000
 51
0.00000000000000
  0
ENDBLK
  5
9F
330
19
100
AcDbEntity
  8
0
100
AcDbBlockEnd
  0
BLOCK
  5
A0
330
1A
100
AcDbEntity
  8
0
100
AcDbBlockBegin
  2
*U3
 70
     1
 10
0.00000000000000
 20
0.00000000000000
 30
0.00000000000000
  3
*U3
  1

  0
LINE
  5
A1
330
1A
100
AcDbEntity
  8
Zeichnung 5
  6
CONTINUOUS
 62
     7
370
    18
100
AcDbLine
 10
44.70000000000027
 20
17.50000000000034
 30
0.00000000000000
 11
44.70000000000027
 21
14.70000000000011
 31
0.00000000000000
  0
LINE
  5
A2
330
1A
100
AcDbEntity
  8
Zeichnung 5
  6
CONTINUOUS
 62
     7
370
    18
100
AcDbLine
 10
44.70000000000027
 20
14.70000000000020
 30
0.00000000000000
 11
46.30000000000045
 21
14.70000000000020
 31
0.00000000000000
  0
LINE
  5
A3
330
1A
100
AcDbEntity
  8
Zeichnung 5
  6
CONTINUOUS
 62
     7
370
    18
100
AcDbLine
 10
46.30000000000045
 20
14.70000000000011
 30
0.00000000000000
 11
46.30000000000045
 21
15.70000000000027
 31
0.00000000000000
  0
LINE
  5
A4
330
1A
100
AcDbEntity
  8
Zeichnung 5
  6
CONTINUOUS
 62
     7
370
    18
100
AcDbLine
 10
46.30000000000045
 20
15.70000000000027
 30
0.00000000000000
 11
48.70000000000037
 21
15.70000000000027
 31
0.00000000000000
  0
LINE
  5
A5
330
1A
100
AcDbEntity
  8
Zeichnung 5
  6
CONTINUOUS
 62
     7
370
    18
100
AcDbLine
 10
48.70000000000037
 20
15.70000000000027
 30
0.00000000000000
 11
48.70000000000037
 21
12.50000000000027
 31
0.00000000000000
  0
LINE
  5
A6
330
1A
100
AcDbEntity
  8
Zeichnung 5
  6
CONTINUOUS
 62
     7
370
    18
100
AcDbLine
 10
50.50000000000043
 20
17.50000000000025
 30
0.00000000000000
 11
52.50000000000039
 21
15.50000000000038
 31
0.00000000000000
  0
LINE
  5
A7
330
1A
100
AcDbEntity
  8
Zeichnung 5
  6
CONTINUOUS
 62
     7
370
    18
100
AcDbLine
 10
52.50000000000039
 20
15.50000000000020
 30
0.00000000000000
 11
58.50000000000044
 21
15.50000000000020
 31
0.00000000000000
  0
LINE
  5
A8
330
1A
100
AcDbEntity
  8
Zeichnung 5
  6
CONTINUOUS
 62
     7
370
    18
100
AcDbLine
 10
58.50000000000044
 20
15.50000000000020
 30
0.00000000000000
 11
60.50000000000040
 21
17.50000000000016
 31
0.00000000000000
  0
LINE
  5
A9
330
1A
100
AcDbEntity
  8
Zeichnung 5
  6
CONTINUOUS
 62
     7
370
    18
100
AcDbLine
 10
60.50000000000040
 20
17.50000000000025
 30
0.00000000000000
 11
70.50000000000037
 21
17.50000000000025
 31
0.00000000000000
  0
LINE
  5
AA
330
1A
100
AcDbEntity
  8
Zeichnung 5
  6
CONTINUOUS
 62
     7
370
    18
100
AcDbLine
 10
78.50000000000037
 20
15.50000000000038
 30
0.00000000000000
 11
80.50000000000051
 21
17.50000000000025
 31
0.00000000000000
  0
LINE
  5
AB
330
1A
100
AcDbEntity
  8
Zeichnung 5
  6
CONTINUOUS
 62
     7
370
    18
100
AcDbLine
 10
72.50000000000050
 20
15.50000000000020
 30
0.00000000000000
 11
78.50000000000037
 21
15.50000000000020
 31
0.00000000000000
  0
LINE
  5
AC
330
1A
100
AcDbEntity
  8
Zeichnung 5
  6
CONTINUOUS
 62
     7
370
    18
100
AcDbLine
 10
70.50000000000054
 20
17.50000000000016
 30
0.00000000000000
 11
72.50000000000050
 21
15.50000000000020
 31
0.00000000000000
  0
LINE
  5
AD
330
1A
100
AcDbEntity
  8
Zeichnung 5
  6
CONTINUOUS
 62
     7
370
    18
100
AcDbLine
 10
50.50000000000043
 20
17.50000000000034
 30
0.00000000000000
 11
44.70000000000027
 21
17.50000000000034
 31
0.00000000000000
  0
LINE
  5
AE
330
1A
100
AcDbEntity
  8
Zeichnung 5
  6
CONTINUOUS
 62
     7
370
    18
100
AcDbLine
 10
80.50000000000033
 20
17.50000000000025
 30
0.00000000000000
 11
82.50000000000030
 21
17.50000000000025
 31
0.00000000000000
  0
LINE
  5
AF
330
1A
100
AcDbEntity
  8
Zeichnung 5
  6
CONTINUOUS
 62
     7
370
    18
100
AcDbLine
 10
82.50000000000030
 20
17.50000000000025
 30
0.00000000000000
 11
82.50000000000030
 21
14.50000000000014
 31
0.00000000000000
  0
LINE
  5
B0
330
1A
100
AcDbEntity
  8
Zeichnung 5
  6
CONTINUOUS
 62
     7
370
    18
100
AcDbLine
 10
82.50000000000030
 20
14.50000000000014
 30
0.00000000000000
 11
84.50000000000043
 21
14.50000000000014
 31
0.00000000000000
  0
LINE
  5
B1
330
1A
100
AcDbEntity
  8
Zeichnung 5
  6
CONTINUOUS
 62
     7
370
    18
100
AcDbLine
 10
84.50000000000043
 20
14.50000000000014
 30
0.00000000000000
 11
84.50000000000043
 21
15.50000000000020
 31
0.00000000000000
  0
LINE
  5
B2
330
1A
100
AcDbEntity
  8
Zeichnung 5
  6
CONTINUOUS
 62
     7
370
    18
100
AcDbLine
 10
84.50000000000043
 20
15.50000000000020
 30
0.00000000000000
 11
86.50000000000038
 21
15.50000000000020
 31
0.00000000000000
  0
LINE
  5
B3
330
1A
100
AcDbEntity
  8
Zeichnung 5
  6
CONTINUOUS
 62
     7
370
    18
100
AcDbLine
 10
86.50000000000038
 20
15.50000000000020
 30
0.00000000000000
 11
86.50000000000038
 21
12.50000000000009
 31
0.00000000000000
  0
LINE
  5
B4
330
1A
100
AcDbEntity
  8
Zeichnung 5
  6
CONTINUOUS
 62
     7
370
    18
100
AcDbLine
 10
59.74264068711950
 20
12.50000000000018
 30
0.00000000000000
 11
61.74264068711981
 21
14.50000000000031
 31
0.00000000000000
  0
LINE
  5
B5
330
1A
100
AcDbEntity
  8
Zeichnung 5
  6
CONTINUOUS
 62
     7
370
    18
100
AcDbLine
 10
61.74264068711981
 20
14.50000000000031
 30
0.00000000000000
 11
69.25735931288095
 21
14.50000000000031
 31
0.00000000000000
  0
LINE
  5
B6
330
1A
100
AcDbEntity
  8
Zeichnung 5
  6
CONTINUOUS
 62
     7
370
    18
100
AcDbLine
 10
71.25735931288126
 20
12.50000000000000
 30
0.00000000000000
 11
69.25735931288095
 21
14.50000000000031
 31
0.00000000000000
  0
LINE
  5
B7
330
1A
100
AcDbEntity
  8
Zeichnung 5
  6
CONTINUOUS
 62
     7
370
    18
100
AcDbLine
 10
48.70000000000037
 20
12.50000000000036
 30
0.00000000000000
 11
53.30000000000030
 21
12.50000000000027
 31
0.00000000000000
  0
LINE
  5
B8
330
1A
100
AcDbEntity
  8
Zeichnung 5
  6
CONTINUOUS
 62
     7
370
    18
100
AcDbLine
 10
55.30000000000044
 20
12.50000000000018
 30
0.00000000000000
 11
59.74264068711950
 21
12.50000000000027
 31
0.00000000000000
  0
LINE
  5
B9
330
1A
100
AcDbEntity
  8
Zeichnung 5
  6
CONTINUOUS
 62
     7
370
    18
100
AcDbLine
 10
71.25735931288126
 20
12.49999999999991
 30
0.00000000000000
 11
75.87867965644080
 21
12.50000000000000
 31
0.00000000000000
  0
LINE
  5
BA
330
1A
100
AcDbEntity
  8
Zeichnung 5
  6
CONTINUOUS
 62
     7
370
    18
100
AcDbLine
 10
77.87867965644075
 20
12.49999999999991
 30
0.00000000000000
 11
86.50000000000038
 21
12.50000000000027
 31
0.00000000000000
  0
ARC
  5
BB
330
1A
100
AcDbEntity
  8
Zeichnung 5
  6
CONTINUOUS
 62
     7
370
    18
100
AcDbCircle
 10
54.30000000000028
 20
12.50000000000027
 30
0.00000000000000
 40
1.00000000000016
100
AcDbArc
 50
180.00000000000000
 51
0.00000000000000
  0
ARC
  5
BC
330
1A
100
AcDbEntity
  8
Zeichnung 5
  6
CONTINUOUS
 62
     7
370
    18
100
AcDbCircle
 10
76.87867965644078
 20
12.50000000000009
 30
0.00000000000000
 40
0.99999999999998
100
AcDbArc
 50
180.00000000000000
 51
0.00000000000000
  0
ENDBLK
  5
BD
330
1A
100
AcDbEntity
  8
0
100
AcDbBlockEnd
  0
BLOCK
  5
BE
330
1B
100
AcDbEntity
  8
0
100
AcDbBlockBegin
  2
*U4
 70
     1
 10
0.00000000000000
 20
0.00000000000000
 30
0.00000000000000
  3
*U4
  1

  0
LINE
  5
BF
330
1B
100
AcDbEntity
  8
Zeichnung 5
  6
CONTINUOUS
 62
     7
370
    18
100
AcDbLine
 10
-31.29999999999935
 20
17.50000000000034
 30
0.00000000000000
 11
-31.29999999999935
 21
14.70000000000011
 31
0.00000000000000
  0
LINE
  5
C0
330
1B
100
AcDbEntity
  8
Zeichnung 5
  6
CONTINUOUS
 62
     7
370
    18
100
AcDbLine
 10
-31.29999999999935
 20
14.70000000000020
 30
0.00000000000000
 11
-29.69999999999935
 21
14.70000000000020
 31
0.00000000000000
  0
LINE
  5
C1
330
1B
100
AcDbEntity
  8
Zeichnung 5
  6
CONTINUOUS
 62
     7
370
    18
100
AcDbLine
 10
-29.69999999999935
 20
14.70000000000011
 30
0.00000000000000
 11
-29.69999999999935
 21
15.70000000000027
 31
0.00000000000000
  0
LINE
  5
C2
330
1B
100
AcDbEntity
  8
Zeichnung 5
  6
CONTINUOUS
 62
     7
370
    18
100
AcDbLine
 10
-29.69999999999935
 20
15.70000000000027
 30
0.00000000000000
 11
-27.29999999999944
 21
15.70000000000027
 31
0.00000000000000
  0
LINE
  5
C3
330
1B
100
AcDbEntity
  8
Zeichnung 5
  6
CONTINUOUS
 62
     7
370
    18
100
AcDbLine
 10
-27.29999999999944
 20
15.70000000000027
 30
0.00000000000000
 11
-27.29999999999944
 21
12.50000000000027
 31
0.00000000000000
  0
LINE
  5
C4
330
1B
100
AcDbEntity
  8
Zeichnung 5
  6
CONTINUOUS
 62
     7
370
    18
100
AcDbLine
 10
-25.49999999999937
 20
17.50000000000025
 30
0.00000000000000
 11
-23.49999999999941
 21
15.50000000000038
 31
0.00000000000000
  0
LINE
  5
C5
330
1B
100
AcDbEntity
  8
Zeichnung 5
  6
CONTINUOUS
 62
     7
370
    18
100
AcDbLine
 10
-23.49999999999941
 20
15.50000000000020
 30
0.00000000000000
 11
-17.49999999999936
 21
15.50000000000020
 31
0.00000000000000
  0
LINE
  5
C6
330
1B
100
AcDbEntity
  8
Zeichnung 5
  6
CONTINUOUS
 62
     7
370
    18
100
AcDbLine
 10
-17.49999999999936
 20
15.50000000000020
 30
0.00000000000000
 11
-15.49999999999940
 21
17.50000000000016
 31
0.00000000000000
  0
LINE
  5
C7
330
1B
100
AcDbEntity
  8
Zeichnung 5
  6
CONTINUOUS
 62
     7
370
    18
100
AcDbLine
 10
-15.49999999999940
 20
17.50000000000025
 30
0.00000000000000
 11
-5.49999999999944
 21
17.50000000000025
 31
0.00000000000000
  0
LINE
  5
C8
330
1B
100
AcDbEntity
  8
Zeichnung 5
  6
CONTINUOUS
 62
     7
370
    18
100
AcDbLine
 10
2.50000000000075
 20
15.50000000000038
 30
0.00000000000000
 11
4.50000000000070
 21
17.50000000000025
 31
0.00000000000000
  0
LINE
  5
C9
330
1B
100
AcDbEntity
  8
Zeichnung 5
  6
CONTINUOUS
 62
     7
370
    18
100
AcDbLine
 10
-3.49999999999930
 20
15.50000000000020
 30
0.00000000000000
 11
2.50000000000075
 21
15.50000000000020
 31
0.00000000000000
  0
LINE
  5
CA
330
1B
100
AcDbEntity
  8
Zeichnung 5
  6
CONTINUOUS
 62
     7
370
    18
100
AcDbLine
 10
-5.49999999999926
 20
17.50000000000016
 30
0.00000000000000
 11
-3.49999999999930
 21
15.50000000000020
 31
0.00000000000000
  0
LINE
  5
CB
330
1B
100
AcDbEntity
  8
Zeichnung 5
  6
CONTINUOUS
 62
     7
370
    18
100
AcDbLine
 10
-25.49999999999937
 20
17.50000000000034
 30
0.00000000000000
 11
-31.29999999999935
 21
17.50000000000034
 31
0.00000000000000
  0
LINE
  5
CC
330
1B
100
AcDbEntity
  8
Zeichnung 5
  6
CONTINUOUS
 62
     7
370
    18
100
AcDbLine
 10
4.50000000000070
 20
17.50000000000025
 30
0.00000000000000
 11
6.50000000000066
 21
17.50000000000025
 31
0.00000000000000
  0
LINE
  5
CD
330
1B
100
AcDbEntity
  8
Zeichnung 5
  6
CONTINUOUS
 62
     7
370
    18
100
AcDbLine
 10
6.50000000000066
 20
17.50000000000025
 30
0.00000000000000
 11
6.50000000000066
 21
14.50000000000014
 31
0.00000000000000
  0
LINE
  5
CE
330
1B
100
AcDbEntity
  8
Zeichnung 5
  6
CONTINUOUS
 62
     7
370
    18
100
AcDbLine
 10
6.50000000000066
 20
14.50000000000014
 30
0.00000000000000
 11
8.50000000000062
 21
14.50000000000014
 31
0.00000000000000
  0
LINE
  5
CF
330
1B
100
AcDbEntity
  8
Zeichnung 5
  6
CONTINUOUS
 62
     7
370
    18
100
AcDbLine
 10
8.50000000000062
 20
14.50000000000014
 30
0.00000000000000
 11
8.50000000000062
 21
15.50000000000020
 31
0.00000000000000
  0
LINE
  5
D0
330
1B
100
AcDbEntity
  8
Zeichnung 5
  6
CONTINUOUS
 62
     7
370
    18
100
AcDbLine
 10
8.50000000000062
 20
15.50000000000020
 30
0.00000000000000
 11
10.50000000000058
 21
15.50000000000020
 31
0.00000000000000
  0
LINE
  5
D1
330
1B
100
AcDbEntity
  8
Zeichnung 5
  6
CONTINUOUS
 62
     7
370
    18
100
AcDbLine
 10
10.50000000000058
 20
15.50000000000020
 30
0.00000000000000
 11
10.50000000000058
 21
12.50000000000009
 31
0.00000000000000
  0
LINE
  5
D2
330
1B
100
AcDbEntity
  8
Zeichnung 5
  6
CONTINUOUS
 62
     7
370
    18
100
AcDbLine
 10
-16.25735931288013
 20
12.50000000000018
 30
0.00000000000000
 11
-14.25735931287999
 21
14.50000000000031
 31
0.00000000000000
  0
LINE
  5
D3
330
1B
100
AcDbEntity
  8
Zeichnung 5
  6
CONTINUOUS
 62
     7
370
    18
100
AcDbLine
 10
-14.25735931287999
 20
14.50000000000031
 30
0.00000000000000
 11
-6.74264068711867
 21
14.50000000000031
 31
0.00000000000000
  0
LINE
  5
D4
330
1B
100
AcDbEntity
  8
Zeichnung 5
  6
CONTINUOUS
 62
     7
370
    18
100
AcDbLine
 10
-4.74264068711854
 20
12.50000000000000
 30
0.00000000000000
 11
-6.74264068711867
 21
14.50000000000031
 31
0.00000000000000
  0
LINE
  5
D5
330
1B
100
AcDbEntity
  8
Zeichnung 5
  6
CONTINUOUS
 62
     7
370
    18
100
AcDbLine
 10
-27.29999999999944
 20
12.50000000000036
 30
0.00000000000000
 11
-22.69999999999932
 21
12.50000000000027
 31
0.00000000000000
  0
LINE
  5
D6
330
1B
100
AcDbEntity
  8
Zeichnung 5
  6
CONTINUOUS
 62
     7
370
    18
100
AcDbLine
 10
-20.69999999999936
 20
12.50000000000018
 30
0.00000000000000
 11
-16.25735931288030
 21
12.50000000000027
 31
0.00000000000000
  0
LINE
  5
D7
330
1B
100
AcDbEntity
  8
Zeichnung 5
  6
CONTINUOUS
 62
     7
370
    18
100
AcDbLine
 10
-4.74264068711854
 20
12.49999999999991
 30
0.00000000000000
 11
-0.12132034355901
 21
12.50000000000000
 31
0.00000000000000
  0
LINE
  5
D8
330
1B
100
AcDbEntity
  8
Zeichnung 5
  6
CONTINUOUS
 62
     7
370
    18
100
AcDbLine
 10
1.87867965644095
 20
12.49999999999991
 30
0.00000000000000
 11
10.50000000000058
 21
12.50000000000027
 31
0.00000000000000
  0
ARC
  5
D9
330
1B
100
AcDbEntity
  8
Zeichnung 5
  6
CONTINUOUS
 62
     7
370
    18
100
AcDbCircle
 10
-21.69999999999935
 20
12.50000000000027
 30
0.00000000000000
 40
0.99999999999998
100
AcDbArc
 50
180.00000000000000
 51
0.00000000000000
  0
ARC
  5
DA
330
1B
100
AcDbEntity
  8
Zeichnung 5
  6
CONTINUOUS
 62
     7
370
    18
100
AcDbCircle
 10
0.87867965644097
 20
12.50000000000009
 30
0.00000000000000
 40
1.00000000000016
100
AcDbArc
 50
180.00000000000000
 51
0.00000000000000
  0
ENDBLK
  5
DB
330
1B
100
AcDbEntity
  8
0
100
AcDbBlockEnd
  0
BLOCK
  5
DC
330
1C
100
AcDbEntity
  8
0
100
AcDbBlockBegin
  2
*U5
 70
     1
 10
0.00000000000000
 20
0.00000000000000
 30
0.00000000000000
  3
*U5
  1

  0
LINE
  5
DD
330
1C
100
AcDbEntity
  8
Zeichnung 5
  6
CONTINUOUS
 62
     7
370
    18
100
AcDbLine
 10
-69.29999999999924
 20
17.50000000000043
 30
0.00000000000000
 11
-69.29999999999924
 21
14.70000000000020
 31
0.00000000000000
  0
LINE
  5
DE
330
1C
100
AcDbEntity
  8
Zeichnung 5
  6
CONTINUOUS
 62
     7
370
    18
100
AcDbLine
 10
-69.29999999999924
 20
14.70000000000029
 30
0.00000000000000
 11
-67.69999999999925
 21
14.70000000000029
 31
0.00000000000000
  0
LINE
  5
DF
330
1C
100
AcDbEntity
  8
Zeichnung 5
  6
CONTINUOUS
 62
     7
370
    18
100
AcDbLine
 10
-67.69999999999925
 20
14.70000000000020
 30
0.00000000000000
 11
-67.69999999999925
 21
15.70000000000036
 31
0.00000000000000
  0
LINE
  5
E0
330
1C
100
AcDbEntity
  8
Zeichnung 5
  6
CONTINUOUS
 62
     7
370
    18
100
AcDbLine
 10
-67.69999999999925
 20
15.70000000000036
 30
0.00000000000000
 11
-65.29999999999934
 21
15.70000000000036
 31
0.00000000000000
  0
LINE
  5
E1
330
1C
100
AcDbEntity
  8
Zeichnung 5
  6
CONTINUOUS
 62
     7
370
    18
100
AcDbLine
 10
-65.29999999999934
 20
15.70000000000036
 30
0.00000000000000
 11
-65.29999999999934
 21
12.50000000000036
 31
0.00000000000000
  0
LINE
  5
E2
330
1C
100
AcDbEntity
  8
Zeichnung 5
  6
CONTINUOUS
 62
     7
370
    18
100
AcDbLine
 10
-63.49999999999926
 20
17.50000000000034
 30
0.00000000000000
 11
-61.49999999999931
 21
15.50000000000047
 31
0.00000000000000
  0
LINE
  5
E3
330
1C
100
AcDbEntity
  8
Zeichnung 5
  6
CONTINUOUS
 62
     7
370
    18
100
AcDbLine
 10
-61.49999999999931
 20
15.50000000000029
 30
0.00000000000000
 11
-55.49999999999926
 21
15.50000000000029
 31
0.00000000000000
  0
LINE
  5
E4
330
1C
100
AcDbEntity
  8
Zeichnung 5
  6
CONTINUOUS
 62
     7
370
    18
100
AcDbLine
 10
-55.49999999999926
 20
15.50000000000029
 30
0.00000000000000
 11
-53.49999999999930
 21
17.50000000000025
 31
0.00000000000000
  0
LINE
  5
E5
330
1C
100
AcDbEntity
  8
Zeichnung 5
  6
CONTINUOUS
 62
     7
370
    18
100
AcDbLine
 10
-53.49999999999930
 20
17.50000000000034
 30
0.00000000000000
 11
-43.49999999999935
 21
17.50000000000034
 31
0.00000000000000
  0
LINE
  5
E6
330
1C
100
AcDbEntity
  8
Zeichnung 5
  6
CONTINUOUS
 62
     7
370
    18
100
AcDbLine
 10
-35.49999999999915
 20
15.50000000000047
 30
0.00000000000000
 11
-33.49999999999920
 21
17.50000000000034
 31
0.00000000000000
  0
LINE
  5
E7
330
1C
100
AcDbEntity
  8
Zeichnung 5
  6
CONTINUOUS
 62
     7
370
    18
100
AcDbLine
 10
-41.49999999999920
 20
15.50000000000029
 30
0.00000000000000
 11
-35.49999999999915
 21
15.50000000000029
 31
0.00000000000000
  0
LINE
  5
E8
330
1C
100
AcDbEntity
  8
Zeichnung 5
  6
CONTINUOUS
 62
     7
370
    18
100
AcDbLine
 10
-43.49999999999916
 20
17.50000000000025
 30
0.00000000000000
 11
-41.49999999999920
 21
15.50000000000029
 31
0.00000000000000
  0
LINE
  5
E9
330
1C
100
AcDbEntity
  8
Zeichnung 5
  6
CONTINUOUS
 62
     7
370
    18
100
AcDbLine
 10
-63.49999999999926
 20
17.50000000000043
 30
0.00000000000000
 11
-69.29999999999924
 21
17.50000000000043
 31
0.00000000000000
  0
LINE
  5
EA
330
1C
100
AcDbEntity
  8
Zeichnung 5
  6
CONTINUOUS
 62
     7
370
    18
100
AcDbLine
 10
-33.49999999999920
 20
17.50000000000034
 30
0.00000000000000
 11
-31.49999999999924
 21
17.50000000000034
 31
0.00000000000000
  0
LINE
  5
EB
330
1C
100
AcDbEntity
  8
Zeichnung 5
  6
CONTINUOUS
 62
     7
370
    18
100
AcDbLine
 10
-31.49999999999924
 20
17.50000000000034
 30
0.00000000000000
 11
-31.49999999999924
 21
14.50000000000022
 31
0.00000000000000
  0
LINE
  5
EC
330
1C
100
AcDbEntity
  8
Zeichnung 5
  6
CONTINUOUS
 62
     7
370
    18
100
AcDbLine
 10
-31.49999999999924
 20
14.50000000000022
 30
0.00000000000000
 11
-29.49999999999928
 21
14.50000000000022
 31
0.00000000000000
  0
LINE
  5
ED
330
1C
100
AcDbEntity
  8
Zeichnung 5
  6
CONTINUOUS
 62
     7
370
    18
100
AcDbLine
 10
-29.49999999999928
 20
14.50000000000022
 30
0.00000000000000
 11
-29.49999999999928
 21
15.50000000000029
 31
0.00000000000000
  0
LINE
  5
EE
330
1C
100
AcDbEntity
  8
Zeichnung 5
  6
CONTINUOUS
 62
     7
370
    18
100
AcDbLine
 10
-29.49999999999928
 20
15.50000000000029
 30
0.00000000000000
 11
-27.49999999999933
 21
15.50000000000029
 31
0.00000000000000
  0
LINE
  5
EF
330
1C
100
AcDbEntity
  8
Zeichnung 5
  6
CONTINUOUS
 62
     7
370
    18
100
AcDbLine
 10
-27.49999999999933
 20
15.50000000000029
 30
0.00000000000000
 11
-27.49999999999933
 21
12.50000000000018
 31
0.00000000000000
  0
LINE
  5
F0
330
1C
100
AcDbEntity
  8
Zeichnung 5
  6
CONTINUOUS
 62
     7
370
    18
100
AcDbLine
 10
-54.25735931288003
 20
12.50000000000027
 30
0.00000000000000
 11
-52.25735931287989
 21
14.50000000000040
 31
0.00000000000000
  0
LINE
  5
F1
330
1C
100
AcDbEntity
  8
Zeichnung 5
  6
CONTINUOUS
 62
     7
370
    18
100
AcDbLine
 10
-52.25735931287989
 20
14.50000000000040
 30
0.00000000000000
 11
-44.74264068711857
 21
14.50000000000040
 31
0.00000000000000
  0
LINE
  5
F2
330
1C
100
AcDbEntity
  8
Zeichnung 5
  6
CONTINUOUS
 62
     7
370
    18
100
AcDbLine
 10
-42.74264068711845
 20
12.50000000000009
 30
0.00000000000000
 11
-44.74264068711857
 21
14.50000000000040
 31
0.00000000000000
  0
LINE
  5
F3
330
1C
100
AcDbEntity
  8
Zeichnung 5
  6
CONTINUOUS
 62
     7
370
    18
100
AcDbLine
 10
-65.29999999999934
 20
12.50000000000044
 30
0.00000000000000
 11
-60.69999999999923
 21
12.50000000000036
 31
0.00000000000000
  0
LINE
  5
F4
330
1C
100
AcDbEntity
  8
Zeichnung 5
  6
CONTINUOUS
 62
     7
370
    18
100
AcDbLine
 10
-58.69999999999926
 20
12.50000000000027
 30
0.00000000000000
 11
-54.25735931288021
 21
12.50000000000036
 31
0.00000000000000
  0
LINE
  5
F5
330
1C
100
AcDbEntity
  8
Zeichnung 5
  6
CONTINUOUS
 62
     7
370
    18
100
AcDbLine
 10
-42.74264068711845
 20
12.50000000000000
 30
0.00000000000000
 11
-38.12132034355891
 21
12.50000000000009
 31
0.00000000000000
  0
LINE
  5
F6
330
1C
100
AcDbEntity
  8
Zeichnung 5
  6
CONTINUOUS
 62
     7
370
    18
100
AcDbLine
 10
-36.12132034355895
 20
12.50000000000000
 30
0.00000000000000
 11
-27.49999999999933
 21
12.50000000000036
 31
0.00000000000000
  0
ARC
  5
F7
330
1C
100
AcDbEntity
  8
Zeichnung 5
  6
CONTINUOUS
 62
     7
370
    18
100
AcDbCircle
 10
-59.69999999999924
 20
12.50000000000036
 30
0.00000000000000
 40
0.99999999999998
100
AcDbArc
 50
180.00000000000000
 51
0.00000000000000
  0
ARC
  5
F8
330
1C
100
AcDbEntity
  8
Zeichnung 5
  6
CONTINUOUS
 62
     7
370
    18
100
AcDbCircle
 10
-37.12132034355893
 20
12.50000000000018
 30
0.00000000000000
 40
1.00000000000016
100
AcDbArc
 50
180.00000000000000
 51
0.00000000000000
  0
ENDBLK
  5
F9
330
1C
100
AcDbEntity
  8
0
100
AcDbBlockEnd
  0
BLOCK
  5
FA
330
1D
100
AcDbEntity
  8
0
100
AcDbBlockBegin
  2
*U6
 70
     1
 10
0.00000000000000
 20
0.00000000000000
 30
0.00000000000000
  3
*U6
  1

  0
ARC
  5
FB
330
1D
100
AcDbEntity
  8
Zeichnung 5
  6
CONTINUOUS
 62
     7
370
    18
100
AcDbCircle
 10
72.50000000000033
 20
-50.37499999999922
 30
0.00000000000000
 40
5.12499999999974
100
AcDbArc
 50
270.00000000000000
 51
10.07429304562163
  0
LINE
  5
FC
330
1D
100
AcDbEntity
  8
Zeichnung 5
  6
CONTINUOUS
 62
     7
370
    18
100
AcDbLine
 10
77.54598153456610
 20
-49.47850942402124
 30
0.00000000000000
 11
72.57901846543416
 21
-21.52149057597721
 31
0.00000000000000
  0
ARC
  5
FD
330
1D
100
AcDbEntity
  8
Zeichnung 5
  6
CONTINUOUS
 62
     7
370
    18
100
AcDbCircle
 10
77.62500000000011
 20
-20.62499999999919
 30
0.00000000000000
 40
5.12499999999980
100
AcDbArc
 50
349.92570695437820
 51
190.07429304562180
  0
LINE
  5
FE
330
1D
100
AcDbEntity
  8
Zeichnung 5
  6
CONTINUOUS
 62
     7
370
    18
100
AcDbLine
 10
82.67098153456605
 20
-21.52149057597721
 30
0.00000000000000
 11
77.70401846543393
 21
-49.47850942402119
 31
0.00000000000000
  0
ARC
  5
FF
330
1D
100
AcDbEntity
  8
Zeichnung 5
  6
CONTINUOUS
 62
     7
370
    18
100
AcDbCircle
 10
82.74999999999972
 20
-50.37499999999922
 30
0.00000000000000
 40
5.12499999999980
100
AcDbArc
 50
169.92570695437820
 51
10.07429304562299
  0
LINE
  5
100
330
1D
100
AcDbEntity
  8
Zeichnung 5
  6
CONTINUOUS
 62
     7
370
    18
100
AcDbLine
 10
87.79598153456547
 20
-49.47850942402115
 30
0.00000000000000
 11
82.82901846543318
 21
-21.52149057597726
 31
0.00000000000000
  0
ARC
  5
101
330
1D
100
AcDbEntity
  8
Zeichnung 5
  6
CONTINUOUS
 62
     7
370
    18
100
AcDbCircle
 10
87.87499999999913
 20
-20.62499999999919
 30
0.00000000000000
 40
5.12499999999980
100
AcDbArc
 50
349.92570695437917
 51
190.07429304562228
  0
LINE
  5
102
330
1D
100
AcDbEntity
  8
Zeichnung 5
  6
CONTINUOUS
 62
     7
370
    18
100
AcDbLine
 10
92.92098153456507
 20
-21.52149057597712
 30
0.00000000000000
 11
87.95401846543349
 21
-49.47850942402128
 31
0.00000000000000
  0
ARC
  5
103
330
1D
100
AcDbEntity
  8
Zeichnung 5
  6
CONTINUOUS
 62
     7
370
    18
100
AcDbCircle
 10
92.99999999999926
 20
-50.37499999999922
 30
0.00000000000000
 40
5.12499999999979
100
AcDbArc
 50
169.92570695437871
 51
269.99999999999989
  0
ENDBLK
  5
104
330
1D
100
AcDbEntity
  8
0
100
AcDbBlockEnd
  0
BLOCK
  5
105
330
1E
100
AcDbEntity
  8
0
100
AcDbBlockBegin
  2
*U7
 70
     1
 10
0.00000000000000
 20
0.00000000000000
 30
0.00000000000000
  3
*U7
  1

  0
ARC
  5
106
330
1E
100
AcDbEntity
  8
Zeichnung 5
  6
CONTINUOUS
 62
     7
370
    18
100
AcDbCircle
 10
-57.50000000000011
 20
-50.37499999999922
 30
0.00000000000000
 40
5.12499999999979
100
AcDbArc
 50
169.92570695437871
 51
270.00000000000034
  0
LINE
  5
107
330
1E
100
AcDbEntity
  8
Zeichnung 5
  6
CONTINUOUS
 62
     7
370
    18
100
AcDbLine
 10
-57.57901846543394
 20
-21.52149057597721
 30
0.00000000000000
 11
-62.54598153456588
 21
-49.47850942402124
 31
0.00000000000000
  0
ARC
  5
108
330
1E
100
AcDbEntity
  8
Zeichnung 5
  6
CONTINUOUS
 62
     7
370
    18
100
AcDbCircle
 10
-62.62499999999989
 20
-20.62499999999919
 30
0.00000000000000
 40
5.12499999999980
100
AcDbArc
 50
349.92570695437820
 51
190.07429304562180
  0
LINE
  5
109
330
1E
100
AcDbEntity
  8
Zeichnung 5
  6
CONTINUOUS
 62
     7
370
    18
100
AcDbLine
 10
-62.70401846543372
 20
-49.47850942402119
 30
0.00000000000000
 11
-67.67098153456584
 21
-21.52149057597721
 31
0.00000000000000
  0
ARC
  5
10A
330
1E
100
AcDbEntity
  8
Zeichnung 5
  6
CONTINUOUS
 62
     7
370
    18
100
AcDbCircle
 10
-67.74999999999949
 20
-50.37499999999922
 30
0.00000000000000
 40
5.12499999999980
100
AcDbArc
 50
169.92570695437772
 51
10.07429304562248
  0
LINE
  5
10B
330
1E
100
AcDbEntity
  8
Zeichnung 5
  6
CONTINUOUS
 62
     7
370
    18
100
AcDbLine
 10
-67.82901846543297
 20
-21.52149057597726
 30
0.00000000000000
 11
-72.79598153456526
 21
-49.47850942402115
 31
0.00000000000000
  0
ARC
  5
10C
330
1E
100
AcDbEntity
  8
Zeichnung 5
  6
CONTINUOUS
 62
     7
370
    18
100
AcDbCircle
 10
-72.87499999999891
 20
-20.62499999999919
 30
0.00000000000000
 40
5.12499999999978
100
AcDbArc
 50
349.92570695437769
 51
190.07429304562078
  0
LINE
  5
10D
330
1E
100
AcDbEntity
  8
Zeichnung 5
  6
CONTINUOUS
 62
     7
370
    18
100
AcDbLine
 10
-72.95401846543328
 20
-49.47850942402128
 30
0.00000000000000
 11
-77.92098153456486
 21
-21.52149057597712
 31
0.00000000000000
  0
ARC
  5
10E
330
1E
100
AcDbEntity
  8
Zeichnung 5
  6
CONTINUOUS
 62
     7
370
    18
100
AcDbCircle
 10
-77.99999999999905
 20
-50.37499999999922
 30
0.00000000000000
 40
5.12499999999978
100
AcDbArc
 50
270.00000000000000
 51
10.07429304562118
  0
ENDBLK
  5
10F
330
1E
100
AcDbEntity
  8
0
100
AcDbBlockEnd
  0
BLOCK
  5
110
330
1F
100
AcDbEntity
  8
0
100
AcDbBlockBegin
  2
*U8
 70
     1
 10
0.00000000000000
 20
0.00000000000000
 30
0.00000000000000
  3
*U8
  1

  0
LINE
  5
111
330
1F
100
AcDbEntity
  8
Zeichnung 5
  6
CONTINUOUS
 62
     7
370
    18
100
AcDbLine
 10
-73.49999999999905
 20
15.50000000000047
 30
0.00000000000000
 11
-71.49999999999911
 21
17.50000000000034
 31
0.00000000000000
  0
LINE
  5
112
330
1F
100
AcDbEntity
  8
Zeichnung 5
  6
CONTINUOUS
 62
     7
370
    18
100
AcDbLine
 10
-77.99999999999869
 20
15.50000000000029
 30
0.00000000000000
 11
-73.49999999999905
 21
15.50000000000029
 31
0.00000000000000
  0
LINE
  5
113
330
1F
100
AcDbEntity
  8
Zeichnung 5
  6
CONTINUOUS
 62
     7
370
    18
100
AcDbLine
 10
-71.49999999999911
 20
17.50000000000034
 30
0.00000000000000
 11
-69.49999999999915
 21
17.50000000000034
 31
0.00000000000000
  0
LINE
  5
114
330
1F
100
AcDbEntity
  8
Zeichnung 5
  6
CONTINUOUS
 62
     7
370
    18
100
AcDbLine
 10
-69.49999999999915
 20
17.50000000000034
 30
0.00000000000000
 11
-69.49999999999915
 21
14.50000000000022
 31
0.00000000000000
  0
LINE
  5
115
330
1F
100
AcDbEntity
  8
Zeichnung 5
  6
CONTINUOUS
 62
     7
370
    18
100
AcDbLine
 10
-69.49999999999915
 20
14.50000000000022
 30
0.00000000000000
 11
-67.49999999999919
 21
14.50000000000022
 31
0.00000000000000
  0
LINE
  5
116
330
1F
100
AcDbEntity
  8
Zeichnung 5
  6
CONTINUOUS
 62
     7
370
    18
100
AcDbLine
 10
-67.49999999999919
 20
14.50000000000022
 30
0.00000000000000
 11
-67.49999999999919
 21
15.50000000000029
 31
0.00000000000000
  0
LINE
  5
117
330
1F
100
AcDbEntity
  8
Zeichnung 5
  6
CONTINUOUS
 62
     7
370
    18
100
AcDbLine
 10
-67.49999999999919
 20
15.50000000000029
 30
0.00000000000000
 11
-65.49999999999922
 21
15.50000000000029
 31
0.00000000000000
  0
LINE
  5
118
330
1F
100
AcDbEntity
  8
Zeichnung 5
  6
CONTINUOUS
 62
     7
370
    18
100
AcDbLine
 10
-65.49999999999922
 20
15.50000000000029
 30
0.00000000000000
 11
-65.49999999999922
 21
12.50000000000018
 31
0.00000000000000
  0
LINE
  5
119
330
1F
100
AcDbEntity
  8
Zeichnung 5
  6
CONTINUOUS
 62
     7
370
    18
100
AcDbLine
 10
-77.99999999999869
 20
12.50000000000009
 30
0.00000000000000
 11
-76.12132034355881
 21
12.50000000000009
 31
0.00000000000000
  0
LINE
  5
11A
330
1F
100
AcDbEntity
  8
Zeichnung 5
  6
CONTINUOUS
 62
     7
370
    18
100
AcDbLine
 10
-74.12132034355885
 20
12.50000000000000
 30
0.00000000000000
 11
-65.49999999999922
 21
12.50000000000036
 31
0.00000000000000
  0
ARC
  5
11B
330
1F
100
AcDbEntity
  8
Zeichnung 5
  6
CONTINUOUS
 62
     7
370
    18
100
AcDbCircle
 10
-75.12132034355884
 20
12.50000000000018
 30
0.00000000000000
 40
1.00000000000016
100
AcDbArc
 50
180.00000000000000
 51
0.00000000000000
  0
ENDBLK
  5
11C
330
1F
100
AcDbEntity
  8
0
100
AcDbBlockEnd
  0
BLOCK
  5
11D
330
20
100
AcDbEntity
  8
0
100
AcDbBlockBegin
  2
*U9
 70
     1
 10
0.00000000000000
 20
0.00000000000000
 30
0.00000000000000
  3
*U9
  1

  0
LINE
  5
11E
330
20
100
AcDbEntity
  8
Zeichnung 5
  6
CONTINUOUS
 62
     7
370
    18
100
AcDbLine
 10
82.70000000000036
 20
17.50000000000034
 30
0.00000000000000
 11
82.70000000000036
 21
14.70000000000011
 31
0.00000000000000
  0
LINE
  5
11F
330
20
100
AcDbEntity
  8
Zeichnung 5
  6
CONTINUOUS
 62
     7
370
    18
100
AcDbLine
 10
82.70000000000036
 20
14.70000000000020
 30
0.00000000000000
 11
84.30000000000054
 21
14.70000000000020
 31
0.00000000000000
  0
LINE
  5
120
330
20
100
AcDbEntity
  8
Zeichnung 5
  6
CONTINUOUS
 62
     7
370
    18
100
AcDbLine
 10
84.30000000000054
 20
14.70000000000011
 30
0.00000000000000
 11
84.30000000000054
 21
15.70000000000027
 31
0.00000000000000
  0
LINE
  5
121
330
20
100
AcDbEntity
  8
Zeichnung 5
  6
CONTINUOUS
 62
     7
370
    18
100
AcDbLine
 10
84.30000000000054
 20
15.70000000000027
 30
0.00000000000000
 11
86.70000000000044
 21
15.70000000000027
 31
0.00000000000000
  0
LINE
  5
122
330
20
100
AcDbEntity
  8
Zeichnung 5
  6
CONTINUOUS
 62
     7
370
    18
100
AcDbLine
 10
86.70000000000044
 20
15.70000000000027
 30
0.00000000000000
 11
86.70000000000044
 21
12.50000000000027
 31
0.00000000000000
  0
LINE
  5
123
330
20
100
AcDbEntity
  8
Zeichnung 5
  6
CONTINUOUS
 62
     7
370
    18
100
AcDbLine
 10
88.50000000000053
 20
17.50000000000025
 30
0.00000000000000
 11
90.50000000000047
 21
15.50000000000038
 31
0.00000000000000
  0
LINE
  5
124
330
20
100
AcDbEntity
  8
Zeichnung 5
  6
CONTINUOUS
 62
     7
370
    18
100
AcDbLine
 10
90.50000000000047
 20
15.50000000000020
 30
0.00000000000000
 11
92.99999999999908
 21
15.50000000000020
 31
0.00000000000000
  0
LINE
  5
125
330
20
100
AcDbEntity
  8
Zeichnung 5
  6
CONTINUOUS
 62
     7
370
    18
100
AcDbLine
 10
88.50000000000053
 20
17.50000000000034
 30
0.00000000000000
 11
82.70000000000036
 21
17.50000000000034
 31
0.00000000000000
  0
LINE
  5
126
330
20
100
AcDbEntity
  8
Zeichnung 5
  6
CONTINUOUS
 62
     7
370
    18
100
AcDbLine
 10
86.70000000000044
 20
12.50000000000036
 30
0.00000000000000
 11
91.30000000000038
 21
12.50000000000027
 31
0.00000000000000
  0
ARC
  5
127
330
20
100
AcDbEntity
  8
Zeichnung 5
  6
CONTINUOUS
 62
     7
370
    18
100
AcDbCircle
 10
92.30000000000037
 20
12.50000000000027
 30
0.00000000000000
 40
1.00000000000011
100
AcDbArc
 50
179.99999999999824
 51
314.42700400071146
  0
ENDBLK
  5
128
330
20
100
AcDbEntity
  8
0
100
AcDbBlockEnd
  0
BLOCK
  5
129
330
21
100
AcDbEntity
  8
0
100
AcDbBlockBegin
  2
*U10
 70
     1
 10
0.00000000000000
 20
0.00000000000000
 30
0.00000000000000
  3
*U10
  1

  0
MTEXT
  5
12A
330
21
100
AcDbEntity
  8
Zeichnung 5
 62
     7
370
    20
100
AcDbMText
 10
52.24999999999944
 20
51.30000000000013
 30
0.00000000000000
 40
2.20000000000000
 41
0.00000000000000
 71
     7
 72
     1
  1
\fArial Narrow|b0|i0;Abweichung wg.
 11
1.00000000000000
 21
0.00000000000000
 31
0.00000000000000
 73
     1
 44
1.00000000000000
  0
MTEXT
  5
12B
330
21
100
AcDbEntity
  8
Zeichnung 5
 62
     7
370
    20
100
AcDbMText
 10
52.24999999999944
 20
49.70000000000012
 30
0.00000000000000
 40
2.20000000000000
 41
0.00000000000000
 71
     1
 72
     1
  1
\fArial Narrow|b0|i0;durchlaufender USB\Perforderlich!!
 11
1.00000000000000
 21
0.00000000000000
 31
0.00000000000000
 73
     1
 44
1.00000000000000
  0
LINE
  5
12C
330
21
100
AcDbEntity
  8
Zeichnung 5
  6
CONTINUOUS
 62
    12
370
    25
100
AcDbLine
 10
46.99999999999971
 20
36.50000000000011
 30
0.00000000000000
 11
50.99999999999945
 21
50.50000000000013
 31
0.00000000000000
  0
HATCH
  5
12D
330
21
100
AcDbEntity
  8
Zeichnung 5
 62
    12
100
AcDbHatch
 10
0.00000000000000
 20
0.00000000000000
 30
0.00000000000000
210
0.00000000000000
220
0.00000000000000
230
1.00000000000000
  2
SOLID
 70
     1
 71
     0
 91
        1
 92
        0
 93
       16
 72
     1
 10
47.49999999999971
 20
36.50000000000011
 11
47.46193976625535
 21
36.69134171618266
 72
     1
 10
47.46193976625535
 20
36.69134171618266
 11
47.35355339059299
 21
36.85355339059339
 72
     1
 10
47.35355339059299
 20
36.85355339059339
 11
47.19134171618226
 21
36.96193976625575
 72
     1
 10
47.19134171618226
 20
36.96193976625575
 11
46.99999999999971
 21
37.00000000000011
 72
     1
 10
46.99999999999971
 20
37.00000000000011
 11
46.80865828381717
 21
36.96193976625575
 72
     1
 10
46.80865828381717
 20
36.96193976625575
 11
46.64644660940643
 21
36.85355339059339
 72
     1
 10
46.64644660940643
 20
36.85355339059339
 11
46.53806023374407
 21
36.69134171618266
 72
     1
 10
46.53806023374407
 20
36.69134171618266
 11
46.49999999999971
 21
36.50000000000011
 72
     1
 10
46.49999999999971
 20
36.50000000000011
 11
46.53806023374407
 21
36.30865828381756
 72
     1
 10
46.53806023374407
 20
36.30865828381756
 11
46.64644660940643
 21
36.14644660940684
 72
     1
 10
46.64644660940643
 20
36.14644660940684
 11
46.80865828381717
 21
36.03806023374447
 72
     1
 10
46.80865828381717
 20
36.03806023374447
 11
46.99999999999971
 21
36.00000000000011
 72
     1
 10
46.99999999999971
 20
36.00000000000011
 11
47.19134171618226
 21
36.03806023374447
 72
     1
 10
47.19134171618226
 20
36.03806023374447
 11
47.35355339059299
 21
36.14644660940684
 72
     1
 10
47.35355339059299
 20
36.14644660940684
 11
47.46193976625535
 21
36.30865828381756
 72
     1
 10
47.46193976625535
 20
36.30865828381756
 11
47.49999999999971
 21
36.50000000000011
 97
        0
 75
     0
 76
     0
 98
        1
 10
0.00000000000000
 20
0.00000000000000
  0
LWPOLYLINE
  5
12E
330
21
100
AcDbEntity
  8
Zeichnung 5
  6
CONTINUOUS
 62
    12
370
    25
100
AcDbPolyline
 90
       17
 70
   128
 10
47.49999999999971
 20
36.50000000000011
 10
47.46193976625535
 20
36.69134171618266
 10
47.35355339059299
 20
36.85355339059339
 10
47.19134171618226
 20
36.96193976625575
 10
46.99999999999971
 20
37.00000000000011
 10
46.80865828381717
 20
36.96193976625575
 10
46.64644660940643
 20
36.85355339059339
 10
46.53806023374407
 20
36.69134171618266
 10
46.49999999999971
 20
36.50000000000011
 10
46.53806023374407
 20
36.30865828381756
 10
46.64644660940643
 20
36.14644660940684
 10
46.80865828381717
 20
36.03806023374447
 10
46.99999999999971
 20
36.00000000000011
 10
47.19134171618226
 20
36.03806023374447
 10
47.35355339059299
 20
36.14644660940684
 10
47.46193976625535
 20
36.30865828381756
 10
47.49999999999971
 20
36.50000000000011
  0
LINE
  5
12F
330
21
100
AcDbEntity
  8
Zeichnung 5
  6
CONTINUOUS
 62
    12
370
    25
100
AcDbLine
 10
50.99999999999945
 20
50.50000000000013
 30
0.00000000000000
 11
75.61623250388746
 21
50.50000000000013
 31
0.00000000000000
  0
ENDBLK
  5
130
330
21
100
AcDbEntity
  8
0
100
AcDbBlockEnd
  0
BLOCK
  5
131
330
22
100
AcDbEntity
  8
0
100
AcDbBlockBegin
  2
*U11
 70
     1
 10
0.00000000000000
 20
0.00000000000000
 30
0.00000000000000
  3
*U11
  1

  0
ARC
  5
132
330
22
100
AcDbEntity
  8
Zeichnung 5
  6
CONTINUOUS
 62
     7
370
    18
100
AcDbCircle
 10
-41.49999999999903
 20
-1.37567567567509
 30
0.00000000000000
 40
1.32432432432430
100
AcDbArc
 50
270.00000000000000
 51
14.81517859869740
  0
LINE
  5
133
330
22
100
AcDbEntity
  8
Zeichnung 5
  6
CONTINUOUS
 62
     7
370
    18
100
AcDbLine
 10
-40.21970193348637
 20
-1.03704346090421
 30
0.00000000000000
 11
-41.45597374218735
 21
3.63704346090579
 31
0.00000000000000
  0
ARC
  5
134
330
22
100
AcDbEntity
  8
Zeichnung 5
  6
CONTINUOUS
 62
     7
370
    18
100
AcDbCircle
 10
-40.17567567567451
 20
3.97567567567672
 30
0.00000000000000
 40
1.32432432432436
100
AcDbArc
 50
345.18482140129896
 51
194.81517859869729
  0
LINE
  5
135
330
22
100
AcDbEntity
  8
Zeichnung 5
  6
CONTINUOUS
 62
     7
370
    18
100
AcDbLine
 10
-38.89537760916166
 20
3.63704346090570
 30
0.00000000000000
 11
-40.13164941786300
 21
-1.03704346090412
 31
0.00000000000000
  0
ARC
  5
136
330
22
100
AcDbEntity
  8
Zeichnung 5
  6
CONTINUOUS
 62
     7
370
    18
100
AcDbCircle
 10
-38.85135135135035
 20
-1.37567567567509
 30
0.00000000000000
 40
1.32432432432439
100
AcDbArc
 50
165.18482140129899
 51
14.81517859870121
  0
LINE
  5
137
330
22
100
AcDbEntity
  8
Zeichnung 5
  6
CONTINUOUS
 62
     7
370
    18
100
AcDbLine
 10
-37.57105328483767
 20
-1.03704346090412
 30
0.00000000000000
 11
-38.80732509353901
 21
3.63704346090570
 31
0.00000000000000
  0
ARC
  5
138
330
22
100
AcDbEntity
  8
Zeichnung 5
  6
CONTINUOUS
 62
     7
370
    18
100
AcDbCircle
 10
-37.52702702702618
 20
3.97567567567672
 30
0.00000000000000
 40
1.32432432432439
100
AcDbArc
 50
345.18482140130084
 51
194.81517859870101
  0
LINE
  5
139
330
22
100
AcDbEntity
  8
Zeichnung 5
  6
CONTINUOUS
 62
     7
370
    18
100
AcDbLine
 10
-36.24672896051333
 20
3.63704346090574
 30
0.00000000000000
 11
-37.48300076921449
 21
-1.03704346090416
 31
0.00000000000000
  0
ARC
  5
13A
330
22
100
AcDbEntity
  8
Zeichnung 5
  6
CONTINUOUS
 62
     7
370
    18
100
AcDbCircle
 10
-36.20270270270183
 20
-1.37567567567509
 30
0.00000000000000
 40
1.32432432432438
100
AcDbArc
 50
165.18482140130084
 51
14.81517859869939
  0
LINE
  5
13B
330
22
100
AcDbEntity
  8
Zeichnung 5
  6
CONTINUOUS
 62
     7
370
    18
100
AcDbLine
 10
-34.92240463618916
 20
-1.03704346090416
 30
0.00000000000000
 11
-36.15867644489033
 21
3.63704346090574
 31
0.00000000000000
  0
ARC
  5
13C
330
22
100
AcDbEntity
  8
Zeichnung 5
  6
CONTINUOUS
 62
     7
370
    18
100
AcDbCircle
 10
-34.87837837837748
 20
3.97567567567672
 30
0.00000000000000
 40
1.32432432432438
100
AcDbArc
 50
345.18482140130084
 51
194.81517859869916
  0
LINE
  5
13D
330
22
100
AcDbEntity
  8
Zeichnung 5
  6
CONTINUOUS
 62
     7
370
    18
100
AcDbLine
 10
-33.59808031186464
 20
3.63704346090574
 30
0.00000000000000
 11
-34.83435212056580
 21
-1.03704346090416
 31
0.00000000000000
  0
ARC
  5
13E
330
22
100
AcDbEntity
  8
Zeichnung 5
  6
CONTINUOUS
 62
     7
370
    18
100
AcDbCircle
 10
-33.55405405405314
 20
-1.37567567567509
 30
0.00000000000000
 40
1.32432432432438
100
AcDbArc
 50
165.18482140130084
 51
14.81517859869939
  0
LINE
  5
13F
330
22
100
AcDbEntity
  8
Zeichnung 5
  6
CONTINUOUS
 62
     7
370
    18
100
AcDbLine
 10
-32.27375598754048
 20
-1.03704346090416
 30
0.00000000000000
 11
-33.51002779624164
 21
3.63704346090574
 31
0.00000000000000
  0
ARC
  5
140
330
22
100
AcDbEntity
  8
Zeichnung 5
  6
CONTINUOUS
 62
     7
370
    18
100
AcDbCircle
 10
-32.22972972972880
 20
3.97567567567672
 30
0.00000000000000
 40
1.32432432432438
100
AcDbArc
 50
345.18482140130084
 51
194.81517859869916
  0
LINE
  5
141
330
22
100
AcDbEntity
  8
Zeichnung 5
  6
CONTINUOUS
 62
     7
370
    18
100
AcDbLine
 10
-30.94943166321595
 20
3.63704346090574
 30
0.00000000000000
 11
-32.18570347191712
 21
-1.03704346090416
 31
0.00000000000000
  0
ARC
  5
142
330
22
100
AcDbEntity
  8
Zeichnung 5
  6
CONTINUOUS
 62
     7
370
    18
100
AcDbCircle
 10
-30.90540540540445
 20
-1.37567567567509
 30
0.00000000000000
 40
1.32432432432438
100
AcDbArc
 50
165.18482140130084
 51
14.81517859869939
  0
LINE
  5
143
330
22
100
AcDbEntity
  8
Zeichnung 5
  6
CONTINUOUS
 62
     7
370
    18
100
AcDbLine
 10
-29.62510733889179
 20
-1.03704346090416
 30
0.00000000000000
 11
-30.86137914759295
 21
3.63704346090570
 31
0.00000000000000
  0
ARC
  5
144
330
22
100
AcDbEntity
  8
Zeichnung 5
  6
CONTINUOUS
 62
     7
370
    18
100
AcDbCircle
 10
-29.58108108108011
 20
3.97567567567667
 30
0.00000000000000
 40
1.32432432432438
100
AcDbArc
 50
345.18482140129896
 51
194.81517859869916
  0
LINE
  5
145
330
22
100
AcDbEntity
  8
Zeichnung 5
  6
CONTINUOUS
 62
     7
370
    18
100
AcDbLine
 10
-28.30078301456727
 20
3.63704346090565
 30
0.00000000000000
 11
-29.53705482326861
 21
-1.03704346090412
 31
0.00000000000000
  0
ARC
  5
146
330
22
100
AcDbEntity
  8
Zeichnung 5
  6
CONTINUOUS
 62
     7
370
    18
100
AcDbCircle
 10
-28.25675675675594
 20
-1.37567567567509
 30
0.00000000000000
 40
1.32432432432439
100
AcDbArc
 50
165.18482140129899
 51
14.81517859869939
  0
LINE
  5
147
330
22
100
AcDbEntity
  8
Zeichnung 5
  6
CONTINUOUS
 62
     7
370
    18
100
AcDbLine
 10
-26.97645869024328
 20
-1.03704346090416
 30
0.00000000000000
 11
-28.21273049894444
 21
3.63704346090570
 31
0.00000000000000
  0
ARC
  5
148
330
22
100
AcDbEntity
  8
Zeichnung 5
  6
CONTINUOUS
 62
     7
370
    18
100
AcDbCircle
 10
-26.93243243243160
 20
3.97567567567667
 30
0.00000000000000
 40
1.32432432432438
100
AcDbArc
 50
345.18482140130084
 51
194.81517859869916
  0
LINE
  5
149
330
22
100
AcDbEntity
  8
Zeichnung 5
  6
CONTINUOUS
 62
     7
370
    18
100
AcDbLine
 10
-25.65213436591876
 20
3.63704346090570
 30
0.00000000000000
 11
-26.88840617461992
 21
-1.03704346090416
 31
0.00000000000000
  0
ARC
  5
14A
330
22
100
AcDbEntity
  8
Zeichnung 5
  6
CONTINUOUS
 62
     7
370
    18
100
AcDbCircle
 10
-25.60810810810725
 20
-1.37567567567509
 30
0.00000000000000
 40
1.32432432432438
100
AcDbArc
 50
165.18482140130084
 51
14.81517859870121
  0
LINE
  5
14B
330
22
100
AcDbEntity
  8
Zeichnung 5
  6
CONTINUOUS
 62
     7
370
    18
100
AcDbLine
 10
-24.32781004159459
 20
-1.03704346090412
 30
0.00000000000000
 11
-25.56408185029593
 21
3.63704346090565
 31
0.00000000000000
  0
ARC
  5
14C
330
22
100
AcDbEntity
  8
Zeichnung 5
  6
CONTINUOUS
 62
     7
370
    18
100
AcDbCircle
 10
-24.28378378378309
 20
3.97567567567667
 30
0.00000000000000
 40
1.32432432432439
100
AcDbArc
 50
345.18482140130271
 51
194.81517859870101
  0
LINE
  5
14D
330
22
100
AcDbEntity
  8
Zeichnung 5
  6
CONTINUOUS
 62
     7
370
    18
100
AcDbLine
 10
-23.00348571727025
 20
3.63704346090574
 30
0.00000000000000
 11
-24.23975752597123
 21
-1.03704346090421
 31
0.00000000000000
  0
ARC
  5
14E
330
22
100
AcDbEntity
  8
Zeichnung 5
  6
CONTINUOUS
 62
     7
370
    18
100
AcDbCircle
 10
-22.95945945945856
 20
-1.37567567567509
 30
0.00000000000000
 40
1.32432432432436
100
AcDbArc
 50
165.18482140130271
 51
14.81517859869939
  0
LINE
  5
14F
330
22
100
AcDbEntity
  8
Zeichnung 5
  6
CONTINUOUS
 62
     7
370
    18
100
AcDbLine
 10
-21.67916139294590
 20
-1.03704346090416
 30
0.00000000000000
 11
-22.91543320164706
 21
3.63704346090570
 31
0.00000000000000
  0
ARC
  5
150
330
22
100
AcDbEntity
  8
Zeichnung 5
  6
CONTINUOUS
 62
     7
370
    18
100
AcDbCircle
 10
-21.63513513513422
 20
3.97567567567667
 30
0.00000000000000
 40
1.32432432432438
100
AcDbArc
 50
345.18482140129896
 51
194.81517859869916
  0
LINE
  5
151
330
22
100
AcDbEntity
  8
Zeichnung 5
  6
CONTINUOUS
 62
     7
370
    18
100
AcDbLine
 10
-20.35483706862138
 20
3.63704346090565
 30
0.00000000000000
 11
-21.59110887732272
 21
-1.03704346090412
 31
0.00000000000000
  0
ARC
  5
152
330
22
100
AcDbEntity
  8
Zeichnung 5
  6
CONTINUOUS
 62
     7
370
    18
100
AcDbCircle
 10
-20.31081081081006
 20
-1.37567567567509
 30
0.00000000000000
 40
1.32432432432439
100
AcDbArc
 50
165.18482140129899
 51
14.81517859870121
  0
LINE
  5
153
330
22
100
AcDbEntity
  8
Zeichnung 5
  6
CONTINUOUS
 62
     7
370
    18
100
AcDbLine
 10
-19.03051274429739
 20
-1.03704346090412
 30
0.00000000000000
 11
-20.26678455299873
 21
3.63704346090565
 31
0.00000000000000
  0
ARC
  5
154
330
22
100
AcDbEntity
  8
Zeichnung 5
  6
CONTINUOUS
 62
     7
370
    18
100
AcDbCircle
 10
-18.98648648648589
 20
3.97567567567667
 30
0.00000000000000
 40
1.32432432432439
100
AcDbArc
 50
345.18482140130271
 51
194.81517859870101
  0
LINE
  5
155
330
22
100
AcDbEntity
  8
Zeichnung 5
  6
CONTINUOUS
 62
     7
370
    18
100
AcDbLine
 10
-17.70618841997305
 20
3.63704346090574
 30
0.00000000000000
 11
-18.94246022867403
 21
-1.03704346090421
 31
0.00000000000000
  0
ARC
  5
156
330
22
100
AcDbEntity
  8
Zeichnung 5
  6
CONTINUOUS
 62
     7
370
    18
100
AcDbCircle
 10
-17.66216216216137
 20
-1.37567567567509
 30
0.00000000000000
 40
1.32432432432436
100
AcDbArc
 50
165.18482140130271
 51
14.81517859869939
  0
LINE
  5
157
330
22
100
AcDbEntity
  8
Zeichnung 5
  6
CONTINUOUS
 62
     7
370
    18
100
AcDbLine
 10
-16.38186409564870
 20
-1.03704346090416
 30
0.00000000000000
 11
-17.61813590434986
 21
3.63704346090570
 31
0.00000000000000
  0
ARC
  5
158
330
22
100
AcDbEntity
  8
Zeichnung 5
  6
CONTINUOUS
 62
     7
370
    18
100
AcDbCircle
 10
-16.33783783783702
 20
3.97567567567667
 30
0.00000000000000
 40
1.32432432432438
100
AcDbArc
 50
345.18482140130084
 51
194.81517859869916
  0
LINE
  5
159
330
22
100
AcDbEntity
  8
Zeichnung 5
  6
CONTINUOUS
 62
     7
370
    18
100
AcDbLine
 10
-15.05753977132418
 20
3.63704346090570
 30
0.00000000000000
 11
-16.29381158002534
 21
-1.03704346090416
 31
0.00000000000000
  0
ARC
  5
15A
330
22
100
AcDbEntity
  8
Zeichnung 5
  6
CONTINUOUS
 62
     7
370
    18
100
AcDbCircle
 10
-15.01351351351268
 20
-1.37567567567509
 30
0.00000000000000
 40
1.32432432432438
100
AcDbArc
 50
165.18482140130084
 51
14.81517859870121
  0
LINE
  5
15B
330
22
100
AcDbEntity
  8
Zeichnung 5
  6
CONTINUOUS
 62
     7
370
    18
100
AcDbLine
 10
-13.73321544700001
 20
-1.03704346090412
 30
0.00000000000000
 11
-14.96948725570135
 21
3.63704346090565
 31
0.00000000000000
  0
ARC
  5
15C
330
22
100
AcDbEntity
  8
Zeichnung 5
  6
CONTINUOUS
 62
     7
370
    18
100
AcDbCircle
 10
-13.68918918918851
 20
3.97567567567667
 30
0.00000000000000
 40
1.32432432432439
100
AcDbArc
 50
345.18482140130084
 51
194.81517859870101
  0
LINE
  5
15D
330
22
100
AcDbEntity
  8
Zeichnung 5
  6
CONTINUOUS
 62
     7
370
    18
100
AcDbLine
 10
-12.40889112267567
 20
3.63704346090570
 30
0.00000000000000
 11
-13.64516293137683
 21
-1.03704346090416
 31
0.00000000000000
  0
ARC
  5
15E
330
22
100
AcDbEntity
  8
Zeichnung 5
  6
CONTINUOUS
 62
     7
370
    18
100
AcDbCircle
 10
-12.36486486486417
 20
-1.37567567567509
 30
0.00000000000000
 40
1.32432432432438
100
AcDbArc
 50
165.18482140130084
 51
14.81517859870121
  0
LINE
  5
15F
330
22
100
AcDbEntity
  8
Zeichnung 5
  6
CONTINUOUS
 62
     7
370
    18
100
AcDbLine
 10
-11.08456679835150
 20
-1.03704346090412
 30
0.00000000000000
 11
-12.32083860705284
 21
3.63704346090565
 31
0.00000000000000
  0
ARC
  5
160
330
22
100
AcDbEntity
  8
Zeichnung 5
  6
CONTINUOUS
 62
     7
370
    18
100
AcDbCircle
 10
-11.04054054054000
 20
3.97567567567667
 30
0.00000000000000
 40
1.32432432432439
100
AcDbArc
 50
345.18482140130271
 51
194.81517859870101
  0
LINE
  5
161
330
22
100
AcDbEntity
  8
Zeichnung 5
  6
CONTINUOUS
 62
     7
370
    18
100
AcDbLine
 10
-9.76024247402716
 20
3.63704346090574
 30
0.00000000000000
 11
-10.99651428272814
 21
-1.03704346090421
 31
0.00000000000000
  0
ARC
  5
162
330
22
100
AcDbEntity
  8
Zeichnung 5
  6
CONTINUOUS
 62
     7
370
    18
100
AcDbCircle
 10
-9.71621621621548
 20
-1.37567567567509
 30
0.00000000000000
 40
1.32432432432436
100
AcDbArc
 50
165.18482140130271
 51
14.81517859869939
  0
LINE
  5
163
330
22
100
AcDbEntity
  8
Zeichnung 5
  6
CONTINUOUS
 62
     7
370
    18
100
AcDbLine
 10
-8.43591814970281
 20
-1.03704346090416
 30
0.00000000000000
 11
-9.67218995840398
 21
3.63704346090570
 31
0.00000000000000
  0
ARC
  5
164
330
22
100
AcDbEntity
  8
Zeichnung 5
  6
CONTINUOUS
 62
     7
370
    18
100
AcDbCircle
 10
-8.39189189189113
 20
3.97567567567667
 30
0.00000000000000
 40
1.32432432432438
100
AcDbArc
 50
345.18482140130084
 51
194.81517859869916
  0
LINE
  5
165
330
22
100
AcDbEntity
  8
Zeichnung 5
  6
CONTINUOUS
 62
     7
370
    18
100
AcDbLine
 10
-7.11159382537829
 20
3.63704346090570
 30
0.00000000000000
 11
-8.34786563407945
 21
-1.03704346090416
 31
0.00000000000000
  0
ARC
  5
166
330
22
100
AcDbEntity
  8
Zeichnung 5
  6
CONTINUOUS
 62
     7
370
    18
100
AcDbCircle
 10
-7.06756756756679
 20
-1.37567567567509
 30
0.00000000000000
 40
1.32432432432438
100
AcDbArc
 50
165.18482140130084
 51
14.81517859870121
  0
LINE
  5
167
330
22
100
AcDbEntity
  8
Zeichnung 5
  6
CONTINUOUS
 62
     7
370
    18
100
AcDbLine
 10
-5.78726950105413
 20
-1.03704346090412
 30
0.00000000000000
 11
-7.02354130975547
 21
3.63704346090565
 31
0.00000000000000
  0
ARC
  5
168
330
22
100
AcDbEntity
  8
Zeichnung 5
  6
CONTINUOUS
 62
     7
370
    18
100
AcDbCircle
 10
-5.74324324324262
 20
3.97567567567667
 30
0.00000000000000
 40
1.32432432432439
100
AcDbArc
 50
345.18482140130084
 51
194.81517859870101
  0
LINE
  5
169
330
22
100
AcDbEntity
  8
Zeichnung 5
  6
CONTINUOUS
 62
     7
370
    18
100
AcDbLine
 10
-4.46294517672978
 20
3.63704346090570
 30
0.00000000000000
 11
-5.69921698543094
 21
-1.03704346090416
 31
0.00000000000000
  0
ARC
  5
16A
330
22
100
AcDbEntity
  8
Zeichnung 5
  6
CONTINUOUS
 62
     7
370
    18
100
AcDbCircle
 10
-4.41891891891828
 20
-1.37567567567509
 30
0.00000000000000
 40
1.32432432432438
100
AcDbArc
 50
165.18482140130084
 51
14.81517859869939
  0
LINE
  5
16B
330
22
100
AcDbEntity
  8
Zeichnung 5
  6
CONTINUOUS
 62
     7
370
    18
100
AcDbLine
 10
-3.13862085240562
 20
-1.03704346090416
 30
0.00000000000000
 11
-4.37489266110678
 21
3.63704346090570
 31
0.00000000000000
  0
ARC
  5
16C
330
22
100
AcDbEntity
  8
Zeichnung 5
  6
CONTINUOUS
 62
     7
370
    18
100
AcDbCircle
 10
-3.09459459459394
 20
3.97567567567667
 30
0.00000000000000
 40
1.32432432432438
100
AcDbArc
 50
345.18482140130084
 51
194.81517859869916
  0
LINE
  5
16D
330
22
100
AcDbEntity
  8
Zeichnung 5
  6
CONTINUOUS
 62
     7
370
    18
100
AcDbLine
 10
-1.81429652808109
 20
3.63704346090570
 30
0.00000000000000
 11
-3.05056833678226
 21
-1.03704346090416
 31
0.00000000000000
  0
ARC
  5
16E
330
22
100
AcDbEntity
  8
Zeichnung 5
  6
CONTINUOUS
 62
     7
370
    18
100
AcDbCircle
 10
-1.77027027026959
 20
-1.37567567567509
 30
0.00000000000000
 40
1.32432432432438
100
AcDbArc
 50
165.18482140130084
 51
14.81517859869939
  0
LINE
  5
16F
330
22
100
AcDbEntity
  8
Zeichnung 5
  6
CONTINUOUS
 62
     7
370
    18
100
AcDbLine
 10
-0.48997220375693
 20
-1.03704346090416
 30
0.00000000000000
 11
-1.72624401245809
 21
3.63704346090570
 31
0.00000000000000
  0
ARC
  5
170
330
22
100
AcDbEntity
  8
Zeichnung 5
  6
CONTINUOUS
 62
     7
370
    18
100
AcDbCircle
 10
-0.44594594594525
 20
3.97567567567667
 30
0.00000000000000
 40
1.32432432432438
100
AcDbArc
 50
345.18482140130084
 51
194.81517859869916
  0
LINE
  5
171
330
22
100
AcDbEntity
  8
Zeichnung 5
  6
CONTINUOUS
 62
     7
370
    18
100
AcDbLine
 10
0.83435212056759
 20
3.63704346090570
 30
0.00000000000000
 11
-0.40191968813357
 21
-1.03704346090416
 31
0.00000000000000
  0
ARC
  5
172
330
22
100
AcDbEntity
  8
Zeichnung 5
  6
CONTINUOUS
 62
     7
370
    18
100
AcDbCircle
 10
0.87837837837910
 20
-1.37567567567509
 30
0.00000000000000
 40
1.32432432432438
100
AcDbArc
 50
165.18482140130084
 51
14.81517859869939
  0
LINE
  5
173
330
22
100
AcDbEntity
  8
Zeichnung 5
  6
CONTINUOUS
 62
     7
370
    18
100
AcDbLine
 10
2.15867644489176
 20
-1.03704346090416
 30
0.00000000000000
 11
0.92240463619060
 21
3.63704346090570
 31
0.00000000000000
  0
ARC
  5
174
330
22
100
AcDbEntity
  8
Zeichnung 5
  6
CONTINUOUS
 62
     7
370
    18
100
AcDbCircle
 10
2.20270270270344
 20
3.97567567567667
 30
0.00000000000000
 40
1.32432432432438
100
AcDbArc
 50
345.18482140129896
 51
194.81517859869916
  0
LINE
  5
175
330
22
100
AcDbEntity
  8
Zeichnung 5
  6
CONTINUOUS
 62
     7
370
    18
100
AcDbLine
 10
3.48300076921628
 20
3.63704346090565
 30
0.00000000000000
 11
2.24672896051494
 21
-1.03704346090412
 31
0.00000000000000
  0
ARC
  5
176
330
22
100
AcDbEntity
  8
Zeichnung 5
  6
CONTINUOUS
 62
     7
370
    18
100
AcDbCircle
 10
3.52702702702761
 20
-1.37567567567509
 30
0.00000000000000
 40
1.32432432432439
100
AcDbArc
 50
165.18482140129899
 51
14.81517859869939
  0
LINE
  5
177
330
22
100
AcDbEntity
  8
Zeichnung 5
  6
CONTINUOUS
 62
     7
370
    18
100
AcDbLine
 10
4.80732509354027
 20
-1.03704346090416
 30
0.00000000000000
 11
3.57105328483911
 21
3.63704346090570
 31
0.00000000000000
  0
ARC
  5
178
330
22
100
AcDbEntity
  8
Zeichnung 5
  6
CONTINUOUS
 62
     7
370
    18
100
AcDbCircle
 10
4.85135135135195
 20
3.97567567567667
 30
0.00000000000000
 40
1.32432432432438
100
AcDbArc
 50
345.18482140130084
 51
194.81517859869916
  0
LINE
  5
179
330
22
100
AcDbEntity
  8
Zeichnung 5
  6
CONTINUOUS
 62
     7
370
    18
100
AcDbLine
 10
6.13164941786479
 20
3.63704346090570
 30
0.00000000000000
 11
4.89537760916363
 21
-1.03704346090416
 31
0.00000000000000
  0
ARC
  5
17A
330
22
100
AcDbEntity
  8
Zeichnung 5
  6
CONTINUOUS
 62
     7
370
    18
100
AcDbCircle
 10
6.17567567567630
 20
-1.37567567567509
 30
0.00000000000000
 40
1.32432432432438
100
AcDbArc
 50
165.18482140130084
 51
14.81517859870121
  0
LINE
  5
17B
330
22
100
AcDbEntity
  8
Zeichnung 5
  6
CONTINUOUS
 62
     7
370
    18
100
AcDbLine
 10
7.45597374218896
 20
-1.03704346090412
 30
0.00000000000000
 11
6.21970193348762
 21
3.63704346090565
 31
0.00000000000000
  0
ARC
  5
17C
330
22
100
AcDbEntity
  8
Zeichnung 5
  6
CONTINUOUS
 62
     7
370
    18
100
AcDbCircle
 10
7.50000000000046
 20
3.97567567567667
 30
0.00000000000000
 40
1.32432432432439
100
AcDbArc
 50
345.18482140130271
 51
194.81517859870101
  0
LINE
  5
17D
330
22
100
AcDbEntity
  8
Zeichnung 5
  6
CONTINUOUS
 62
     7
370
    18
100
AcDbLine
 10
8.78029806651330
 20
3.63704346090574
 30
0.00000000000000
 11
7.54402625781232
 21
-1.03704346090421
 31
0.00000000000000
  0
ARC
  5
17E
330
22
100
AcDbEntity
  8
Zeichnung 5
  6
CONTINUOUS
 62
     7
370
    18
100
AcDbCircle
 10
8.82432432432498
 20
-1.37567567567509
 30
0.00000000000000
 40
1.32432432432436
100
AcDbArc
 50
165.18482140130271
 51
14.81517859869939
  0
LINE
  5
17F
330
22
100
AcDbEntity
  8
Zeichnung 5
  6
CONTINUOUS
 62
     7
370
    18
100
AcDbLine
 10
10.10462239083765
 20
-1.03704346090416
 30
0.00000000000000
 11
8.86835058213649
 21
3.63704346090570
 31
0.00000000000000
  0
ARC
  5
180
330
22
100
AcDbEntity
  8
Zeichnung 5
  6
CONTINUOUS
 62
     7
370
    18
100
AcDbCircle
 10
10.14864864864933
 20
3.97567567567667
 30
0.00000000000000
 40
1.32432432432438
100
AcDbArc
 50
345.18482140130084
 51
194.81517859869916
  0
LINE
  5
181
330
22
100
AcDbEntity
  8
Zeichnung 5
  6
CONTINUOUS
 62
     7
370
    18
100
AcDbLine
 10
11.42894671516217
 20
3.63704346090570
 30
0.00000000000000
 11
10.19267490646101
 21
-1.03704346090416
 31
0.00000000000000
  0
ARC
  5
182
330
22
100
AcDbEntity
  8
Zeichnung 5
  6
CONTINUOUS
 62
     7
370
    18
100
AcDbCircle
 10
11.47297297297367
 20
-1.37567567567509
 30
0.00000000000000
 40
1.32432432432438
100
AcDbArc
 50
165.18482140130084
 51
14.81517859870121
  0
LINE
  5
183
330
22
100
AcDbEntity
  8
Zeichnung 5
  6
CONTINUOUS
 62
     7
370
    18
100
AcDbLine
 10
12.75327103948634
 20
-1.03704346090412
 30
0.00000000000000
 11
11.51699923078500
 21
3.63704346090565
 31
0.00000000000000
  0
ARC
  5
184
330
22
100
AcDbEntity
  8
Zeichnung 5
  6
CONTINUOUS
 62
     7
370
    18
100
AcDbCircle
 10
12.79729729729784
 20
3.97567567567667
 30
0.00000000000000
 40
1.32432432432439
100
AcDbArc
 50
345.18482140130084
 51
194.81517859870101
  0
LINE
  5
185
330
22
100
AcDbEntity
  8
Zeichnung 5
  6
CONTINUOUS
 62
     7
370
    18
100
AcDbLine
 10
14.07759536381068
 20
3.63704346090570
 30
0.00000000000000
 11
12.84132355510952
 21
-1.03704346090416
 31
0.00000000000000
  0
ARC
  5
186
330
22
100
AcDbEntity
  8
Zeichnung 5
  6
CONTINUOUS
 62
     7
370
    18
100
AcDbCircle
 10
14.12162162162218
 20
-1.37567567567509
 30
0.00000000000000
 40
1.32432432432438
100
AcDbArc
 50
165.18482140130084
 51
14.81517859869939
  0
LINE
  5
187
330
22
100
AcDbEntity
  8
Zeichnung 5
  6
CONTINUOUS
 62
     7
370
    18
100
AcDbLine
 10
15.40191968813485
 20
-1.03704346090416
 30
0.00000000000000
 11
14.16564787943369
 21
3.63704346090570
 31
0.00000000000000
  0
ARC
  5
188
330
22
100
AcDbEntity
  8
Zeichnung 5
  6
CONTINUOUS
 62
     7
370
    18
100
AcDbCircle
 10
15.44594594594653
 20
3.97567567567667
 30
0.00000000000000
 40
1.32432432432438
100
AcDbArc
 50
345.18482140130084
 51
194.81517859869916
  0
LINE
  5
189
330
22
100
AcDbEntity
  8
Zeichnung 5
  6
CONTINUOUS
 62
     7
370
    18
100
AcDbLine
 10
16.72624401245937
 20
3.63704346090570
 30
0.00000000000000
 11
15.48997220375821
 21
-1.03704346090416
 31
0.00000000000000
  0
ARC
  5
18A
330
22
100
AcDbEntity
  8
Zeichnung 5
  6
CONTINUOUS
 62
     7
370
    18
100
AcDbCircle
 10
16.77027027027087
 20
-1.37567567567509
 30
0.00000000000000
 40
1.32432432432438
100
AcDbArc
 50
165.18482140130084
 51
14.81517859870121
  0
LINE
  5
18B
330
22
100
AcDbEntity
  8
Zeichnung 5
  6
CONTINUOUS
 62
     7
370
    18
100
AcDbLine
 10
18.05056833678354
 20
-1.03704346090412
 30
0.00000000000000
 11
16.81429652808220
 21
3.63704346090565
 31
0.00000000000000
  0
ARC
  5
18C
330
22
100
AcDbEntity
  8
Zeichnung 5
  6
CONTINUOUS
 62
     7
370
    18
100
AcDbCircle
 10
18.09459459459504
 20
3.97567567567667
 30
0.00000000000000
 40
1.32432432432439
100
AcDbArc
 50
345.18482140130271
 51
194.81517859870101
  0
LINE
  5
18D
330
22
100
AcDbEntity
  8
Zeichnung 5
  6
CONTINUOUS
 62
     7
370
    18
100
AcDbLine
 10
19.37489266110788
 20
3.63704346090574
 30
0.00000000000000
 11
18.13862085240690
 21
-1.03704346090421
 31
0.00000000000000
  0
ARC
  5
18E
330
22
100
AcDbEntity
  8
Zeichnung 5
  6
CONTINUOUS
 62
     7
370
    18
100
AcDbCircle
 10
19.41891891891956
 20
-1.37567567567509
 30
0.00000000000000
 40
1.32432432432436
100
AcDbArc
 50
165.18482140130271
 51
14.81517859870314
  0
LINE
  5
18F
330
22
100
AcDbEntity
  8
Zeichnung 5
  6
CONTINUOUS
 62
     7
370
    18
100
AcDbLine
 10
20.69921698543222
 20
-1.03704346090407
 30
0.00000000000000
 11
19.46294517673071
 21
3.63704346090561
 31
0.00000000000000
  0
ARC
  5
190
330
22
100
AcDbEntity
  8
Zeichnung 5
  6
CONTINUOUS
 62
     7
370
    18
100
AcDbCircle
 10
20.74324324324355
 20
3.97567567567667
 30
0.00000000000000
 40
1.32432432432440
100
AcDbArc
 50
345.18482140130271
 51
194.81517859870286
  0
LINE
  5
191
330
22
100
AcDbEntity
  8
Zeichnung 5
  6
CONTINUOUS
 62
     7
370
    18
100
AcDbLine
 10
22.02354130975639
 20
3.63704346090574
 30
0.00000000000000
 11
20.78726950105541
 21
-1.03704346090421
 31
0.00000000000000
  0
ARC
  5
192
330
22
100
AcDbEntity
  8
Zeichnung 5
  6
CONTINUOUS
 62
     7
370
    18
100
AcDbCircle
 10
22.06756756756807
 20
-1.37567567567509
 30
0.00000000000000
 40
1.32432432432436
100
AcDbArc
 50
165.18482140130271
 51
14.81517859869939
  0
LINE
  5
193
330
22
100
AcDbEntity
  8
Zeichnung 5
  6
CONTINUOUS
 62
     7
370
    18
100
AcDbLine
 10
23.34786563408073
 20
-1.03704346090416
 30
0.00000000000000
 11
22.11159382537957
 21
3.63704346090570
 31
0.00000000000000
  0
ARC
  5
194
330
22
100
AcDbEntity
  8
Zeichnung 5
  6
CONTINUOUS
 62
     7
370
    18
100
AcDbCircle
 10
23.39189189189241
 20
3.97567567567667
 30
0.00000000000000
 40
1.32432432432438
100
AcDbArc
 50
345.18482140130084
 51
194.81517859869916
  0
LINE
  5
195
330
22
100
AcDbEntity
  8
Zeichnung 5
  6
CONTINUOUS
 62
     7
370
    18
100
AcDbLine
 10
24.67218995840526
 20
3.63704346090570
 30
0.00000000000000
 11
23.43591814970410
 21
-1.03704346090416
 31
0.00000000000000
  0
ARC
  5
196
330
22
100
AcDbEntity
  8
Zeichnung 5
  6
CONTINUOUS
 62
     7
370
    18
100
AcDbCircle
 10
24.71621621621676
 20
-1.37567567567509
 30
0.00000000000000
 40
1.32432432432438
100
AcDbArc
 50
165.18482140130084
 51
14.81517859870314
  0
LINE
  5
197
330
22
100
AcDbEntity
  8
Zeichnung 5
  6
CONTINUOUS
 62
     7
370
    18
100
AcDbLine
 10
25.99651428272942
 20
-1.03704346090407
 30
0.00000000000000
 11
24.76024247402791
 21
3.63704346090561
 31
0.00000000000000
  0
ARC
  5
198
330
22
100
AcDbEntity
  8
Zeichnung 5
  6
CONTINUOUS
 62
     7
370
    18
100
AcDbCircle
 10
26.04054054054075
 20
3.97567567567667
 30
0.00000000000000
 40
1.32432432432440
100
AcDbArc
 50
345.18482140130641
 51
194.81517859870286
  0
LINE
  5
199
330
22
100
AcDbEntity
  8
Zeichnung 5
  6
CONTINUOUS
 62
     7
370
    18
100
AcDbLine
 10
27.32083860705359
 20
3.63704346090583
 30
0.00000000000000
 11
26.08456679835260
 21
-1.03704346090421
 31
0.00000000000000
  0
ARC
  5
19A
330
22
100
AcDbEntity
  8
Zeichnung 5
  6
CONTINUOUS
 62
     7
370
    18
100
AcDbCircle
 10
27.36486486486545
 20
-1.37567567567509
 30
0.00000000000000
 40
1.32432432432435
100
AcDbArc
 50
165.18482140130456
 51
14.81517859870110
  0
LINE
  5
19B
330
22
100
AcDbEntity
  8
Zeichnung 5
  6
CONTINUOUS
 62
     7
370
    18
100
AcDbLine
 10
28.64516293137811
 20
-1.03704346090412
 30
0.00000000000000
 11
27.40889112267677
 21
3.63704346090565
 31
0.00000000000000
  0
ARC
  5
19C
330
22
100
AcDbEntity
  8
Zeichnung 5
  6
CONTINUOUS
 62
     7
370
    18
100
AcDbCircle
 10
28.68918918918961
 20
3.97567567567667
 30
0.00000000000000
 40
1.32432432432439
100
AcDbArc
 50
345.18482140130084
 51
194.81517859870101
  0
LINE
  5
19D
330
22
100
AcDbEntity
  8
Zeichnung 5
  6
CONTINUOUS
 62
     7
370
    18
100
AcDbLine
 10
29.96948725570245
 20
3.63704346090570
 30
0.00000000000000
 11
28.73321544700129
 21
-1.03704346090416
 31
0.00000000000000
  0
ARC
  5
19E
330
22
100
AcDbEntity
  8
Zeichnung 5
  6
CONTINUOUS
 62
     7
370
    18
100
AcDbCircle
 10
30.01351351351396
 20
-1.37567567567509
 30
0.00000000000000
 40
1.32432432432438
100
AcDbArc
 50
165.18482140130084
 51
14.81517859870121
  0
LINE
  5
19F
330
22
100
AcDbEntity
  8
Zeichnung 5
  6
CONTINUOUS
 62
     7
370
    18
100
AcDbLine
 10
31.29381158002662
 20
-1.03704346090412
 30
0.00000000000000
 11
30.05753977132528
 21
3.63704346090565
 31
0.00000000000000
  0
ARC
  5
1A0
330
22
100
AcDbEntity
  8
Zeichnung 5
  6
CONTINUOUS
 62
     7
370
    18
100
AcDbCircle
 10
31.33783783783813
 20
3.97567567567667
 30
0.00000000000000
 40
1.32432432432439
100
AcDbArc
 50
345.18482140130271
 51
194.81517859870101
  0
LINE
  5
1A1
330
22
100
AcDbEntity
  8
Zeichnung 5
  6
CONTINUOUS
 62
     7
370
    18
100
AcDbLine
 10
32.61813590435096
 20
3.63704346090574
 30
0.00000000000000
 11
31.38186409564998
 21
-1.03704346090421
 31
0.00000000000000
  0
ARC
  5
1A2
330
22
100
AcDbEntity
  8
Zeichnung 5
  6
CONTINUOUS
 62
     7
370
    18
100
AcDbCircle
 10
32.66216216216265
 20
-1.37567567567509
 30
0.00000000000000
 40
1.32432432432436
100
AcDbArc
 50
165.18482140130271
 51
14.81517859870121
  0
LINE
  5
1A3
330
22
100
AcDbEntity
  8
Zeichnung 5
  6
CONTINUOUS
 62
     7
370
    18
100
AcDbLine
 10
33.94246022867531
 20
-1.03704346090412
 30
0.00000000000000
 11
32.70618841997397
 21
3.63704346090565
 31
0.00000000000000
  0
ARC
  5
1A4
330
22
100
AcDbEntity
  8
Zeichnung 5
  6
CONTINUOUS
 62
     7
370
    18
100
AcDbCircle
 10
33.98648648648681
 20
3.97567567567667
 30
0.00000000000000
 40
1.32432432432439
100
AcDbArc
 50
345.18482140130271
 51
194.81517859870101
  0
LINE
  5
1A5
330
22
100
AcDbEntity
  8
Zeichnung 5
  6
CONTINUOUS
 62
     7
370
    18
100
AcDbLine
 10
35.26678455299965
 20
3.63704346090574
 30
0.00000000000000
 11
34.03051274429867
 21
-1.03704346090421
 31
0.00000000000000
  0
ARC
  5
1A6
330
22
100
AcDbEntity
  8
Zeichnung 5
  6
CONTINUOUS
 62
     7
370
    18
100
AcDbCircle
 10
35.31081081081133
 20
-1.37567567567509
 30
0.00000000000000
 40
1.32432432432436
100
AcDbArc
 50
165.18482140130271
 51
14.81517859870121
  0
LINE
  5
1A7
330
22
100
AcDbEntity
  8
Zeichnung 5
  6
CONTINUOUS
 62
     7
370
    18
100
AcDbLine
 10
36.59110887732400
 20
-1.03704346090412
 30
0.00000000000000
 11
35.35483706862266
 21
3.63704346090565
 31
0.00000000000000
  0
ARC
  5
1A8
330
22
100
AcDbEntity
  8
Zeichnung 5
  6
CONTINUOUS
 62
     7
370
    18
100
AcDbCircle
 10
36.63513513513550
 20
3.97567567567667
 30
0.00000000000000
 40
1.32432432432439
100
AcDbArc
 50
345.18482140130084
 51
194.81517859870101
  0
LINE
  5
1A9
330
22
100
AcDbEntity
  8
Zeichnung 5
  6
CONTINUOUS
 62
     7
370
    18
100
AcDbLine
 10
37.91543320164834
 20
3.63704346090570
 30
0.00000000000000
 11
36.67916139294718
 21
-1.03704346090416
 31
0.00000000000000
  0
ARC
  5
1AA
330
22
100
AcDbEntity
  8
Zeichnung 5
  6
CONTINUOUS
 62
     7
370
    18
100
AcDbCircle
 10
37.95945945945984
 20
-1.37567567567509
 30
0.00000000000000
 40
1.32432432432438
100
AcDbArc
 50
165.18482140130084
 51
14.81517859870121
  0
LINE
  5
1AB
330
22
100
AcDbEntity
  8
Zeichnung 5
  6
CONTINUOUS
 62
     7
370
    18
100
AcDbLine
 10
39.23975752597251
 20
-1.03704346090412
 30
0.00000000000000
 11
38.00348571727117
 21
3.63704346090565
 31
0.00000000000000
  0
ARC
  5
1AC
330
22
100
AcDbEntity
  8
Zeichnung 5
  6
CONTINUOUS
 62
     7
370
    18
100
AcDbCircle
 10
39.28378378378401
 20
3.97567567567667
 30
0.00000000000000
 40
1.32432432432439
100
AcDbArc
 50
345.18482140130271
 51
194.81517859870101
  0
LINE
  5
1AD
330
22
100
AcDbEntity
  8
Zeichnung 5
  6
CONTINUOUS
 62
     7
370
    18
100
AcDbLine
 10
40.56408185029685
 20
3.63704346090574
 30
0.00000000000000
 11
39.32781004159587
 21
-1.03704346090421
 31
0.00000000000000
  0
ARC
  5
1AE
330
22
100
AcDbEntity
  8
Zeichnung 5
  6
CONTINUOUS
 62
     7
370
    18
100
AcDbCircle
 10
40.60810810810853
 20
-1.37567567567509
 30
0.00000000000000
 40
1.32432432432436
100
AcDbArc
 50
165.18482140130271
 51
14.81517859869939
  0
LINE
  5
1AF
330
22
100
AcDbEntity
  8
Zeichnung 5
  6
CONTINUOUS
 62
     7
370
    18
100
AcDbLine
 10
41.88840617462120
 20
-1.03704346090416
 30
0.00000000000000
 11
40.65213436592003
 21
3.63704346090570
 31
0.00000000000000
  0
ARC
  5
1B0
330
22
100
AcDbEntity
  8
Zeichnung 5
  6
CONTINUOUS
 62
     7
370
    18
100
AcDbCircle
 10
41.93243243243288
 20
3.97567567567667
 30
0.00000000000000
 40
1.32432432432438
100
AcDbArc
 50
345.18482140130084
 51
194.81517859869916
  0
LINE
  5
1B1
330
22
100
AcDbEntity
  8
Zeichnung 5
  6
CONTINUOUS
 62
     7
370
    18
100
AcDbLine
 10
43.21273049894572
 20
3.63704346090570
 30
0.00000000000000
 11
41.97645869024456
 21
-1.03704346090416
 31
0.00000000000000
  0
ARC
  5
1B2
330
22
100
AcDbEntity
  8
Zeichnung 5
  6
CONTINUOUS
 62
     7
370
    18
100
AcDbCircle
 10
43.25675675675722
 20
-1.37567567567509
 30
0.00000000000000
 40
1.32432432432438
100
AcDbArc
 50
165.18482140130084
 51
14.81517859870121
  0
LINE
  5
1B3
330
22
100
AcDbEntity
  8
Zeichnung 5
  6
CONTINUOUS
 62
     7
370
    18
100
AcDbLine
 10
44.53705482326989
 20
-1.03704346090412
 30
0.00000000000000
 11
43.30078301456855
 21
3.63704346090565
 31
0.00000000000000
  0
ARC
  5
1B4
330
22
100
AcDbEntity
  8
Zeichnung 5
  6
CONTINUOUS
 62
     7
370
    18
100
AcDbCircle
 10
44.58108108108139
 20
3.97567567567667
 30
0.00000000000000
 40
1.32432432432439
100
AcDbArc
 50
345.18482140130084
 51
194.81517859870101
  0
LINE
  5
1B5
330
22
100
AcDbEntity
  8
Zeichnung 5
  6
CONTINUOUS
 62
     7
370
    18
100
AcDbLine
 10
45.86137914759423
 20
3.63704346090570
 30
0.00000000000000
 11
44.62510733889307
 21
-1.03704346090416
 31
0.00000000000000
  0
ARC
  5
1B6
330
22
100
AcDbEntity
  8
Zeichnung 5
  6
CONTINUOUS
 62
     7
370
    18
100
AcDbCircle
 10
45.90540540540573
 20
-1.37567567567509
 30
0.00000000000000
 40
1.32432432432438
100
AcDbArc
 50
165.18482140130084
 51
14.81517859869939
  0
LINE
  5
1B7
330
22
100
AcDbEntity
  8
Zeichnung 5
  6
CONTINUOUS
 62
     7
370
    18
100
AcDbLine
 10
47.18570347191839
 20
-1.03704346090416
 30
0.00000000000000
 11
45.94943166321723
 21
3.63704346090570
 31
0.00000000000000
  0
ARC
  5
1B8
330
22
100
AcDbEntity
  8
Zeichnung 5
  6
CONTINUOUS
 62
     7
370
    18
100
AcDbCircle
 10
47.22972972973008
 20
3.97567567567667
 30
0.00000000000000
 40
1.32432432432438
100
AcDbArc
 50
345.18482140130084
 51
194.81517859869916
  0
LINE
  5
1B9
330
22
100
AcDbEntity
  8
Zeichnung 5
  6
CONTINUOUS
 62
     7
370
    18
100
AcDbLine
 10
48.51002779624292
 20
3.63704346090570
 30
0.00000000000000
 11
47.27375598754176
 21
-1.03704346090416
 31
0.00000000000000
  0
ARC
  5
1BA
330
22
100
AcDbEntity
  8
Zeichnung 5
  6
CONTINUOUS
 62
     7
370
    18
100
AcDbCircle
 10
48.55405405405442
 20
-1.37567567567509
 30
0.00000000000000
 40
1.32432432432438
100
AcDbArc
 50
165.18482140130084
 51
14.81517859869939
  0
LINE
  5
1BB
330
22
100
AcDbEntity
  8
Zeichnung 5
  6
CONTINUOUS
 62
     7
370
    18
100
AcDbLine
 10
49.83435212056708
 20
-1.03704346090416
 30
0.00000000000000
 11
48.59808031186592
 21
3.63704346090565
 31
0.00000000000000
  0
ARC
  5
1BC
330
22
100
AcDbEntity
  8
Zeichnung 5
  6
CONTINUOUS
 62
     7
370
    18
100
AcDbCircle
 10
49.87837837837876
 20
3.97567567567663
 30
0.00000000000000
 40
1.32432432432438
100
AcDbArc
 50
345.18482140130084
 51
194.81517859869916
  0
LINE
  5
1BD
330
22
100
AcDbEntity
  8
Zeichnung 5
  6
CONTINUOUS
 62
     7
370
    18
100
AcDbLine
 10
51.15867644489161
 20
3.63704346090565
 30
0.00000000000000
 11
49.92240463619044
 21
-1.03704346090416
 31
0.00000000000000
  0
ARC
  5
1BE
330
22
100
AcDbEntity
  8
Zeichnung 5
  6
CONTINUOUS
 62
     7
370
    18
100
AcDbCircle
 10
51.20270270270311
 20
-1.37567567567509
 30
0.00000000000000
 40
1.32432432432438
100
AcDbArc
 50
165.18482140130084
 51
14.81517859869939
  0
LINE
  5
1BF
330
22
100
AcDbEntity
  8
Zeichnung 5
  6
CONTINUOUS
 62
     7
370
    18
100
AcDbLine
 10
52.48300076921578
 20
-1.03704346090416
 30
0.00000000000000
 11
51.24672896051461
 21
3.63704346090565
 31
0.00000000000000
  0
ARC
  5
1C0
330
22
100
AcDbEntity
  8
Zeichnung 5
  6
CONTINUOUS
 62
     7
370
    18
100
AcDbCircle
 10
52.52702702702745
 20
3.97567567567663
 30
0.00000000000000
 40
1.32432432432438
100
AcDbArc
 50
345.18482140129896
 51
194.81517859869916
  0
LINE
  5
1C1
330
22
100
AcDbEntity
  8
Zeichnung 5
  6
CONTINUOUS
 62
     7
370
    18
100
AcDbLine
 10
53.80732509354029
 20
3.63704346090561
 30
0.00000000000000
 11
52.57105328483895
 21
-1.03704346090412
 31
0.00000000000000
  0
ARC
  5
1C2
330
22
100
AcDbEntity
  8
Zeichnung 5
  6
CONTINUOUS
 62
     7
370
    18
100
AcDbCircle
 10
53.85135135135162
 20
-1.37567567567509
 30
0.00000000000000
 40
1.32432432432439
100
AcDbArc
 50
165.18482140129899
 51
14.81517859869757
  0
LINE
  5
1C3
330
22
100
AcDbEntity
  8
Zeichnung 5
  6
CONTINUOUS
 62
     7
370
    18
100
AcDbLine
 10
55.13164941786428
 20
-1.03704346090421
 30
0.00000000000000
 11
53.89537760916330
 21
3.63704346090570
 31
0.00000000000000
  0
ARC
  5
1C4
330
22
100
AcDbEntity
  8
Zeichnung 5
  6
CONTINUOUS
 62
     7
370
    18
100
AcDbCircle
 10
55.17567567567614
 20
3.97567567567663
 30
0.00000000000000
 40
1.32432432432436
100
AcDbArc
 50
345.18482140129896
 51
194.81517859869729
  0
LINE
  5
1C5
330
22
100
AcDbEntity
  8
Zeichnung 5
  6
CONTINUOUS
 62
     7
370
    18
100
AcDbLine
 10
56.45597374218898
 20
3.63704346090561
 30
0.00000000000000
 11
55.21970193348764
 21
-1.03704346090412
 31
0.00000000000000
  0
ARC
  5
1C6
330
22
100
AcDbEntity
  8
Zeichnung 5
  6
CONTINUOUS
 62
     7
370
    18
100
AcDbCircle
 10
56.50000000000031
 20
-1.37567567567509
 30
0.00000000000000
 40
1.32432432432439
100
AcDbArc
 50
165.18482140129899
 51
270.00000000000011
  0
ENDBLK
  5
1C7
330
22
100
AcDbEntity
  8
0
100
AcDbBlockEnd
  0
BLOCK
  5
1C8
330
23
100
AcDbEntity
  8
0
100
AcDbBlockBegin
  2
*U12
 70
     1
 10
0.00000000000000
 20
0.00000000000000
 30
0.00000000000000
  3
*U12
  1

  0
ARC
  5
1C9
330
23
100
AcDbEntity
  8
Zeichnung 5
  6
CONTINUOUS
 62
     7
370
    18
100
AcDbCircle
 10
-41.49999999999938
 20
6.28000000000051
 30
0.00000000000000
 40
0.97999999999998
100
AcDbArc
 50
270.00000000000000
 51
14.49500027324626
  0
LINE
  5
1CA
330
23
100
AcDbEntity
  8
Zeichnung 5
  6
CONTINUOUS
 62
     7
370
    18
100
AcDbLine
 10
-40.55119390442955
 20
6.52528961048113
 30
0.00000000000000
 11
-41.46880609556902
 21
10.07471038951984
 31
0.00000000000000
  0
ARC
  5
1CB
330
23
100
AcDbEntity
  8
Zeichnung 5
  6
CONTINUOUS
 62
     7
370
    18
100
AcDbCircle
 10
-40.51999999999936
 20
10.32000000000042
 30
0.00000000000000
 40
0.97999999999993
100
AcDbArc
 50
345.50499972675362
 51
194.49500027324638
  0
LINE
  5
1CC
330
23
100
AcDbEntity
  8
Zeichnung 5
  6
CONTINUOUS
 62
     7
370
    18
100
AcDbLine
 10
-39.57119390442969
 20
10.07471038951984
 30
0.00000000000000
 11
-40.48880609556918
 21
6.52528961048113
 31
0.00000000000000
  0
ARC
  5
1CD
330
23
100
AcDbEntity
  8
Zeichnung 5
  6
CONTINUOUS
 62
     7
370
    18
100
AcDbCircle
 10
-39.53999999999933
 20
6.28000000000051
 30
0.00000000000000
 40
0.97999999999993
100
AcDbArc
 50
165.50499972675362
 51
14.49500027324615
  0
LINE
  5
1CE
330
23
100
AcDbEntity
  8
Zeichnung 5
  6
CONTINUOUS
 62
     7
370
    18
100
AcDbLine
 10
-38.59119390442949
 20
6.52528961048113
 30
0.00000000000000
 11
-39.50880609556898
 21
10.07471038951984
 31
0.00000000000000
  0
ARC
  5
1CF
330
23
100
AcDbEntity
  8
Zeichnung 5
  6
CONTINUOUS
 62
     7
370
    18
100
AcDbCircle
 10
-38.55999999999931
 20
10.32000000000042
 30
0.00000000000000
 40
0.97999999999993
100
AcDbArc
 50
345.50499972674862
 51
194.49500027324638
  0
LINE
  5
1D0
330
23
100
AcDbEntity
  8
Zeichnung 5
  6
CONTINUOUS
 62
     7
370
    18
100
AcDbLine
 10
-37.61119390442964
 20
10.07471038951975
 30
0.00000000000000
 11
-38.52880609556912
 21
6.52528961048113
 31
0.00000000000000
  0
ARC
  5
1D1
330
23
100
AcDbEntity
  8
Zeichnung 5
  6
CONTINUOUS
 62
     7
370
    18
100
AcDbCircle
 10
-37.57999999999946
 20
6.28000000000051
 30
0.00000000000000
 40
0.97999999999994
100
AcDbArc
 50
165.50499972675115
 51
14.49500027324888
  0
LINE
  5
1D2
330
23
100
AcDbEntity
  8
Zeichnung 5
  6
CONTINUOUS
 62
     7
370
    18
100
AcDbLine
 10
-36.63119390442979
 20
6.52528961048113
 30
0.00000000000000
 11
-37.54880609556928
 21
10.07471038951975
 31
0.00000000000000
  0
ARC
  5
1D3
330
23
100
AcDbEntity
  8
Zeichnung 5
  6
CONTINUOUS
 62
     7
370
    18
100
AcDbCircle
 10
-36.59999999999961
 20
10.32000000000042
 30
0.00000000000000
 40
0.97999999999996
100
AcDbArc
 50
345.50499972675618
 51
194.49500027325141
  0
LINE
  5
1D4
330
23
100
AcDbEntity
  8
Zeichnung 5
  6
CONTINUOUS
 62
     7
370
    18
100
AcDbLine
 10
-35.65119390442995
 20
10.07471038951988
 30
0.00000000000000
 11
-36.56880609556925
 21
6.52528961048109
 31
0.00000000000000
  0
ARC
  5
1D5
330
23
100
AcDbEntity
  8
Zeichnung 5
  6
CONTINUOUS
 62
     7
370
    18
100
AcDbCircle
 10
-35.61999999999941
 20
6.28000000000051
 30
0.00000000000000
 40
0.97999999999992
100
AcDbArc
 50
165.50499972675618
 51
14.49500027324370
  0
LINE
  5
1D6
330
23
100
AcDbEntity
  8
Zeichnung 5
  6
CONTINUOUS
 62
     7
370
    18
100
AcDbLine
 10
-34.67119390442957
 20
6.52528961048109
 30
0.00000000000000
 11
-35.58880609556887
 21
10.07471038951988
 31
0.00000000000000
  0
ARC
  5
1D7
330
23
100
AcDbEntity
  8
Zeichnung 5
  6
CONTINUOUS
 62
     7
370
    18
100
AcDbCircle
 10
-34.63999999999921
 20
10.32000000000042
 30
0.00000000000000
 40
0.97999999999992
100
AcDbArc
 50
345.50499972674612
 51
194.49500027324382
  0
LINE
  5
1D8
330
23
100
AcDbEntity
  8
Zeichnung 5
  6
CONTINUOUS
 62
     7
370
    18
100
AcDbLine
 10
-33.69119390442954
 20
10.07471038951970
 30
0.00000000000000
 11
-34.60880609556920
 21
6.52528961048118
 31
0.00000000000000
  0
ARC
  5
1D9
330
23
100
AcDbEntity
  8
Zeichnung 5
  6
CONTINUOUS
 62
     7
370
    18
100
AcDbCircle
 10
-33.65999999999954
 20
6.28000000000051
 30
0.00000000000000
 40
0.97999999999996
100
AcDbArc
 50
165.50499972674859
 51
14.49500027324376
  0
LINE
  5
1DA
330
23
100
AcDbEntity
  8
Zeichnung 5
  6
CONTINUOUS
 62
     7
370
    18
100
AcDbLine
 10
-32.71119390442969
 20
6.52528961048109
 30
0.00000000000000
 11
-33.62880609556900
 21
10.07471038951988
 31
0.00000000000000
  0
ARC
  5
1DB
330
23
100
AcDbEntity
  8
Zeichnung 5
  6
CONTINUOUS
 62
     7
370
    18
100
AcDbCircle
 10
-32.67999999999933
 20
10.32000000000042
 30
0.00000000000000
 40
0.97999999999992
100
AcDbArc
 50
345.50499972674862
 51
194.49500027324382
  0
LINE
  5
1DC
330
23
100
AcDbEntity
  8
Zeichnung 5
  6
CONTINUOUS
 62
     7
370
    18
100
AcDbLine
 10
-31.73119390442967
 20
10.07471038951975
 30
0.00000000000000
 11
-32.64880609556915
 21
6.52528961048113
 31
0.00000000000000
  0
ARC
  5
1DD
330
23
100
AcDbEntity
  8
Zeichnung 5
  6
CONTINUOUS
 62
     7
370
    18
100
AcDbCircle
 10
-31.69999999999948
 20
6.28000000000051
 30
0.00000000000000
 40
0.97999999999994
100
AcDbArc
 50
165.50499972675115
 51
14.49500027324626
  0
LINE
  5
1DE
330
23
100
AcDbEntity
  8
Zeichnung 5
  6
CONTINUOUS
 62
     7
370
    18
100
AcDbLine
 10
-30.75119390442964
 20
6.52528961048113
 30
0.00000000000000
 11
-31.66880609556912
 21
10.07471038951984
 31
0.00000000000000
  0
ARC
  5
1DF
330
23
100
AcDbEntity
  8
Zeichnung 5
  6
CONTINUOUS
 62
     7
370
    18
100
AcDbCircle
 10
-30.71999999999946
 20
10.32000000000042
 30
0.00000000000000
 40
0.97999999999993
100
AcDbArc
 50
345.50499972675362
 51
194.49500027324638
  0
LINE
  5
1E0
330
23
100
AcDbEntity
  8
Zeichnung 5
  6
CONTINUOUS
 62
     7
370
    18
100
AcDbLine
 10
-29.77119390442980
 20
10.07471038951984
 30
0.00000000000000
 11
-30.68880609556928
 21
6.52528961048113
 31
0.00000000000000
  0
ARC
  5
1E1
330
23
100
AcDbEntity
  8
Zeichnung 5
  6
CONTINUOUS
 62
     7
370
    18
100
AcDbCircle
 10
-29.73999999999943
 20
6.28000000000051
 30
0.00000000000000
 40
0.97999999999993
100
AcDbArc
 50
165.50499972675362
 51
14.49500027324365
  0
LINE
  5
1E2
330
23
100
AcDbEntity
  8
Zeichnung 5
  6
CONTINUOUS
 62
     7
370
    18
100
AcDbLine
 10
-28.79119390442959
 20
6.52528961048109
 30
0.00000000000000
 11
-29.70880609556890
 21
10.07471038951988
 31
0.00000000000000
  0
ARC
  5
1E3
330
23
100
AcDbEntity
  8
Zeichnung 5
  6
CONTINUOUS
 62
     7
370
    18
100
AcDbCircle
 10
-28.75999999999923
 20
10.32000000000042
 30
0.00000000000000
 40
0.97999999999992
100
AcDbArc
 50
345.50499972674612
 51
194.49500027324382
  0
LINE
  5
1E4
330
23
100
AcDbEntity
  8
Zeichnung 5
  6
CONTINUOUS
 62
     7
370
    18
100
AcDbLine
 10
-27.81119390442957
 20
10.07471038951970
 30
0.00000000000000
 11
-28.72880609556923
 21
6.52528961048118
 31
0.00000000000000
  0
ARC
  5
1E5
330
23
100
AcDbEntity
  8
Zeichnung 5
  6
CONTINUOUS
 62
     7
370
    18
100
AcDbCircle
 10
-27.77999999999956
 20
6.28000000000051
 30
0.00000000000000
 40
0.97999999999996
100
AcDbArc
 50
165.50499972674859
 51
14.49500027324376
  0
LINE
  5
1E6
330
23
100
AcDbEntity
  8
Zeichnung 5
  6
CONTINUOUS
 62
     7
370
    18
100
AcDbLine
 10
-26.83119390442972
 20
6.52528961048109
 30
0.00000000000000
 11
-27.74880609556903
 21
10.07471038951988
 31
0.00000000000000
  0
ARC
  5
1E7
330
23
100
AcDbEntity
  8
Zeichnung 5
  6
CONTINUOUS
 62
     7
370
    18
100
AcDbCircle
 10
-26.79999999999936
 20
10.32000000000042
 30
0.00000000000000
 40
0.97999999999992
100
AcDbArc
 50
345.50499972674862
 51
194.49500027324382
  0
LINE
  5
1E8
330
23
100
AcDbEntity
  8
Zeichnung 5
  6
CONTINUOUS
 62
     7
370
    18
100
AcDbLine
 10
-25.85119390442969
 20
10.07471038951975
 30
0.00000000000000
 11
-26.76880609556918
 21
6.52528961048113
 31
0.00000000000000
  0
ARC
  5
1E9
330
23
100
AcDbEntity
  8
Zeichnung 5
  6
CONTINUOUS
 62
     7
370
    18
100
AcDbCircle
 10
-25.81999999999951
 20
6.28000000000051
 30
0.00000000000000
 40
0.97999999999994
100
AcDbArc
 50
165.50499972675115
 51
14.49500027324120
  0
LINE
  5
1EA
330
23
100
AcDbEntity
  8
Zeichnung 5
  6
CONTINUOUS
 62
     7
370
    18
100
AcDbLine
 10
-24.87119390442967
 20
6.52528961048104
 30
0.00000000000000
 11
-25.78880609556880
 21
10.07471038951993
 31
0.00000000000000
  0
ARC
  5
1EB
330
23
100
AcDbEntity
  8
Zeichnung 5
  6
CONTINUOUS
 62
     7
370
    18
100
AcDbCircle
 10
-24.83999999999913
 20
10.32000000000042
 30
0.00000000000000
 40
0.97999999999991
100
AcDbArc
 50
345.50499972674356
 51
194.49500027324135
  0
LINE
  5
1EC
330
23
100
AcDbEntity
  8
Zeichnung 5
  6
CONTINUOUS
 62
     7
370
    18
100
AcDbLine
 10
-23.89119390442947
 20
10.07471038951966
 30
0.00000000000000
 11
-24.80880609556931
 21
6.52528961048122
 31
0.00000000000000
  0
ARC
  5
1ED
330
23
100
AcDbEntity
  8
Zeichnung 5
  6
CONTINUOUS
 62
     7
370
    18
100
AcDbCircle
 10
-23.85999999999964
 20
6.28000000000051
 30
0.00000000000000
 40
0.97999999999997
100
AcDbArc
 50
165.50499972674612
 51
14.49500027324376
  0
LINE
  5
1EE
330
23
100
AcDbEntity
  8
Zeichnung 5
  6
CONTINUOUS
 62
     7
370
    18
100
AcDbLine
 10
-22.91119390442979
 20
6.52528961048109
 30
0.00000000000000
 11
-23.82880609556910
 21
10.07471038951988
 31
0.00000000000000
  0
ARC
  5
1EF
330
23
100
AcDbEntity
  8
Zeichnung 5
  6
CONTINUOUS
 62
     7
370
    18
100
AcDbCircle
 10
-22.87999999999943
 20
10.32000000000042
 30
0.00000000000000
 40
0.97999999999992
100
AcDbArc
 50
345.50499972674862
 51
194.49500027324382
  0
LINE
  5
1F0
330
23
100
AcDbEntity
  8
Zeichnung 5
  6
CONTINUOUS
 62
     7
370
    18
100
AcDbLine
 10
-21.93119390442977
 20
10.07471038951975
 30
0.00000000000000
 11
-22.84880609556925
 21
6.52528961048113
 31
0.00000000000000
  0
ARC
  5
1F1
330
23
100
AcDbEntity
  8
Zeichnung 5
  6
CONTINUOUS
 62
     7
370
    18
100
AcDbCircle
 10
-21.89999999999959
 20
6.28000000000051
 30
0.00000000000000
 40
0.97999999999994
100
AcDbArc
 50
165.50499972675115
 51
14.49500027324120
  0
LINE
  5
1F2
330
23
100
AcDbEntity
  8
Zeichnung 5
  6
CONTINUOUS
 62
     7
370
    18
100
AcDbLine
 10
-20.95119390442975
 20
6.52528961048104
 30
0.00000000000000
 11
-21.86880609556887
 21
10.07471038951993
 31
0.00000000000000
  0
ARC
  5
1F3
330
23
100
AcDbEntity
  8
Zeichnung 5
  6
CONTINUOUS
 62
     7
370
    18
100
AcDbCircle
 10
-20.91999999999921
 20
10.32000000000042
 30
0.00000000000000
 40
0.97999999999991
100
AcDbArc
 50
345.50499972674612
 51
194.49500027324135
  0
LINE
  5
1F4
330
23
100
AcDbEntity
  8
Zeichnung 5
  6
CONTINUOUS
 62
     7
370
    18
100
AcDbLine
 10
-19.97119390442954
 20
10.07471038951970
 30
0.00000000000000
 11
-20.88880609556920
 21
6.52528961048118
 31
0.00000000000000
  0
ARC
  5
1F5
330
23
100
AcDbEntity
  8
Zeichnung 5
  6
CONTINUOUS
 62
     7
370
    18
100
AcDbCircle
 10
-19.93999999999954
 20
6.28000000000051
 30
0.00000000000000
 40
0.97999999999996
100
AcDbArc
 50
165.50499972674859
 51
14.49500027324376
  0
LINE
  5
1F6
330
23
100
AcDbEntity
  8
Zeichnung 5
  6
CONTINUOUS
 62
     7
370
    18
100
AcDbLine
 10
-18.99119390442969
 20
6.52528961048109
 30
0.00000000000000
 11
-19.90880609556900
 21
10.07471038951988
 31
0.00000000000000
  0
ARC
  5
1F7
330
23
100
AcDbEntity
  8
Zeichnung 5
  6
CONTINUOUS
 62
     7
370
    18
100
AcDbCircle
 10
-18.95999999999933
 20
10.32000000000042
 30
0.00000000000000
 40
0.97999999999992
100
AcDbArc
 50
345.50499972674612
 51
194.49500027324382
  0
LINE
  5
1F8
330
23
100
AcDbEntity
  8
Zeichnung 5
  6
CONTINUOUS
 62
     7
370
    18
100
AcDbLine
 10
-18.01119390442967
 20
10.07471038951970
 30
0.00000000000000
 11
-18.92880609556933
 21
6.52528961048118
 31
0.00000000000000
  0
ARC
  5
1F9
330
23
100
AcDbEntity
  8
Zeichnung 5
  6
CONTINUOUS
 62
     7
370
    18
100
AcDbCircle
 10
-17.97999999999966
 20
6.28000000000051
 30
0.00000000000000
 40
0.97999999999996
100
AcDbArc
 50
165.50499972674859
 51
14.49500027324376
  0
LINE
  5
1FA
330
23
100
AcDbEntity
  8
Zeichnung 5
  6
CONTINUOUS
 62
     7
370
    18
100
AcDbLine
 10
-17.03119390442982
 20
6.52528961048109
 30
0.00000000000000
 11
-17.94880609556913
 21
10.07471038951988
 31
0.00000000000000
  0
ARC
  5
1FB
330
23
100
AcDbEntity
  8
Zeichnung 5
  6
CONTINUOUS
 62
     7
370
    18
100
AcDbCircle
 10
-16.99999999999946
 20
10.32000000000042
 30
0.00000000000000
 40
0.97999999999992
100
AcDbArc
 50
345.50499972674862
 51
194.49500027324382
  0
LINE
  5
1FC
330
23
100
AcDbEntity
  8
Zeichnung 5
  6
CONTINUOUS
 62
     7
370
    18
100
AcDbLine
 10
-16.05119390442980
 20
10.07471038951975
 30
0.00000000000000
 11
-16.96880609556928
 21
6.52528961048113
 31
0.00000000000000
  0
ARC
  5
1FD
330
23
100
AcDbEntity
  8
Zeichnung 5
  6
CONTINUOUS
 62
     7
370
    18
100
AcDbCircle
 10
-16.01999999999961
 20
6.28000000000051
 30
0.00000000000000
 40
0.97999999999994
100
AcDbArc
 50
165.50499972675115
 51
14.49500027324120
  0
LINE
  5
1FE
330
23
100
AcDbEntity
  8
Zeichnung 5
  6
CONTINUOUS
 62
     7
370
    18
100
AcDbLine
 10
-15.07119390442977
 20
6.52528961048104
 30
0.00000000000000
 11
-15.98880609556890
 21
10.07471038951993
 31
0.00000000000000
  0
ARC
  5
1FF
330
23
100
AcDbEntity
  8
Zeichnung 5
  6
CONTINUOUS
 62
     7
370
    18
100
AcDbCircle
 10
-15.03999999999923
 20
10.32000000000042
 30
0.00000000000000
 40
0.97999999999991
100
AcDbArc
 50
345.50499972674356
 51
194.49500027324135
  0
LINE
  5
200
330
23
100
AcDbEntity
  8
Zeichnung 5
  6
CONTINUOUS
 62
     7
370
    18
100
AcDbLine
 10
-14.09119390442957
 20
10.07471038951966
 30
0.00000000000000
 11
-15.00880609556941
 21
6.52528961048122
 31
0.00000000000000
  0
ARC
  5
201
330
23
100
AcDbEntity
  8
Zeichnung 5
  6
CONTINUOUS
 62
     7
370
    18
100
AcDbCircle
 10
-14.05999999999974
 20
6.28000000000051
 30
0.00000000000000
 40
0.97999999999997
100
AcDbArc
 50
165.50499972674612
 51
14.49500027324376
  0
LINE
  5
202
330
23
100
AcDbEntity
  8
Zeichnung 5
  6
CONTINUOUS
 62
     7
370
    18
100
AcDbLine
 10
-13.11119390442990
 20
6.52528961048109
 30
0.00000000000000
 11
-14.02880609556920
 21
10.07471038951988
 31
0.00000000000000
  0
ARC
  5
203
330
23
100
AcDbEntity
  8
Zeichnung 5
  6
CONTINUOUS
 62
     7
370
    18
100
AcDbCircle
 10
-13.07999999999954
 20
10.32000000000042
 30
0.00000000000000
 40
0.97999999999992
100
AcDbArc
 50
345.50499972674862
 51
194.49500027324382
  0
LINE
  5
204
330
23
100
AcDbEntity
  8
Zeichnung 5
  6
CONTINUOUS
 62
     7
370
    18
100
AcDbLine
 10
-12.13119390442987
 20
10.07471038951975
 30
0.00000000000000
 11
-13.04880609556935
 21
6.52528961048113
 31
0.00000000000000
  0
ARC
  5
205
330
23
100
AcDbEntity
  8
Zeichnung 5
  6
CONTINUOUS
 62
     7
370
    18
100
AcDbCircle
 10
-12.09999999999969
 20
6.28000000000051
 30
0.00000000000000
 40
0.97999999999994
100
AcDbArc
 50
165.50499972675115
 51
14.49500027324376
  0
LINE
  5
206
330
23
100
AcDbEntity
  8
Zeichnung 5
  6
CONTINUOUS
 62
     7
370
    18
100
AcDbLine
 10
-11.15119390442985
 20
6.52528961048109
 30
0.00000000000000
 11
-12.06880609556915
 21
10.07471038951988
 31
0.00000000000000
  0
ARC
  5
207
330
23
100
AcDbEntity
  8
Zeichnung 5
  6
CONTINUOUS
 62
     7
370
    18
100
AcDbCircle
 10
-11.11999999999949
 20
10.32000000000042
 30
0.00000000000000
 40
0.97999999999992
100
AcDbArc
 50
345.50499972674862
 51
194.49500027324382
  0
LINE
  5
208
330
23
100
AcDbEntity
  8
Zeichnung 5
  6
CONTINUOUS
 62
     7
370
    18
100
AcDbLine
 10
-10.17119390442982
 20
10.07471038951975
 30
0.00000000000000
 11
-11.08880609556930
 21
6.52528961048113
 31
0.00000000000000
  0
ARC
  5
209
330
23
100
AcDbEntity
  8
Zeichnung 5
  6
CONTINUOUS
 62
     7
370
    18
100
AcDbCircle
 10
-10.13999999999964
 20
6.28000000000051
 30
0.00000000000000
 40
0.97999999999994
100
AcDbArc
 50
165.50499972675115
 51
14.49500027324376
  0
LINE
  5
20A
330
23
100
AcDbEntity
  8
Zeichnung 5
  6
CONTINUOUS
 62
     7
370
    18
100
AcDbLine
 10
-9.19119390442980
 20
6.52528961048109
 30
0.00000000000000
 11
-10.10880609556910
 21
10.07471038951988
 31
0.00000000000000
  0
ARC
  5
20B
330
23
100
AcDbEntity
  8
Zeichnung 5
  6
CONTINUOUS
 62
     7
370
    18
100
AcDbCircle
 10
-9.15999999999944
 20
10.32000000000042
 30
0.00000000000000
 40
0.97999999999992
100
AcDbArc
 50
345.50499972674612
 51
194.49500027324382
  0
LINE
  5
20C
330
23
100
AcDbEntity
  8
Zeichnung 5
  6
CONTINUOUS
 62
     7
370
    18
100
AcDbLine
 10
-8.21119390442977
 20
10.07471038951970
 30
0.00000000000000
 11
-9.12880609556943
 21
6.52528961048118
 31
0.00000000000000
  0
ARC
  5
20D
330
23
100
AcDbEntity
  8
Zeichnung 5
  6
CONTINUOUS
 62
     7
370
    18
100
AcDbCircle
 10
-8.17999999999977
 20
6.28000000000051
 30
0.00000000000000
 40
0.97999999999996
100
AcDbArc
 50
165.50499972674859
 51
14.49500027324626
  0
LINE
  5
20E
330
23
100
AcDbEntity
  8
Zeichnung 5
  6
CONTINUOUS
 62
     7
370
    18
100
AcDbLine
 10
-7.23119390442992
 20
6.52528961048113
 30
0.00000000000000
 11
-8.14880609556941
 21
10.07471038951984
 31
0.00000000000000
  0
ARC
  5
20F
330
23
100
AcDbEntity
  8
Zeichnung 5
  6
CONTINUOUS
 62
     7
370
    18
100
AcDbCircle
 10
-7.19999999999974
 20
10.32000000000042
 30
0.00000000000000
 40
0.97999999999993
100
AcDbArc
 50
345.50499972675362
 51
194.49500027324638
  0
LINE
  5
210
330
23
100
AcDbEntity
  8
Zeichnung 5
  6
CONTINUOUS
 62
     7
370
    18
100
AcDbLine
 10
-6.25119390443007
 20
10.07471038951984
 30
0.00000000000000
 11
-7.16880609556956
 21
6.52528961048113
 31
0.00000000000000
  0
ARC
  5
211
330
23
100
AcDbEntity
  8
Zeichnung 5
  6
CONTINUOUS
 62
     7
370
    18
100
AcDbCircle
 10
-6.21999999999972
 20
6.28000000000051
 30
0.00000000000000
 40
0.97999999999993
100
AcDbArc
 50
165.50499972675362
 51
14.49500027324109
  0
LINE
  5
212
330
23
100
AcDbEntity
  8
Zeichnung 5
  6
CONTINUOUS
 62
     7
370
    18
100
AcDbLine
 10
-5.27119390442987
 20
6.52528961048104
 30
0.00000000000000
 11
-6.18880609556900
 21
10.07471038951993
 31
0.00000000000000
  0
ARC
  5
213
330
23
100
AcDbEntity
  8
Zeichnung 5
  6
CONTINUOUS
 62
     7
370
    18
100
AcDbCircle
 10
-5.23999999999933
 20
10.32000000000042
 30
0.00000000000000
 40
0.97999999999991
100
AcDbArc
 50
345.50499972674356
 51
194.49500027324135
  0
LINE
  5
214
330
23
100
AcDbEntity
  8
Zeichnung 5
  6
CONTINUOUS
 62
     7
370
    18
100
AcDbLine
 10
-4.29119390442967
 20
10.07471038951966
 30
0.00000000000000
 11
-5.20880609556951
 21
6.52528961048122
 31
0.00000000000000
  0
ARC
  5
215
330
23
100
AcDbEntity
  8
Zeichnung 5
  6
CONTINUOUS
 62
     7
370
    18
100
AcDbCircle
 10
-4.25999999999984
 20
6.28000000000051
 30
0.00000000000000
 40
0.97999999999997
100
AcDbArc
 50
165.50499972674612
 51
14.49500027324376
  0
LINE
  5
216
330
23
100
AcDbEntity
  8
Zeichnung 5
  6
CONTINUOUS
 62
     7
370
    18
100
AcDbLine
 10
-3.31119390443000
 20
6.52528961048109
 30
0.00000000000000
 11
-4.22880609556930
 21
10.07471038951988
 31
0.00000000000000
  0
ARC
  5
217
330
23
100
AcDbEntity
  8
Zeichnung 5
  6
CONTINUOUS
 62
     7
370
    18
100
AcDbCircle
 10
-3.27999999999964
 20
10.32000000000042
 30
0.00000000000000
 40
0.97999999999992
100
AcDbArc
 50
345.50499972674862
 51
194.49500027324382
  0
LINE
  5
218
330
23
100
AcDbEntity
  8
Zeichnung 5
  6
CONTINUOUS
 62
     7
370
    18
100
AcDbLine
 10
-2.33119390442997
 20
10.07471038951975
 30
0.00000000000000
 11
-3.24880609556946
 21
6.52528961048113
 31
0.00000000000000
  0
ARC
  5
219
330
23
100
AcDbEntity
  8
Zeichnung 5
  6
CONTINUOUS
 62
     7
370
    18
100
AcDbCircle
 10
-2.29999999999979
 20
6.28000000000051
 30
0.00000000000000
 40
0.97999999999994
100
AcDbArc
 50
165.50499972675115
 51
14.49500027324376
  0
LINE
  5
21A
330
23
100
AcDbEntity
  8
Zeichnung 5
  6
CONTINUOUS
 62
     7
370
    18
100
AcDbLine
 10
-1.35119390442995
 20
6.52528961048109
 30
0.00000000000000
 11
-2.26880609556925
 21
10.07471038951988
 31
0.00000000000000
  0
ARC
  5
21B
330
23
100
AcDbEntity
  8
Zeichnung 5
  6
CONTINUOUS
 62
     7
370
    18
100
AcDbCircle
 10
-1.31999999999959
 20
10.32000000000042
 30
0.00000000000000
 40
0.97999999999992
100
AcDbArc
 50
345.50499972674862
 51
194.49500027324382
  0
LINE
  5
21C
330
23
100
AcDbEntity
  8
Zeichnung 5
  6
CONTINUOUS
 62
     7
370
    18
100
AcDbLine
 10
-0.37119390442992
 20
10.07471038951975
 30
0.00000000000000
 11
-1.28880609556941
 21
6.52528961048113
 31
0.00000000000000
  0
ARC
  5
21D
330
23
100
AcDbEntity
  8
Zeichnung 5
  6
CONTINUOUS
 62
     7
370
    18
100
AcDbCircle
 10
-0.33999999999974
 20
6.28000000000051
 30
0.00000000000000
 40
0.97999999999994
100
AcDbArc
 50
165.50499972675115
 51
14.49500027324626
  0
LINE
  5
21E
330
23
100
AcDbEntity
  8
Zeichnung 5
  6
CONTINUOUS
 62
     7
370
    18
100
AcDbLine
 10
0.60880609557010
 20
6.52528961048113
 30
0.00000000000000
 11
-0.30880609556938
 21
10.07471038951984
 31
0.00000000000000
  0
ARC
  5
21F
330
23
100
AcDbEntity
  8
Zeichnung 5
  6
CONTINUOUS
 62
     7
370
    18
100
AcDbCircle
 10
0.64000000000028
 20
10.32000000000042
 30
0.00000000000000
 40
0.97999999999993
100
AcDbArc
 50
345.50499972674862
 51
194.49500027324638
  0
LINE
  5
220
330
23
100
AcDbEntity
  8
Zeichnung 5
  6
CONTINUOUS
 62
     7
370
    18
100
AcDbLine
 10
1.58880609556995
 20
10.07471038951975
 30
0.00000000000000
 11
0.67119390443047
 21
6.52528961048113
 31
0.00000000000000
  0
ARC
  5
221
330
23
100
AcDbEntity
  8
Zeichnung 5
  6
CONTINUOUS
 62
     7
370
    18
100
AcDbCircle
 10
1.62000000000013
 20
6.28000000000051
 30
0.00000000000000
 40
0.97999999999994
100
AcDbArc
 50
165.50499972675115
 51
14.49500027324626
  0
LINE
  5
222
330
23
100
AcDbEntity
  8
Zeichnung 5
  6
CONTINUOUS
 62
     7
370
    18
100
AcDbLine
 10
2.56880609556998
 20
6.52528961048113
 30
0.00000000000000
 11
1.65119390443049
 21
10.07471038951984
 31
0.00000000000000
  0
ARC
  5
223
330
23
100
AcDbEntity
  8
Zeichnung 5
  6
CONTINUOUS
 62
     7
370
    18
100
AcDbCircle
 10
2.60000000000016
 20
10.32000000000042
 30
0.00000000000000
 40
0.97999999999993
100
AcDbArc
 50
345.50499972675362
 51
194.49500027324638
  0
LINE
  5
224
330
23
100
AcDbEntity
  8
Zeichnung 5
  6
CONTINUOUS
 62
     7
370
    18
100
AcDbLine
 10
3.54880609556982
 20
10.07471038951984
 30
0.00000000000000
 11
2.63119390443034
 21
6.52528961048113
 31
0.00000000000000
  0
ARC
  5
225
330
23
100
AcDbEntity
  8
Zeichnung 5
  6
CONTINUOUS
 62
     7
370
    18
100
AcDbCircle
 10
3.58000000000018
 20
6.28000000000051
 30
0.00000000000000
 40
0.97999999999993
100
AcDbArc
 50
165.50499972675362
 51
14.49500027324109
  0
LINE
  5
226
330
23
100
AcDbEntity
  8
Zeichnung 5
  6
CONTINUOUS
 62
     7
370
    18
100
AcDbLine
 10
4.52880609557003
 20
6.52528961048104
 30
0.00000000000000
 11
3.61119390443090
 21
10.07471038951993
 31
0.00000000000000
  0
ARC
  5
227
330
23
100
AcDbEntity
  8
Zeichnung 5
  6
CONTINUOUS
 62
     7
370
    18
100
AcDbCircle
 10
4.56000000000056
 20
10.32000000000042
 30
0.00000000000000
 40
0.97999999999991
100
AcDbArc
 50
345.50499972674356
 51
194.49500027324135
  0
LINE
  5
228
330
23
100
AcDbEntity
  8
Zeichnung 5
  6
CONTINUOUS
 62
     7
370
    18
100
AcDbLine
 10
5.50880609557023
 20
10.07471038951966
 30
0.00000000000000
 11
4.59119390443039
 21
6.52528961048122
 31
0.00000000000000
  0
ARC
  5
229
330
23
100
AcDbEntity
  8
Zeichnung 5
  6
CONTINUOUS
 62
     7
370
    18
100
AcDbCircle
 10
5.54000000000006
 20
6.28000000000051
 30
0.00000000000000
 40
0.97999999999997
100
AcDbArc
 50
165.50499972674612
 51
14.49500027324376
  0
LINE
  5
22A
330
23
100
AcDbEntity
  8
Zeichnung 5
  6
CONTINUOUS
 62
     7
370
    18
100
AcDbLine
 10
6.48880609556990
 20
6.52528961048109
 30
0.00000000000000
 11
5.57119390443059
 21
10.07471038951988
 31
0.00000000000000
  0
ARC
  5
22B
330
23
100
AcDbEntity
  8
Zeichnung 5
  6
CONTINUOUS
 62
     7
370
    18
100
AcDbCircle
 10
6.52000000000026
 20
10.32000000000042
 30
0.00000000000000
 40
0.97999999999992
100
AcDbArc
 50
345.50499972674862
 51
194.49500027324382
  0
LINE
  5
22C
330
23
100
AcDbEntity
  8
Zeichnung 5
  6
CONTINUOUS
 62
     7
370
    18
100
AcDbLine
 10
7.46880609556993
 20
10.07471038951975
 30
0.00000000000000
 11
6.55119390443044
 21
6.52528961048113
 31
0.00000000000000
  0
ARC
  5
22D
330
23
100
AcDbEntity
  8
Zeichnung 5
  6
CONTINUOUS
 62
     7
370
    18
100
AcDbCircle
 10
7.50000000000011
 20
6.28000000000051
 30
0.00000000000000
 40
0.97999999999994
100
AcDbArc
 50
165.50499972675115
 51
14.49500027324376
  0
LINE
  5
22E
330
23
100
AcDbEntity
  8
Zeichnung 5
  6
CONTINUOUS
 62
     7
370
    18
100
AcDbLine
 10
8.44880609556995
 20
6.52528961048109
 30
0.00000000000000
 11
7.53119390443064
 21
10.07471038951988
 31
0.00000000000000
  0
ARC
  5
22F
330
23
100
AcDbEntity
  8
Zeichnung 5
  6
CONTINUOUS
 62
     7
370
    18
100
AcDbCircle
 10
8.48000000000031
 20
10.32000000000042
 30
0.00000000000000
 40
0.97999999999992
100
AcDbArc
 50
345.50499972674862
 51
194.49500027324382
  0
LINE
  5
230
330
23
100
AcDbEntity
  8
Zeichnung 5
  6
CONTINUOUS
 62
     7
370
    18
100
AcDbLine
 10
9.42880609556997
 20
10.07471038951975
 30
0.00000000000000
 11
8.51119390443049
 21
6.52528961048113
 31
0.00000000000000
  0
ARC
  5
231
330
23
100
AcDbEntity
  8
Zeichnung 5
  6
CONTINUOUS
 62
     7
370
    18
100
AcDbCircle
 10
9.46000000000016
 20
6.28000000000051
 30
0.00000000000000
 40
0.97999999999994
100
AcDbArc
 50
165.50499972675115
 51
14.49500027324376
  0
LINE
  5
232
330
23
100
AcDbEntity
  8
Zeichnung 5
  6
CONTINUOUS
 62
     7
370
    18
100
AcDbLine
 10
10.40880609557000
 20
6.52528961048109
 30
0.00000000000000
 11
9.49119390443069
 21
10.07471038951984
 31
0.00000000000000
  0
ARC
  5
233
330
23
100
AcDbEntity
  8
Zeichnung 5
  6
CONTINUOUS
 62
     7
370
    18
100
AcDbCircle
 10
10.44000000000036
 20
10.32000000000037
 30
0.00000000000000
 40
0.97999999999992
100
AcDbArc
 50
345.50499972674612
 51
194.49500027324382
  0
LINE
  5
234
330
23
100
AcDbEntity
  8
Zeichnung 5
  6
CONTINUOUS
 62
     7
370
    18
100
AcDbLine
 10
11.38880609557003
 20
10.07471038951966
 30
0.00000000000000
 11
10.47119390443037
 21
6.52528961048118
 31
0.00000000000000
  0
ARC
  5
235
330
23
100
AcDbEntity
  8
Zeichnung 5
  6
CONTINUOUS
 62
     7
370
    18
100
AcDbCircle
 10
11.42000000000003
 20
6.28000000000051
 30
0.00000000000000
 40
0.97999999999996
100
AcDbArc
 50
165.50499972674859
 51
14.49500027324626
  0
LINE
  5
236
330
23
100
AcDbEntity
  8
Zeichnung 5
  6
CONTINUOUS
 62
     7
370
    18
100
AcDbLine
 10
12.36880609556988
 20
6.52528961048113
 30
0.00000000000000
 11
11.45119390443039
 21
10.07471038951979
 31
0.00000000000000
  0
ARC
  5
237
330
23
100
AcDbEntity
  8
Zeichnung 5
  6
CONTINUOUS
 62
     7
370
    18
100
AcDbCircle
 10
12.40000000000006
 20
10.32000000000037
 30
0.00000000000000
 40
0.97999999999993
100
AcDbArc
 50
345.50499972675362
 51
194.49500027324638
  0
LINE
  5
238
330
23
100
AcDbEntity
  8
Zeichnung 5
  6
CONTINUOUS
 62
     7
370
    18
100
AcDbLine
 10
13.34880609556972
 20
10.07471038951979
 30
0.00000000000000
 11
12.43119390443024
 21
6.52528961048113
 31
0.00000000000000
  0
ARC
  5
239
330
23
100
AcDbEntity
  8
Zeichnung 5
  6
CONTINUOUS
 62
     7
370
    18
100
AcDbCircle
 10
13.38000000000008
 20
6.28000000000051
 30
0.00000000000000
 40
0.97999999999993
100
AcDbArc
 50
165.50499972675362
 51
14.49500027324109
  0
LINE
  5
23A
330
23
100
AcDbEntity
  8
Zeichnung 5
  6
CONTINUOUS
 62
     7
370
    18
100
AcDbLine
 10
14.32880609556992
 20
6.52528961048104
 30
0.00000000000000
 11
13.41119390443080
 21
10.07471038951988
 31
0.00000000000000
  0
ARC
  5
23B
330
23
100
AcDbEntity
  8
Zeichnung 5
  6
CONTINUOUS
 62
     7
370
    18
100
AcDbCircle
 10
14.36000000000046
 20
10.32000000000037
 30
0.00000000000000
 40
0.97999999999991
100
AcDbArc
 50
345.50499972674356
 51
194.49500027324135
  0
LINE
  5
23C
330
23
100
AcDbEntity
  8
Zeichnung 5
  6
CONTINUOUS
 62
     7
370
    18
100
AcDbLine
 10
15.30880609557013
 20
10.07471038951961
 30
0.00000000000000
 11
14.39119390443029
 21
6.52528961048122
 31
0.00000000000000
  0
ARC
  5
23D
330
23
100
AcDbEntity
  8
Zeichnung 5
  6
CONTINUOUS
 62
     7
370
    18
100
AcDbCircle
 10
15.33999999999995
 20
6.28000000000051
 30
0.00000000000000
 40
0.97999999999997
100
AcDbArc
 50
165.50499972674612
 51
14.49500027324626
  0
LINE
  5
23E
330
23
100
AcDbEntity
  8
Zeichnung 5
  6
CONTINUOUS
 62
     7
370
    18
100
AcDbLine
 10
16.28880609556980
 20
6.52528961048113
 30
0.00000000000000
 11
15.37119390443031
 21
10.07471038951979
 31
0.00000000000000
  0
ARC
  5
23F
330
23
100
AcDbEntity
  8
Zeichnung 5
  6
CONTINUOUS
 62
     7
370
    18
100
AcDbCircle
 10
16.31999999999998
 20
10.32000000000037
 30
0.00000000000000
 40
0.97999999999993
100
AcDbArc
 50
345.50499972675362
 51
194.49500027324638
  0
LINE
  5
240
330
23
100
AcDbEntity
  8
Zeichnung 5
  6
CONTINUOUS
 62
     7
370
    18
100
AcDbLine
 10
17.26880609556964
 20
10.07471038951979
 30
0.00000000000000
 11
16.35119390443016
 21
6.52528961048113
 31
0.00000000000000
  0
ARC
  5
241
330
23
100
AcDbEntity
  8
Zeichnung 5
  6
CONTINUOUS
 62
     7
370
    18
100
AcDbCircle
 10
17.30000000000000
 20
6.28000000000051
 30
0.00000000000000
 40
0.97999999999993
100
AcDbArc
 50
165.50499972675362
 51
14.49500027324365
  0
LINE
  5
242
330
23
100
AcDbEntity
  8
Zeichnung 5
  6
CONTINUOUS
 62
     7
370
    18
100
AcDbLine
 10
18.24880609556985
 20
6.52528961048109
 30
0.00000000000000
 11
17.33119390443054
 21
10.07471038951984
 31
0.00000000000000
  0
ARC
  5
243
330
23
100
AcDbEntity
  8
Zeichnung 5
  6
CONTINUOUS
 62
     7
370
    18
100
AcDbCircle
 10
18.28000000000021
 20
10.32000000000037
 30
0.00000000000000
 40
0.97999999999992
100
AcDbArc
 50
345.50499972674862
 51
194.49500027324382
  0
LINE
  5
244
330
23
100
AcDbEntity
  8
Zeichnung 5
  6
CONTINUOUS
 62
     7
370
    18
100
AcDbLine
 10
19.22880609556987
 20
10.07471038951970
 30
0.00000000000000
 11
18.31119390443039
 21
6.52528961048113
 31
0.00000000000000
  0
ARC
  5
245
330
23
100
AcDbEntity
  8
Zeichnung 5
  6
CONTINUOUS
 62
     7
370
    18
100
AcDbCircle
 10
19.26000000000006
 20
6.28000000000051
 30
0.00000000000000
 40
0.97999999999994
100
AcDbArc
 50
165.50499972675115
 51
14.49500027324376
  0
LINE
  5
246
330
23
100
AcDbEntity
  8
Zeichnung 5
  6
CONTINUOUS
 62
     7
370
    18
100
AcDbLine
 10
20.20880609556990
 20
6.52528961048109
 30
0.00000000000000
 11
19.29119390443059
 21
10.07471038951984
 31
0.00000000000000
  0
ARC
  5
247
330
23
100
AcDbEntity
  8
Zeichnung 5
  6
CONTINUOUS
 62
     7
370
    18
100
AcDbCircle
 10
20.24000000000026
 20
10.32000000000037
 30
0.00000000000000
 40
0.97999999999992
100
AcDbArc
 50
345.50499972674612
 51
194.49500027324382
  0
LINE
  5
248
330
23
100
AcDbEntity
  8
Zeichnung 5
  6
CONTINUOUS
 62
     7
370
    18
100
AcDbLine
 10
21.18880609556992
 20
10.07471038951966
 30
0.00000000000000
 11
20.27119390443026
 21
6.52528961048118
 31
0.00000000000000
  0
ARC
  5
249
330
23
100
AcDbEntity
  8
Zeichnung 5
  6
CONTINUOUS
 62
     7
370
    18
100
AcDbCircle
 10
21.21999999999993
 20
6.28000000000051
 30
0.00000000000000
 40
0.97999999999996
100
AcDbArc
 50
165.50499972674859
 51
14.49500027324626
  0
LINE
  5
24A
330
23
100
AcDbEntity
  8
Zeichnung 5
  6
CONTINUOUS
 62
     7
370
    18
100
AcDbLine
 10
22.16880609556977
 20
6.52528961048113
 30
0.00000000000000
 11
21.25119390443029
 21
10.07471038951979
 31
0.00000000000000
  0
ARC
  5
24B
330
23
100
AcDbEntity
  8
Zeichnung 5
  6
CONTINUOUS
 62
     7
370
    18
100
AcDbCircle
 10
22.19999999999996
 20
10.32000000000037
 30
0.00000000000000
 40
0.97999999999993
100
AcDbArc
 50
345.50499972675362
 51
194.49500027324638
  0
LINE
  5
24C
330
23
100
AcDbEntity
  8
Zeichnung 5
  6
CONTINUOUS
 62
     7
370
    18
100
AcDbLine
 10
23.14880609556962
 20
10.07471038951979
 30
0.00000000000000
 11
22.23119390443014
 21
6.52528961048113
 31
0.00000000000000
  0
ARC
  5
24D
330
23
100
AcDbEntity
  8
Zeichnung 5
  6
CONTINUOUS
 62
     7
370
    18
100
AcDbCircle
 10
23.17999999999998
 20
6.28000000000051
 30
0.00000000000000
 40
0.97999999999993
100
AcDbArc
 50
165.50499972675362
 51
14.49500027324109
  0
LINE
  5
24E
330
23
100
AcDbEntity
  8
Zeichnung 5
  6
CONTINUOUS
 62
     7
370
    18
100
AcDbLine
 10
24.12880609556982
 20
6.52528961048104
 30
0.00000000000000
 11
23.21119390443069
 21
10.07471038951988
 31
0.00000000000000
  0
ARC
  5
24F
330
23
100
AcDbEntity
  8
Zeichnung 5
  6
CONTINUOUS
 62
     7
370
    18
100
AcDbCircle
 10
24.16000000000036
 20
10.32000000000037
 30
0.00000000000000
 40
0.97999999999991
100
AcDbArc
 50
345.50499972674356
 51
194.49500027324135
  0
LINE
  5
250
330
23
100
AcDbEntity
  8
Zeichnung 5
  6
CONTINUOUS
 62
     7
370
    18
100
AcDbLine
 10
25.10880609557002
 20
10.07471038951961
 30
0.00000000000000
 11
24.19119390443019
 21
6.52528961048122
 31
0.00000000000000
  0
ARC
  5
251
330
23
100
AcDbEntity
  8
Zeichnung 5
  6
CONTINUOUS
 62
     7
370
    18
100
AcDbCircle
 10
25.13999999999985
 20
6.28000000000051
 30
0.00000000000000
 40
0.97999999999997
100
AcDbArc
 50
165.50499972674612
 51
14.49500027324376
  0
LINE
  5
252
330
23
100
AcDbEntity
  8
Zeichnung 5
  6
CONTINUOUS
 62
     7
370
    18
100
AcDbLine
 10
26.08880609556970
 20
6.52528961048109
 30
0.00000000000000
 11
25.17119390443039
 21
10.07471038951984
 31
0.00000000000000
  0
ARC
  5
253
330
23
100
AcDbEntity
  8
Zeichnung 5
  6
CONTINUOUS
 62
     7
370
    18
100
AcDbCircle
 10
26.12000000000005
 20
10.32000000000037
 30
0.00000000000000
 40
0.97999999999992
100
AcDbArc
 50
345.50499972674862
 51
194.49500027324382
  0
LINE
  5
254
330
23
100
AcDbEntity
  8
Zeichnung 5
  6
CONTINUOUS
 62
     7
370
    18
100
AcDbLine
 10
27.06880609556972
 20
10.07471038951970
 30
0.00000000000000
 11
26.15119390443024
 21
6.52528961048113
 31
0.00000000000000
  0
ARC
  5
255
330
23
100
AcDbEntity
  8
Zeichnung 5
  6
CONTINUOUS
 62
     7
370
    18
100
AcDbCircle
 10
27.09999999999990
 20
6.28000000000051
 30
0.00000000000000
 40
0.97999999999994
100
AcDbArc
 50
165.50499972675115
 51
14.49500027324626
  0
LINE
  5
256
330
23
100
AcDbEntity
  8
Zeichnung 5
  6
CONTINUOUS
 62
     7
370
    18
100
AcDbLine
 10
28.04880609556975
 20
6.52528961048113
 30
0.00000000000000
 11
27.13119390443027
 21
10.07471038951979
 31
0.00000000000000
  0
ARC
  5
257
330
23
100
AcDbEntity
  8
Zeichnung 5
  6
CONTINUOUS
 62
     7
370
    18
100
AcDbCircle
 10
28.07999999999993
 20
10.32000000000037
 30
0.00000000000000
 40
0.97999999999993
100
AcDbArc
 50
345.50499972675362
 51
194.49500027324638
  0
LINE
  5
258
330
23
100
AcDbEntity
  8
Zeichnung 5
  6
CONTINUOUS
 62
     7
370
    18
100
AcDbLine
 10
29.02880609556959
 20
10.07471038951979
 30
0.00000000000000
 11
28.11119390443011
 21
6.52528961048113
 31
0.00000000000000
  0
ARC
  5
259
330
23
100
AcDbEntity
  8
Zeichnung 5
  6
CONTINUOUS
 62
     7
370
    18
100
AcDbCircle
 10
29.05999999999995
 20
6.28000000000051
 30
0.00000000000000
 40
0.97999999999993
100
AcDbArc
 50
165.50499972675362
 51
14.49500027324365
  0
LINE
  5
25A
330
23
100
AcDbEntity
  8
Zeichnung 5
  6
CONTINUOUS
 62
     7
370
    18
100
AcDbLine
 10
30.00880609556980
 20
6.52528961048109
 30
0.00000000000000
 11
29.09119390443049
 21
10.07471038951984
 31
0.00000000000000
  0
ARC
  5
25B
330
23
100
AcDbEntity
  8
Zeichnung 5
  6
CONTINUOUS
 62
     7
370
    18
100
AcDbCircle
 10
30.04000000000016
 20
10.32000000000037
 30
0.00000000000000
 40
0.97999999999992
100
AcDbArc
 50
345.50499972674612
 51
194.49500027324382
  0
LINE
  5
25C
330
23
100
AcDbEntity
  8
Zeichnung 5
  6
CONTINUOUS
 62
     7
370
    18
100
AcDbLine
 10
30.98880609556982
 20
10.07471038951966
 30
0.00000000000000
 11
30.07119390443016
 21
6.52528961048118
 31
0.00000000000000
  0
ARC
  5
25D
330
23
100
AcDbEntity
  8
Zeichnung 5
  6
CONTINUOUS
 62
     7
370
    18
100
AcDbCircle
 10
31.01999999999983
 20
6.28000000000051
 30
0.00000000000000
 40
0.97999999999996
100
AcDbArc
 50
165.50499972674859
 51
14.49500027324888
  0
LINE
  5
25E
330
23
100
AcDbEntity
  8
Zeichnung 5
  6
CONTINUOUS
 62
     7
370
    18
100
AcDbLine
 10
31.96880609556949
 20
6.52528961048113
 30
0.00000000000000
 11
31.05119390443001
 21
10.07471038951970
 31
0.00000000000000
  0
ARC
  5
25F
330
23
100
AcDbEntity
  8
Zeichnung 5
  6
CONTINUOUS
 62
     7
370
    18
100
AcDbCircle
 10
31.99999999999967
 20
10.32000000000037
 30
0.00000000000000
 40
0.97999999999996
100
AcDbArc
 50
345.50499972675618
 51
194.49500027325141
  0
LINE
  5
260
330
23
100
AcDbEntity
  8
Zeichnung 5
  6
CONTINUOUS
 62
     7
370
    18
100
AcDbLine
 10
32.94880609556934
 20
10.07471038951984
 30
0.00000000000000
 11
32.03119390443003
 21
6.52528961048109
 31
0.00000000000000
  0
ARC
  5
261
330
23
100
AcDbEntity
  8
Zeichnung 5
  6
CONTINUOUS
 62
     7
370
    18
100
AcDbCircle
 10
32.97999999999988
 20
6.28000000000051
 30
0.00000000000000
 40
0.97999999999992
100
AcDbArc
 50
165.50499972675618
 51
14.49500027324370
  0
LINE
  5
262
330
23
100
AcDbEntity
  8
Zeichnung 5
  6
CONTINUOUS
 62
     7
370
    18
100
AcDbLine
 10
33.92880609556972
 20
6.52528961048109
 30
0.00000000000000
 11
33.01119390443041
 21
10.07471038951984
 31
0.00000000000000
  0
ARC
  5
263
330
23
100
AcDbEntity
  8
Zeichnung 5
  6
CONTINUOUS
 62
     7
370
    18
100
AcDbCircle
 10
33.96000000000008
 20
10.32000000000037
 30
0.00000000000000
 40
0.97999999999992
100
AcDbArc
 50
345.50499972674612
 51
194.49500027324382
  0
LINE
  5
264
330
23
100
AcDbEntity
  8
Zeichnung 5
  6
CONTINUOUS
 62
     7
370
    18
100
AcDbLine
 10
34.90880609556974
 20
10.07471038951966
 30
0.00000000000000
 11
33.99119390443008
 21
6.52528961048118
 31
0.00000000000000
  0
ARC
  5
265
330
23
100
AcDbEntity
  8
Zeichnung 5
  6
CONTINUOUS
 62
     7
370
    18
100
AcDbCircle
 10
34.93999999999975
 20
6.28000000000051
 30
0.00000000000000
 40
0.97999999999996
100
AcDbArc
 50
165.50499972674859
 51
14.49500027324376
  0
LINE
  5
266
330
23
100
AcDbEntity
  8
Zeichnung 5
  6
CONTINUOUS
 62
     7
370
    18
100
AcDbLine
 10
35.88880609556959
 20
6.52528961048109
 30
0.00000000000000
 11
34.97119390443029
 21
10.07471038951984
 31
0.00000000000000
  0
ARC
  5
267
330
23
100
AcDbEntity
  8
Zeichnung 5
  6
CONTINUOUS
 62
     7
370
    18
100
AcDbCircle
 10
35.91999999999995
 20
10.32000000000037
 30
0.00000000000000
 40
0.97999999999992
100
AcDbArc
 50
345.50499972674862
 51
194.49500027324382
  0
LINE
  5
268
330
23
100
AcDbEntity
  8
Zeichnung 5
  6
CONTINUOUS
 62
     7
370
    18
100
AcDbLine
 10
36.86880609556962
 20
10.07471038951970
 30
0.00000000000000
 11
35.95119390443013
 21
6.52528961048113
 31
0.00000000000000
  0
ARC
  5
269
330
23
100
AcDbEntity
  8
Zeichnung 5
  6
CONTINUOUS
 62
     7
370
    18
100
AcDbCircle
 10
36.89999999999980
 20
6.28000000000051
 30
0.00000000000000
 40
0.97999999999994
100
AcDbArc
 50
165.50499972675115
 51
14.49500027324626
  0
LINE
  5
26A
330
23
100
AcDbEntity
  8
Zeichnung 5
  6
CONTINUOUS
 62
     7
370
    18
100
AcDbLine
 10
37.84880609556965
 20
6.52528961048113
 30
0.00000000000000
 11
36.93119390443016
 21
10.07471038951979
 31
0.00000000000000
  0
ARC
  5
26B
330
23
100
AcDbEntity
  8
Zeichnung 5
  6
CONTINUOUS
 62
     7
370
    18
100
AcDbCircle
 10
37.87999999999983
 20
10.32000000000037
 30
0.00000000000000
 40
0.97999999999993
100
AcDbArc
 50
345.50499972675362
 51
194.49500027324638
  0
LINE
  5
26C
330
23
100
AcDbEntity
  8
Zeichnung 5
  6
CONTINUOUS
 62
     7
370
    18
100
AcDbLine
 10
38.82880609556949
 20
10.07471038951979
 30
0.00000000000000
 11
37.91119390443001
 21
6.52528961048113
 31
0.00000000000000
  0
ARC
  5
26D
330
23
100
AcDbEntity
  8
Zeichnung 5
  6
CONTINUOUS
 62
     7
370
    18
100
AcDbCircle
 10
38.85999999999985
 20
6.28000000000051
 30
0.00000000000000
 40
0.97999999999993
100
AcDbArc
 50
165.50499972675362
 51
14.49500027324615
  0
LINE
  5
26E
330
23
100
AcDbEntity
  8
Zeichnung 5
  6
CONTINUOUS
 62
     7
370
    18
100
AcDbLine
 10
39.80880609556969
 20
6.52528961048113
 30
0.00000000000000
 11
38.89119390443022
 21
10.07471038951979
 31
0.00000000000000
  0
ARC
  5
26F
330
23
100
AcDbEntity
  8
Zeichnung 5
  6
CONTINUOUS
 62
     7
370
    18
100
AcDbCircle
 10
39.83999999999988
 20
10.32000000000037
 30
0.00000000000000
 40
0.97999999999993
100
AcDbArc
 50
345.50499972674862
 51
194.49500027324638
  0
LINE
  5
270
330
23
100
AcDbEntity
  8
Zeichnung 5
  6
CONTINUOUS
 62
     7
370
    18
100
AcDbLine
 10
40.78880609556954
 20
10.07471038951970
 30
0.00000000000000
 11
39.87119390443006
 21
6.52528961048113
 31
0.00000000000000
  0
ARC
  5
271
330
23
100
AcDbEntity
  8
Zeichnung 5
  6
CONTINUOUS
 62
     7
370
    18
100
AcDbCircle
 10
40.81999999999972
 20
6.28000000000051
 30
0.00000000000000
 40
0.97999999999994
100
AcDbArc
 50
165.50499972675115
 51
14.49500027324626
  0
LINE
  5
272
330
23
100
AcDbEntity
  8
Zeichnung 5
  6
CONTINUOUS
 62
     7
370
    18
100
AcDbLine
 10
41.76880609556957
 20
6.52528961048113
 30
0.00000000000000
 11
40.85119390443008
 21
10.07471038951979
 31
0.00000000000000
  0
ARC
  5
273
330
23
100
AcDbEntity
  8
Zeichnung 5
  6
CONTINUOUS
 62
     7
370
    18
100
AcDbCircle
 10
41.79999999999976
 20
10.32000000000037
 30
0.00000000000000
 40
0.97999999999993
100
AcDbArc
 50
345.50499972675362
 51
194.49500027324638
  0
LINE
  5
274
330
23
100
AcDbEntity
  8
Zeichnung 5
  6
CONTINUOUS
 62
     7
370
    18
100
AcDbLine
 10
42.74880609556941
 20
10.07471038951979
 30
0.00000000000000
 11
41.83119390442994
 21
6.52528961048113
 31
0.00000000000000
  0
ARC
  5
275
330
23
100
AcDbEntity
  8
Zeichnung 5
  6
CONTINUOUS
 62
     7
370
    18
100
AcDbCircle
 10
42.77999999999977
 20
6.28000000000051
 30
0.00000000000000
 40
0.97999999999993
100
AcDbArc
 50
165.50499972675362
 51
14.49500027324365
  0
LINE
  5
276
330
23
100
AcDbEntity
  8
Zeichnung 5
  6
CONTINUOUS
 62
     7
370
    18
100
AcDbLine
 10
43.72880609556962
 20
6.52528961048109
 30
0.00000000000000
 11
42.81119390443031
 21
10.07471038951984
 31
0.00000000000000
  0
ARC
  5
277
330
23
100
AcDbEntity
  8
Zeichnung 5
  6
CONTINUOUS
 62
     7
370
    18
100
AcDbCircle
 10
43.75999999999998
 20
10.32000000000037
 30
0.00000000000000
 40
0.97999999999992
100
AcDbArc
 50
345.50499972674612
 51
194.49500027324382
  0
LINE
  5
278
330
23
100
AcDbEntity
  8
Zeichnung 5
  6
CONTINUOUS
 62
     7
370
    18
100
AcDbLine
 10
44.70880609556964
 20
10.07471038951966
 30
0.00000000000000
 11
43.79119390442998
 21
6.52528961048118
 31
0.00000000000000
  0
ARC
  5
279
330
23
100
AcDbEntity
  8
Zeichnung 5
  6
CONTINUOUS
 62
     7
370
    18
100
AcDbCircle
 10
44.73999999999965
 20
6.28000000000051
 30
0.00000000000000
 40
0.97999999999996
100
AcDbArc
 50
165.50499972674859
 51
14.49500027324376
  0
LINE
  5
27A
330
23
100
AcDbEntity
  8
Zeichnung 5
  6
CONTINUOUS
 62
     7
370
    18
100
AcDbLine
 10
45.68880609556950
 20
6.52528961048109
 30
0.00000000000000
 11
44.77119390443018
 21
10.07471038951984
 31
0.00000000000000
  0
ARC
  5
27B
330
23
100
AcDbEntity
  8
Zeichnung 5
  6
CONTINUOUS
 62
     7
370
    18
100
AcDbCircle
 10
45.71999999999985
 20
10.32000000000037
 30
0.00000000000000
 40
0.97999999999992
100
AcDbArc
 50
345.50499972674862
 51
194.49500027324382
  0
LINE
  5
27C
330
23
100
AcDbEntity
  8
Zeichnung 5
  6
CONTINUOUS
 62
     7
370
    18
100
AcDbLine
 10
46.66880609556952
 20
10.07471038951970
 30
0.00000000000000
 11
45.75119390443003
 21
6.52528961048113
 31
0.00000000000000
  0
ARC
  5
27D
330
23
100
AcDbEntity
  8
Zeichnung 5
  6
CONTINUOUS
 62
     7
370
    18
100
AcDbCircle
 10
46.69999999999970
 20
6.28000000000051
 30
0.00000000000000
 40
0.97999999999994
100
AcDbArc
 50
165.50499972675115
 51
14.49500027324626
  0
LINE
  5
27E
330
23
100
AcDbEntity
  8
Zeichnung 5
  6
CONTINUOUS
 62
     7
370
    18
100
AcDbLine
 10
47.64880609556954
 20
6.52528961048113
 30
0.00000000000000
 11
46.73119390443006
 21
10.07471038951979
 31
0.00000000000000
  0
ARC
  5
27F
330
23
100
AcDbEntity
  8
Zeichnung 5
  6
CONTINUOUS
 62
     7
370
    18
100
AcDbCircle
 10
47.67999999999972
 20
10.32000000000037
 30
0.00000000000000
 40
0.97999999999993
100
AcDbArc
 50
345.50499972675362
 51
194.49500027324638
  0
LINE
  5
280
330
23
100
AcDbEntity
  8
Zeichnung 5
  6
CONTINUOUS
 62
     7
370
    18
100
AcDbLine
 10
48.62880609556939
 20
10.07471038951979
 30
0.00000000000000
 11
47.71119390442991
 21
6.52528961048113
 31
0.00000000000000
  0
ARC
  5
281
330
23
100
AcDbEntity
  8
Zeichnung 5
  6
CONTINUOUS
 62
     7
370
    18
100
AcDbCircle
 10
48.65999999999975
 20
6.28000000000051
 30
0.00000000000000
 40
0.97999999999993
100
AcDbArc
 50
165.50499972675362
 51
14.49500027324615
  0
LINE
  5
282
330
23
100
AcDbEntity
  8
Zeichnung 5
  6
CONTINUOUS
 62
     7
370
    18
100
AcDbLine
 10
49.60880609556959
 20
6.52528961048113
 30
0.00000000000000
 11
48.69119390443011
 21
10.07471038951979
 31
0.00000000000000
  0
ARC
  5
283
330
23
100
AcDbEntity
  8
Zeichnung 5
  6
CONTINUOUS
 62
     7
370
    18
100
AcDbCircle
 10
49.63999999999977
 20
10.32000000000037
 30
0.00000000000000
 40
0.97999999999993
100
AcDbArc
 50
345.50499972674862
 51
194.49500027324638
  0
LINE
  5
284
330
23
100
AcDbEntity
  8
Zeichnung 5
  6
CONTINUOUS
 62
     7
370
    18
100
AcDbLine
 10
50.58880609556944
 20
10.07471038951970
 30
0.00000000000000
 11
49.67119390442996
 21
6.52528961048113
 31
0.00000000000000
  0
ARC
  5
285
330
23
100
AcDbEntity
  8
Zeichnung 5
  6
CONTINUOUS
 62
     7
370
    18
100
AcDbCircle
 10
50.61999999999962
 20
6.28000000000051
 30
0.00000000000000
 40
0.97999999999994
100
AcDbArc
 50
165.50499972675115
 51
14.49500027324626
  0
LINE
  5
286
330
23
100
AcDbEntity
  8
Zeichnung 5
  6
CONTINUOUS
 62
     7
370
    18
100
AcDbLine
 10
51.56880609556946
 20
6.52528961048113
 30
0.00000000000000
 11
50.65119390442999
 21
10.07471038951979
 31
0.00000000000000
  0
ARC
  5
287
330
23
100
AcDbEntity
  8
Zeichnung 5
  6
CONTINUOUS
 62
     7
370
    18
100
AcDbCircle
 10
51.59999999999965
 20
10.32000000000037
 30
0.00000000000000
 40
0.97999999999993
100
AcDbArc
 50
345.50499972675362
 51
194.49500027324638
  0
LINE
  5
288
330
23
100
AcDbEntity
  8
Zeichnung 5
  6
CONTINUOUS
 62
     7
370
    18
100
AcDbLine
 10
52.54880609556931
 20
10.07471038951979
 30
0.00000000000000
 11
51.63119390442983
 21
6.52528961048113
 31
0.00000000000000
  0
ARC
  5
289
330
23
100
AcDbEntity
  8
Zeichnung 5
  6
CONTINUOUS
 62
     7
370
    18
100
AcDbCircle
 10
52.57999999999967
 20
6.28000000000051
 30
0.00000000000000
 40
0.97999999999993
100
AcDbArc
 50
165.50499972675362
 51
14.49500027324109
  0
LINE
  5
28A
330
23
100
AcDbEntity
  8
Zeichnung 5
  6
CONTINUOUS
 62
     7
370
    18
100
AcDbLine
 10
53.52880609556951
 20
6.52528961048104
 30
0.00000000000000
 11
52.61119390443039
 21
10.07471038951988
 31
0.00000000000000
  0
ARC
  5
28B
330
23
100
AcDbEntity
  8
Zeichnung 5
  6
CONTINUOUS
 62
     7
370
    18
100
AcDbCircle
 10
53.56000000000005
 20
10.32000000000037
 30
0.00000000000000
 40
0.97999999999991
100
AcDbArc
 50
345.50499972674356
 51
194.49500027324135
  0
LINE
  5
28C
330
23
100
AcDbEntity
  8
Zeichnung 5
  6
CONTINUOUS
 62
     7
370
    18
100
AcDbLine
 10
54.50880609556972
 20
10.07471038951961
 30
0.00000000000000
 11
53.59119390442988
 21
6.52528961048122
 31
0.00000000000000
  0
ARC
  5
28D
330
23
100
AcDbEntity
  8
Zeichnung 5
  6
CONTINUOUS
 62
     7
370
    18
100
AcDbCircle
 10
54.53999999999954
 20
6.28000000000051
 30
0.00000000000000
 40
0.97999999999997
100
AcDbArc
 50
165.50499972674612
 51
14.49500027324626
  0
LINE
  5
28E
330
23
100
AcDbEntity
  8
Zeichnung 5
  6
CONTINUOUS
 62
     7
370
    18
100
AcDbLine
 10
55.48880609556939
 20
6.52528961048113
 30
0.00000000000000
 11
54.57119390442991
 21
10.07471038951979
 31
0.00000000000000
  0
ARC
  5
28F
330
23
100
AcDbEntity
  8
Zeichnung 5
  6
CONTINUOUS
 62
     7
370
    18
100
AcDbCircle
 10
55.51999999999957
 20
10.32000000000037
 30
0.00000000000000
 40
0.97999999999993
100
AcDbArc
 50
345.50499972675362
 51
194.49500027324638
  0
LINE
  5
290
330
23
100
AcDbEntity
  8
Zeichnung 5
  6
CONTINUOUS
 62
     7
370
    18
100
AcDbLine
 10
56.46880609556924
 20
10.07471038951979
 30
0.00000000000000
 11
55.55119390442975
 21
6.52528961048113
 31
0.00000000000000
  0
ARC
  5
291
330
23
100
AcDbEntity
  8
Zeichnung 5
  6
CONTINUOUS
 62
     7
370
    18
100
AcDbCircle
 10
56.49999999999960
 20
6.28000000000051
 30
0.00000000000000
 40
0.97999999999993
100
AcDbArc
 50
165.50499972675362
 51
269.99999999999989
  0
ENDBLK
  5
292
330
23
100
AcDbEntity
  8
0
100
AcDbBlockEnd
  0
BLOCK
  5
293
330
24
100
AcDbEntity
  8
0
100
AcDbBlockBegin
  2
*U13
 70
     1
 10
0.00000000000000
 20
0.00000000000000
 30
0.00000000000000
  3
*U13
  1

  0
MTEXT
  5
294
330
24
100
AcDbEntity
  8
Zeichnung 5
 62
     7
370
    30
100
AcDbMText
 10
48.99999999999967
 20
37.30000000000016
 30
0.00000000000000
 40
2.80000000000000
 41
0.00000000000000
 71
     7
 72
     1
  1
\fArial Narrow|b0|i0;Unterspannbahn
 11
1.00000000000000
 21
0.00000000000000
 31
0.00000000000000
 73
     1
 44
1.00000000000000
  0
MTEXT
  5
295
330
24
100
AcDbEntity
  8
Zeichnung 5
 62
     7
370
    30
100
AcDbMText
 10
48.99999999999967
 20
35.70000000000015
 30
0.00000000000000
 40
2.80000000000000
 41
0.00000000000000
 71
     1
 72
     1
  1
\fArial Narrow|b0|i0;mind. schwerentflammbar (B1)\Pund brandlastarm
 11
1.00000000000000
 21
0.00000000000000
 31
0.00000000000000
 73
     1
 44
1.00000000000000
  0
LINE
  5
296
330
24
100
AcDbEntity
  8
Zeichnung 5
  6
CONTINUOUS
 62
    12
370
    25
100
AcDbLine
 10
15.48102053961191
 20
-2.99434623917558
 30
0.00000000000000
 11
46.99999999999971
 21
36.50000000000016
 31
0.00000000000000
  0
HATCH
  5
297
330
24
100
AcDbEntity
  8
Zeichnung 5
 62
    12
100
AcDbHatch
 10
0.00000000000000
 20
0.00000000000000
 30
0.00000000000000
210
0.00000000000000
220
0.00000000000000
230
1.00000000000000
  2
SOLID
 70
     1
 71
     0
 91
        1
 92
        0
 93
       16
 72
     1
 10
15.98102053961191
 20
-2.99434623917558
 11
15.94296030586756
 21
-2.80300452299304
 72
     1
 10
15.94296030586756
 20
-2.80300452299304
 11
15.83457393020519
 21
-2.64079284858231
 72
     1
 10
15.83457393020519
 20
-2.64079284858231
 11
15.67236225579446
 21
-2.53240647291994
 72
     1
 10
15.67236225579446
 20
-2.53240647291994
 11
15.48102053961191
 21
-2.49434623917558
 72
     1
 10
15.48102053961191
 20
-2.49434623917558
 11
15.28967882342937
 21
-2.53240647291994
 72
     1
 10
15.28967882342937
 20
-2.53240647291994
 11
15.12746714901864
 21
-2.64079284858231
 72
     1
 10
15.12746714901864
 20
-2.64079284858231
 11
15.01908077335627
 21
-2.80300452299304
 72
     1
 10
15.01908077335627
 20
-2.80300452299304
 11
14.98102053961191
 21
-2.99434623917558
 72
     1
 10
14.98102053961191
 20
-2.99434623917558
 11
15.01908077335627
 21
-3.18568795535813
 72
     1
 10
15.01908077335627
 20
-3.18568795535813
 11
15.12746714901864
 21
-3.34789962976886
 72
     1
 10
15.12746714901864
 20
-3.34789962976886
 11
15.28967882342937
 21
-3.45628600543123
 72
     1
 10
15.28967882342937
 20
-3.45628600543123
 11
15.48102053961191
 21
-3.49434623917558
 72
     1
 10
15.48102053961191
 20
-3.49434623917558
 11
15.67236225579446
 21
-3.45628600543123
 72
     1
 10
15.67236225579446
 20
-3.45628600543123
 11
15.83457393020519
 21
-3.34789962976886
 72
     1
 10
15.83457393020519
 20
-3.34789962976886
 11
15.94296030586756
 21
-3.18568795535813
 72
     1
 10
15.94296030586756
 20
-3.18568795535813
 11
15.98102053961191
 21
-2.99434623917558
 97
        0
 75
     0
 76
     0
 98
        1
 10
0.00000000000000
 20
0.00000000000000
  0
LWPOLYLINE
  5
298
330
24
100
AcDbEntity
  8
Zeichnung 5
  6
CONTINUOUS
 62
    12
370
    25
100
AcDbPolyline
 90
       17
 70
   128
 10
15.98102053961191
 20
-2.99434623917558
 10
15.94296030586756
 20
-2.80300452299304
 10
15.83457393020519
 20
-2.64079284858231
 10
15.67236225579446
 20
-2.53240647291994
 10
15.48102053961191
 20
-2.49434623917558
 10
15.28967882342937
 20
-2.53240647291994
 10
15.12746714901864
 20
-2.64079284858231
 10
15.01908077335627
 20
-2.80300452299304
 10
14.98102053961191
 20
-2.99434623917558
 10
15.01908077335627
 20
-3.18568795535813
 10
15.12746714901864
 20
-3.34789962976886
 10
15.28967882342937
 20
-3.45628600543123
 10
15.48102053961191
 20
-3.49434623917558
 10
15.67236225579446
 20
-3.45628600543123
 10
15.83457393020519
 20
-3.34789962976886
 10
15.94296030586756
 20
-3.18568795535813
 10
15.98102053961191
 20
-2.99434623917558
  0
LINE
  5
299
330
24
100
AcDbEntity
  8
Zeichnung 5
  6
CONTINUOUS
 62
    12
370
    25
100
AcDbLine
 10
46.99999999999971
 20
36.50000000000016
 30
0.00000000000000
 11
93.25271675738692
 21
36.50000000000016
 31
0.00000000000000
  0
ENDBLK
  5
29A
330
24
100
AcDbEntity
  8
0
100
AcDbBlockEnd
  0
BLOCK
  5
29B
330
25
100
AcDbEntity
  8
0
100
AcDbBlockBegin
  2
*U14
 70
     1
 10
0.00000000000000
 20
0.00000000000000
 30
0.00000000000000
  3
*U14
  1

  0
MTEXT
  5
29C
330
25
100
AcDbEntity
  8
Zeichnung 5
 62
     7
370
    30
100
AcDbMText
 10
-73.61139191290859
 20
29.18699157700440
 30
0.00000000000000
 40
2.80000000000000
 41
0.00000000000000
 71
     7
 72
     1
  1
\fArial Narrow|b0|i0;Mineralwolle; nichtbrennbar;
 11
1.00000000000000
 21
0.00000000000000
 31
0.00000000000000
 73
     1
 44
1.00000000000000
  0
MTEXT
  5
29D
330
25
100
AcDbEntity
  8
Zeichnung 5
 62
     7
370
    30
100
AcDbMText
 10
-73.61139191290859
 20
27.58699157700440
 30
0.00000000000000
 40
2.80000000000000
 41
0.00000000000000
 71
     1
 72
     1
  1
\fArial Narrow|b0|i0;Rohdichte > 30 kg/m³\PSchmelzpunkt > 1000%%dC
 11
1.00000000000000
 21
0.00000000000000
 31
0.00000000000000
 73
     1
 44
1.00000000000000
  0
LINE
  5
29E
330
25
100
AcDbEntity
  8
Zeichnung 5
  6
CONTINUOUS
 62
    12
370
    25
100
AcDbLine
 10
-16.95605063340029
 20
9.37721649106318
 30
0.00000000000000
 11
-33.00000000000036
 21
28.38699157700440
 31
0.00000000000000
  0
HATCH
  5
29F
330
25
100
AcDbEntity
  8
Zeichnung 5
 62
    12
100
AcDbHatch
 10
0.00000000000000
 20
0.00000000000000
 30
0.00000000000000
210
0.00000000000000
220
0.00000000000000
230
1.00000000000000
  2
SOLID
 70
     1
 71
     0
 91
        1
 92
        0
 93
       16
 72
     1
 10
-16.45605063340029
 20
9.37721649106318
 11
-16.49411086714465
 21
9.56855820724572
 72
     1
 10
-16.49411086714465
 20
9.56855820724572
 11
-16.60249724280702
 21
9.73076988165645
 72
     1
 10
-16.60249724280702
 20
9.73076988165645
 11
-16.76470891721775
 21
9.83915625731882
 72
     1
 10
-16.76470891721775
 20
9.83915625731882
 11
-16.95605063340029
 21
9.87721649106318
 72
     1
 10
-16.95605063340029
 20
9.87721649106318
 11
-17.14739234958283
 21
9.83915625731882
 72
     1
 10
-17.14739234958283
 20
9.83915625731882
 11
-17.30960402399356
 21
9.73076988165645
 72
     1
 10
-17.30960402399356
 20
9.73076988165645
 11
-17.41799039965593
 21
9.56855820724572
 72
     1
 10
-17.41799039965593
 20
9.56855820724572
 11
-17.45605063340029
 21
9.37721649106318
 72
     1
 10
-17.45605063340029
 20
9.37721649106318
 11
-17.41799039965593
 21
9.18587477488063
 72
     1
 10
-17.41799039965593
 20
9.18587477488063
 11
-17.30960402399356
 21
9.02366310046990
 72
     1
 10
-17.30960402399356
 20
9.02366310046990
 11
-17.14739234958283
 21
8.91527672480754
 72
     1
 10
-17.14739234958283
 20
8.91527672480754
 11
-16.95605063340029
 21
8.87721649106318
 72
     1
 10
-16.95605063340029
 20
8.87721649106318
 11
-16.76470891721775
 21
8.91527672480754
 72
     1
 10
-16.76470891721775
 20
8.91527672480754
 11
-16.60249724280702
 21
9.02366310046990
 72
     1
 10
-16.60249724280702
 20
9.02366310046990
 11
-16.49411086714465
 21
9.18587477488063
 72
     1
 10
-16.49411086714465
 20
9.18587477488063
 11
-16.45605063340029
 21
9.37721649106318
 97
        0
 75
     0
 76
     0
 98
        1
 10
0.00000000000000
 20
0.00000000000000
  0
LWPOLYLINE
  5
2A0
330
25
100
AcDbEntity
  8
Zeichnung 5
  6
CONTINUOUS
 62
    12
370
    25
100
AcDbPolyline
 90
       17
 70
   128
 10
-16.45605063340029
 20
9.37721649106318
 10
-16.49411086714465
 20
9.56855820724572
 10
-16.60249724280702
 20
9.73076988165645
 10
-16.76470891721775
 20
9.83915625731882
 10
-16.95605063340029
 20
9.87721649106318
 10
-17.14739234958283
 20
9.83915625731882
 10
-17.30960402399356
 20
9.73076988165645
 10
-17.41799039965593
 20
9.56855820724572
 10
-17.45605063340029
 20
9.37721649106318
 10
-17.41799039965593
 20
9.18587477488063
 10
-17.30960402399356
 20
9.02366310046990
 10
-17.14739234958283
 20
8.91527672480754
 10
-16.95605063340029
 20
8.87721649106318
 10
-16.76470891721775
 20
8.91527672480754
 10
-16.60249724280702
 20
9.02366310046990
 10
-16.49411086714465
 20
9.18587477488063
 10
-16.45605063340029
 20
9.37721649106318
  0
LINE
  5
2A1
330
25
100
AcDbEntity
  8
Zeichnung 5
  6
CONTINUOUS
 62
    12
370
    25
100
AcDbLine
 10
-75.01139191290861
 20
28.38699157700440
 30
0.00000000000000
 11
-33.00000000000036
 21
28.38699157700440
 31
0.00000000000000
  0
ENDBLK
  5
2A2
330
25
100
AcDbEntity
  8
0
100
AcDbBlockEnd
  0
BLOCK
  5
2A3
330
26
100
AcDbEntity
  8
0
100
AcDbBlockBegin
  2
*U15
 70
     1
 10
0.00000000000000
 20
0.00000000000000
 30
0.00000000000000
  3
*U15
  1

  0
LINE
  5
2A4
330
26
100
AcDbEntity
  8
Zeichnung 5
  6
CONTINUOUS
 62
    12
370
    25
100
AcDbLine
 10
-19.41989290988335
 20
3.42680495540559
 30
0.00000000000000
 11
-33.00000000000036
 21
28.38699157700440
 31
0.00000000000000
  0
HATCH
  5
2A5
330
26
100
AcDbEntity
  8
Zeichnung 5
 62
    12
100
AcDbHatch
 10
0.00000000000000
 20
0.00000000000000
 30
0.00000000000000
210
0.00000000000000
220
0.00000000000000
230
1.00000000000000
  2
SOLID
 70
     1
 71
     0
 91
        1
 92
        0
 93
       16
 72
     1
 10
-18.91989290988335
 20
3.42680495540559
 11
-18.95795314362771
 21
3.61814667158814
 72
     1
 10
-18.95795314362771
 20
3.61814667158814
 11
-19.06633951929008
 21
3.78035834599887
 72
     1
 10
-19.06633951929008
 20
3.78035834599887
 11
-19.22855119370081
 21
3.88874472166124
 72
     1
 10
-19.22855119370081
 20
3.88874472166124
 11
-19.41989290988335
 21
3.92680495540559
 72
     1
 10
-19.41989290988335
 20
3.92680495540559
 11
-19.61123462606590
 21
3.88874472166124
 72
     1
 10
-19.61123462606590
 20
3.88874472166124
 11
-19.77344630047663
 21
3.78035834599887
 72
     1
 10
-19.77344630047663
 20
3.78035834599887
 11
-19.88183267613900
 21
3.61814667158814
 72
     1
 10
-19.88183267613900
 20
3.61814667158814
 11
-19.91989290988336
 21
3.42680495540559
 72
     1
 10
-19.91989290988336
 20
3.42680495540559
 11
-19.88183267613900
 21
3.23546323922305
 72
     1
 10
-19.88183267613900
 20
3.23546323922305
 11
-19.77344630047663
 21
3.07325156481232
 72
     1
 10
-19.77344630047663
 20
3.07325156481232
 11
-19.61123462606590
 21
2.96486518914995
 72
     1
 10
-19.61123462606590
 20
2.96486518914995
 11
-19.41989290988335
 21
2.92680495540559
 72
     1
 10
-19.41989290988335
 20
2.92680495540559
 11
-19.22855119370081
 21
2.96486518914995
 72
     1
 10
-19.22855119370081
 20
2.96486518914995
 11
-19.06633951929008
 21
3.07325156481232
 72
     1
 10
-19.06633951929008
 20
3.07325156481232
 11
-18.95795314362771
 21
3.23546323922305
 72
     1
 10
-18.95795314362771
 20
3.23546323922305
 11
-18.91989290988335
 21
3.42680495540559
 97
        0
 75
     0
 76
     0
 98
        1
 10
0.00000000000000
 20
0.00000000000000
  0
LWPOLYLINE
  5
2A6
330
26
100
AcDbEntity
  8
Zeichnung 5
  6
CONTINUOUS
 62
    12
370
    25
100
AcDbPolyline
 90
       17
 70
   128
 10
-18.91989290988335
 20
3.42680495540559
 10
-18.95795314362771
 20
3.61814667158814
 10
-19.06633951929008
 20
3.78035834599887
 10
-19.22855119370081
 20
3.88874472166124
 10
-19.41989290988335
 20
3.92680495540559
 10
-19.61123462606590
 20
3.88874472166124
 10
-19.77344630047663
 20
3.78035834599887
 10
-19.88183267613900
 20
3.61814667158814
 10
-19.91989290988336
 20
3.42680495540559
 10
-19.88183267613900
 20
3.23546323922305
 10
-19.77344630047663
 20
3.07325156481232
 10
-19.61123462606590
 20
2.96486518914995
 10
-19.41989290988335
 20
2.92680495540559
 10
-19.22855119370081
 20
2.96486518914995
 10
-19.06633951929008
 20
3.07325156481232
 10
-18.95795314362771
 20
3.23546323922305
 10
-18.91989290988335
 20
3.42680495540559
  0
LINE
  5
2A7
330
26
100
AcDbEntity
  8
Zeichnung 5
  6
CONTINUOUS
 62
    12
370
    25
100
AcDbLine
 10
-35.35000000000036
 20
28.38699157700440
 30
0.00000000000000
 11
-33.00000000000036
 21
28.38699157700440
 31
0.00000000000000
  0
ENDBLK
  5
2A8
330
26
100
AcDbEntity
  8
0
100
AcDbBlockEnd
  0
BLOCK
  5
2A9
330
27
100
AcDbEntity
  8
0
100
AcDbBlockBegin
  2
*U16
 70
     1
 10
0.00000000000000
 20
0.00000000000000
 30
0.00000000000000
  3
*U16
  1

  0
LINE
  5
2AA
330
27
100
AcDbEntity
  8
Zeichnung 5
  6
CONTINUOUS
 62
    12
370
    25
100
AcDbLine
 10
33.48134570174047
 20
-20.95156707920318
 30
0.00000000000000
 11
-33.00000000000036
 21
28.38699157700440
 31
0.00000000000000
  0
HATCH
  5
2AB
330
27
100
AcDbEntity
  8
Zeichnung 5
 62
    12
100
AcDbHatch
 10
0.00000000000000
 20
0.00000000000000
 30
0.00000000000000
210
0.00000000000000
220
0.00000000000000
230
1.00000000000000
  2
SOLID
 70
     1
 71
     0
 91
        1
 92
        0
 93
       16
 72
     1
 10
33.98134570174047
 20
-20.95156707920318
 11
33.94328546799611
 21
-20.76022536302064
 72
     1
 10
33.94328546799611
 20
-20.76022536302064
 11
33.83489909233374
 21
-20.59801368860991
 72
     1
 10
33.83489909233374
 20
-20.59801368860991
 11
33.67268741792302
 21
-20.48962731294754
 72
     1
 10
33.67268741792302
 20
-20.48962731294754
 11
33.48134570174047
 21
-20.45156707920318
 72
     1
 10
33.48134570174047
 20
-20.45156707920318
 11
33.29000398555792
 21
-20.48962731294754
 72
     1
 10
33.29000398555792
 20
-20.48962731294754
 11
33.12779231114720
 21
-20.59801368860991
 72
     1
 10
33.12779231114720
 20
-20.59801368860991
 11
33.01940593548482
 21
-20.76022536302064
 72
     1
 10
33.01940593548482
 20
-20.76022536302064
 11
32.98134570174047
 21
-20.95156707920318
 72
     1
 10
32.98134570174047
 20
-20.95156707920318
 11
33.01940593548482
 21
-21.14290879538573
 72
     1
 10
33.01940593548482
 20
-21.14290879538573
 11
33.12779231114720
 21
-21.30512046979646
 72
     1
 10
33.12779231114720
 20
-21.30512046979646
 11
33.29000398555792
 21
-21.41350684545883
 72
     1
 10
33.29000398555792
 20
-21.41350684545883
 11
33.48134570174047
 21
-21.45156707920318
 72
     1
 10
33.48134570174047
 20
-21.45156707920318
 11
33.67268741792302
 21
-21.41350684545883
 72
     1
 10
33.67268741792302
 20
-21.41350684545883
 11
33.83489909233374
 21
-21.30512046979646
 72
     1
 10
33.83489909233374
 20
-21.30512046979646
 11
33.94328546799611
 21
-21.14290879538573
 72
     1
 10
33.94328546799611
 20
-21.14290879538573
 11
33.98134570174047
 21
-20.95156707920318
 97
        0
 75
     0
 76
     0
 98
        1
 10
0.00000000000000
 20
0.00000000000000
  0
LWPOLYLINE
  5
2AC
330
27
100
AcDbEntity
  8
Zeichnung 5
  6
CONTINUOUS
 62
    12
370
    25
100
AcDbPolyline
 90
       17
 70
   128
 10
33.98134570174047
 20
-20.95156707920318
 10
33.94328546799611
 20
-20.76022536302064
 10
33.83489909233374
 20
-20.59801368860991
 10
33.67268741792302
 20
-20.48962731294754
 10
33.48134570174047
 20
-20.45156707920318
 10
33.29000398555792
 20
-20.48962731294754
 10
33.12779231114720
 20
-20.59801368860991
 10
33.01940593548482
 20
-20.76022536302064
 10
32.98134570174047
 20
-20.95156707920318
 10
33.01940593548482
 20
-21.14290879538573
 10
33.12779231114720
 20
-21.30512046979646
 10
33.29000398555792
 20
-21.41350684545883
 10
33.48134570174047
 20
-21.45156707920318
 10
33.67268741792302
 20
-21.41350684545883
 10
33.83489909233374
 20
-21.30512046979646
 10
33.94328546799611
 20
-21.14290879538573
 10
33.98134570174047
 20
-20.95156707920318
  0
LINE
  5
2AD
330
27
100
AcDbEntity
  8
Zeichnung 5
  6
CONTINUOUS
 62
    12
370
    25
100
AcDbLine
 10
-35.35000000000036
 20
28.38699157700440
 30
0.00000000000000
 11
-33.00000000000036
 21
28.38699157700440
 31
0.00000000000000
  0
ENDBLK
  5
2AE
330
27
100
AcDbEntity
  8
0
100
AcDbBlockEnd
  0
BLOCK
  5
2AF
330
28
100
AcDbEntity
  8
0
100
AcDbBlockBegin
  2
*U17
 70
     1
 10
0.00000000000000
 20
0.00000000000000
 30
0.00000000000000
  3
*U17
  1

  0
LINE
  5
2B0
330
28
100
AcDbEntity
  8
Zeichnung 5
  6
CONTINUOUS
 62
    12
370
    25
100
AcDbLine
 10
-22.42185053789410
 20
-13.07031413475577
 30
0.00000000000000
 11
-33.00000000000036
 21
28.38699157700440
 31
0.00000000000000
  0
HATCH
  5
2B1
330
28
100
AcDbEntity
  8
Zeichnung 5
 62
    12
100
AcDbHatch
 10
0.00000000000000
 20
0.00000000000000
 30
0.00000000000000
210
0.00000000000000
220
0.00000000000000
230
1.00000000000000
  2
SOLID
 70
     1
 71
     0
 91
        1
 92
        0
 93
       16
 72
     1
 10
-21.92185053789410
 20
-13.07031413475577
 11
-21.95991077163845
 21
-12.87897241857322
 72
     1
 10
-21.95991077163845
 20
-12.87897241857322
 11
-22.06829714730083
 21
-12.71676074416250
 72
     1
 10
-22.06829714730083
 20
-12.71676074416250
 11
-22.23050882171155
 21
-12.60837436850012
 72
     1
 10
-22.23050882171155
 20
-12.60837436850012
 11
-22.42185053789410
 21
-12.57031413475577
 72
     1
 10
-22.42185053789410
 20
-12.57031413475577
 11
-22.61319225407664
 21
-12.60837436850012
 72
     1
 10
-22.61319225407664
 20
-12.60837436850012
 11
-22.77540392848737
 21
-12.71676074416250
 72
     1
 10
-22.77540392848737
 20
-12.71676074416250
 11
-22.88379030414974
 21
-12.87897241857322
 72
     1
 10
-22.88379030414974
 20
-12.87897241857322
 11
-22.92185053789410
 21
-13.07031413475577
 72
     1
 10
-22.92185053789410
 20
-13.07031413475577
 11
-22.88379030414974
 21
-13.26165585093831
 72
     1
 10
-22.88379030414974
 20
-13.26165585093831
 11
-22.77540392848737
 21
-13.42386752534904
 72
     1
 10
-22.77540392848737
 20
-13.42386752534904
 11
-22.61319225407664
 21
-13.53225390101141
 72
     1
 10
-22.61319225407664
 20
-13.53225390101141
 11
-22.42185053789410
 21
-13.57031413475577
 72
     1
 10
-22.42185053789410
 20
-13.57031413475577
 11
-22.23050882171155
 21
-13.53225390101141
 72
     1
 10
-22.23050882171155
 20
-13.53225390101141
 11
-22.06829714730082
 21
-13.42386752534904
 72
     1
 10
-22.06829714730082
 20
-13.42386752534904
 11
-21.95991077163845
 21
-13.26165585093831
 72
     1
 10
-21.95991077163845
 20
-13.26165585093831
 11
-21.92185053789410
 21
-13.07031413475577
 97
        0
 75
     0
 76
     0
 98
        1
 10
0.00000000000000
 20
0.00000000000000
  0
LWPOLYLINE
  5
2B2
330
28
100
AcDbEntity
  8
Zeichnung 5
  6
CONTINUOUS
 62
    12
370
    25
100
AcDbPolyline
 90
       17
 70
   128
 10
-21.92185053789410
 20
-13.07031413475577
 10
-21.95991077163845
 20
-12.87897241857322
 10
-22.06829714730083
 20
-12.71676074416250
 10
-22.23050882171155
 20
-12.60837436850012
 10
-22.42185053789410
 20
-12.57031413475577
 10
-22.61319225407664
 20
-12.60837436850012
 10
-22.77540392848737
 20
-12.71676074416250
 10
-22.88379030414974
 20
-12.87897241857322
 10
-22.92185053789410
 20
-13.07031413475577
 10
-22.88379030414974
 20
-13.26165585093831
 10
-22.77540392848737
 20
-13.42386752534904
 10
-22.61319225407664
 20
-13.53225390101141
 10
-22.42185053789410
 20
-13.57031413475577
 10
-22.23050882171155
 20
-13.53225390101141
 10
-22.06829714730082
 20
-13.42386752534904
 10
-21.95991077163845
 20
-13.26165585093831
 10
-21.92185053789410
 20
-13.07031413475577
  0
LINE
  5
2B3
330
28
100
AcDbEntity
  8
Zeichnung 5
  6
CONTINUOUS
 62
    12
370
    25
100
AcDbLine
 10
-35.35000000000036
 20
28.38699157700440
 30
0.00000000000000
 11
-33.00000000000036
 21
28.38699157700440
 31
0.00000000000000
  0
ENDBLK
  5
2B4
330
28
100
AcDbEntity
  8
0
100
AcDbBlockEnd
  0
BLOCK
  5
2B5
330
29
100
AcDbEntity
  8
0
100
AcDbBlockBegin
  2
*U18
 70
     1
 10
0.00000000000000
 20
0.00000000000000
 30
0.00000000000000
  3
*U18
  1

  0
MTEXT
  5
2B6
330
29
100
AcDbEntity
  8
Zeichnung 5
 62
     7
370
    20
100
AcDbMText
 10
-65.37152507776081
 20
57.30000000000022
 30
0.00000000000000
 40
2.20000000000000
 41
0.00000000000000
 71
     7
 72
     1
  1
\fArial Narrow|b0|i0;brennbare Holzlatten dürfen
 11
1.00000000000000
 21
0.00000000000000
 31
0.00000000000000
 73
     1
 44
1.00000000000000
  0
MTEXT
  5
2B7
330
29
100
AcDbEntity
  8
Zeichnung 5
 62
     7
370
    20
100
AcDbMText
 10
-65.37152507776081
 20
55.70000000000022
 30
0.00000000000000
 40
2.20000000000000
 41
0.00000000000000
 71
     1
 72
     1
  1
\fArial Narrow|b0|i0;nicht übergreifen!! Trennwand ist\Pbis unter die Dachhaut zu führen!!
 11
1.00000000000000
 21
0.00000000000000
 31
0.00000000000000
 73
     1
 44
1.00000000000000
  0
LINE
  5
2B8
330
29
100
AcDbEntity
  8
Zeichnung 5
  6
CONTINUOUS
 62
    12
370
    25
100
AcDbLine
 10
-21.00000000000026
 20
42.50000000000012
 30
0.00000000000000
 11
-27.00000000000032
 21
56.50000000000021
 31
0.00000000000000
  0
HATCH
  5
2B9
330
29
100
AcDbEntity
  8
Zeichnung 5
 62
    12
100
AcDbHatch
 10
0.00000000000000
 20
0.00000000000000
 30
0.00000000000000
210
0.00000000000000
220
0.00000000000000
230
1.00000000000000
  2
SOLID
 70
     1
 71
     0
 91
        1
 92
        0
 93
       16
 72
     1
 10
-20.50000000000026
 20
42.50000000000012
 11
-20.53806023374462
 21
42.69134171618266
 72
     1
 10
-20.53806023374462
 20
42.69134171618266
 11
-20.64644660940699
 21
42.85355339059339
 72
     1
 10
-20.64644660940699
 20
42.85355339059339
 11
-20.80865828381772
 21
42.96193976625576
 72
     1
 10
-20.80865828381772
 20
42.96193976625576
 11
-21.00000000000026
 21
43.00000000000012
 72
     1
 10
-21.00000000000026
 20
43.00000000000012
 11
-21.19134171618281
 21
42.96193976625576
 72
     1
 10
-21.19134171618281
 20
42.96193976625576
 11
-21.35355339059354
 21
42.85355339059339
 72
     1
 10
-21.35355339059354
 20
42.85355339059339
 11
-21.46193976625591
 21
42.69134171618266
 72
     1
 10
-21.46193976625591
 20
42.69134171618266
 11
-21.50000000000027
 21
42.50000000000012
 72
     1
 10
-21.50000000000027
 20
42.50000000000012
 11
-21.46193976625591
 21
42.30865828381757
 72
     1
 10
-21.46193976625591
 20
42.30865828381757
 11
-21.35355339059354
 21
42.14644660940684
 72
     1
 10
-21.35355339059354
 20
42.14644660940684
 11
-21.19134171618281
 21
42.03806023374447
 72
     1
 10
-21.19134171618281
 20
42.03806023374447
 11
-21.00000000000026
 21
42.00000000000012
 72
     1
 10
-21.00000000000026
 20
42.00000000000012
 11
-20.80865828381772
 21
42.03806023374447
 72
     1
 10
-20.80865828381772
 20
42.03806023374447
 11
-20.64644660940699
 21
42.14644660940684
 72
     1
 10
-20.64644660940699
 20
42.14644660940684
 11
-20.53806023374462
 21
42.30865828381757
 72
     1
 10
-20.53806023374462
 20
42.30865828381757
 11
-20.50000000000026
 21
42.50000000000012
 97
        0
 75
     0
 76
     0
 98
        1
 10
0.00000000000000
 20
0.00000000000000
  0
LWPOLYLINE
  5
2BA
330
29
100
AcDbEntity
  8
Zeichnung 5
  6
CONTINUOUS
 62
    12
370
    25
100
AcDbPolyline
 90
       17
 70
   128
 10
-20.50000000000026
 20
42.50000000000012
 10
-20.53806023374462
 20
42.69134171618266
 10
-20.64644660940699
 20
42.85355339059339
 10
-20.80865828381772
 20
42.96193976625576
 10
-21.00000000000026
 20
43.00000000000012
 10
-21.19134171618281
 20
42.96193976625576
 10
-21.35355339059354
 20
42.85355339059339
 10
-21.46193976625591
 20
42.69134171618266
 10
-21.50000000000027
 20
42.50000000000012
 10
-21.46193976625591
 20
42.30865828381757
 10
-21.35355339059354
 20
42.14644660940684
 10
-21.19134171618281
 20
42.03806023374447
 10
-21.00000000000026
 20
42.00000000000012
 10
-20.80865828381772
 20
42.03806023374447
 10
-20.64644660940699
 20
42.14644660940684
 10
-20.53806023374462
 20
42.30865828381757
 10
-20.50000000000026
 20
42.50000000000012
  0
LINE
  5
2BB
330
29
100
AcDbEntity
  8
Zeichnung 5
  6
CONTINUOUS
 62
    12
370
    25
100
AcDbLine
 10
-66.47152507776082
 20
56.50000000000021
 30
0.00000000000000
 11
-27.00000000000032
 21
56.50000000000021
 31
0.00000000000000
  0
ENDBLK
  5
2BC
330
29
100
AcDbEntity
  8
0
100
AcDbBlockEnd
  0
BLOCK
  5
2BD
330
2A
100
AcDbEntity
  8
0
100
AcDbBlockBegin
  2
*U19
 70
     1
 10
0.00000000000000
 20
0.00000000000000
 30
0.00000000000000
  3
*U19
  1

  0
MTEXT
  5
2BE
330
2A
100
AcDbEntity
  8
Zeichnung 5
 62
     7
370
    30
100
AcDbMText
 10
-57.00000000000041
 20
43.30000000000017
 30
0.00000000000000
 40
2.80000000000000
 41
0.00000000000000
 71
     7
 72
     1
  1
\fArial Narrow|b0|i0;Blechwinkel / Blechprofil
 11
1.00000000000000
 21
0.00000000000000
 31
0.00000000000000
 73
     1
 44
1.00000000000000
  0
MTEXT
  5
2BF
330
2A
100
AcDbEntity
  8
Zeichnung 5
 62
     7
370
    30
100
AcDbMText
 10
-57.00000000000041
 20
41.70000000000017
 30
0.00000000000000
 40
2.80000000000000
 41
0.00000000000000
 71
     1
 72
     1
  1
\fArial Narrow|b0|i0;als Traglattung für\PZiegeldeckung
 11
1.00000000000000
 21
0.00000000000000
 31
0.00000000000000
 73
     1
 44
1.00000000000000
  0
LINE
  5
2C0
330
2A
100
AcDbEntity
  8
Zeichnung 5
  6
CONTINUOUS
 62
    12
370
    25
100
AcDbLine
 10
6.42036969258637
 20
10.01080119246871
 30
0.00000000000000
 11
-21.00000000000026
 21
42.50000000000016
 31
0.00000000000000
  0
HATCH
  5
2C1
330
2A
100
AcDbEntity
  8
Zeichnung 5
 62
    12
100
AcDbHatch
 10
0.00000000000000
 20
0.00000000000000
 30
0.00000000000000
210
0.00000000000000
220
0.00000000000000
230
1.00000000000000
  2
SOLID
 70
     1
 71
     0
 91
        1
 92
        0
 93
       16
 72
     1
 10
6.92036969258637
 20
10.01080119246871
 11
6.88230945884201
 21
10.20214290865126
 72
     1
 10
6.88230945884201
 20
10.20214290865126
 11
6.77392308317964
 21
10.36435458306199
 72
     1
 10
6.77392308317964
 20
10.36435458306199
 11
6.61171140876891
 21
10.47274095872436
 72
     1
 10
6.61171140876891
 20
10.47274095872436
 11
6.42036969258637
 21
10.51080119246871
 72
     1
 10
6.42036969258637
 20
10.51080119246871
 11
6.22902797640382
 21
10.47274095872436
 72
     1
 10
6.22902797640382
 20
10.47274095872436
 11
6.06681630199310
 21
10.36435458306199
 72
     1
 10
6.06681630199310
 20
10.36435458306199
 11
5.95842992633073
 21
10.20214290865126
 72
     1
 10
5.95842992633073
 20
10.20214290865126
 11
5.92036969258637
 21
10.01080119246871
 72
     1
 10
5.92036969258637
 20
10.01080119246871
 11
5.95842992633073
 21
9.81945947628617
 72
     1
 10
5.95842992633073
 20
9.81945947628617
 11
6.06681630199310
 21
9.65724780187544
 72
     1
 10
6.06681630199310
 20
9.65724780187544
 11
6.22902797640382
 21
9.54886142621307
 72
     1
 10
6.22902797640382
 20
9.54886142621307
 11
6.42036969258637
 21
9.51080119246871
 72
     1
 10
6.42036969258637
 20
9.51080119246871
 11
6.61171140876892
 21
9.54886142621307
 72
     1
 10
6.61171140876892
 20
9.54886142621307
 11
6.77392308317964
 21
9.65724780187544
 72
     1
 10
6.77392308317964
 20
9.65724780187544
 11
6.88230945884201
 21
9.81945947628617
 72
     1
 10
6.88230945884201
 20
9.81945947628617
 11
6.92036969258637
 21
10.01080119246871
 97
        0
 75
     0
 76
     0
 98
        1
 10
0.00000000000000
 20
0.00000000000000
  0
LWPOLYLINE
  5
2C2
330
2A
100
AcDbEntity
  8
Zeichnung 5
  6
CONTINUOUS
 62
    12
370
    25
100
AcDbPolyline
 90
       17
 70
   128
 10
6.92036969258637
 20
10.01080119246871
 10
6.88230945884201
 20
10.20214290865126
 10
6.77392308317964
 20
10.36435458306199
 10
6.61171140876891
 20
10.47274095872436
 10
6.42036969258637
 20
10.51080119246871
 10
6.22902797640382
 20
10.47274095872436
 10
6.06681630199310
 20
10.36435458306199
 10
5.95842992633073
 20
10.20214290865126
 10
5.92036969258637
 20
10.01080119246871
 10
5.95842992633073
 20
9.81945947628617
 10
6.06681630199310
 20
9.65724780187544
 10
6.22902797640382
 20
9.54886142621307
 10
6.42036969258637
 20
9.51080119246871
 10
6.61171140876892
 20
9.54886142621307
 10
6.77392308317964
 20
9.65724780187544
 10
6.88230945884201
 20
9.81945947628617
 10
6.92036969258637
 20
10.01080119246871
  0
LINE
  5
2C3
330
2A
100
AcDbEntity
  8
Zeichnung 5
  6
CONTINUOUS
 62
    12
370
    25
100
AcDbLine
 10
-58.40000000000041
 20
42.50000000000017
 30
0.00000000000000
 11
-21.00000000000026
 21
42.50000000000016
 31
0.00000000000000
  0
ENDBLK
  5
2C4
330
2A
100
AcDbEntity
  8
0
100
AcDbBlockEnd
  0
BLOCK
  5
2C5
330
2B
100
AcDbEntity
  8
0
100
AcDbBlockBegin
  2
*U20
 70
     1
 10
0.00000000000000
 20
0.00000000000000
 30
0.00000000000000
  3
*U20
  1

  0
MTEXT
  5
2C6
330
2B
100
AcDbEntity
  8
Zeichnung 5
 62
     7
370
    20
100
AcDbMText
 10
-68.01222297822672
 20
-118.69999999999983
 30
0.00000000000000
 40
2.20000000000000
 41
0.00000000000000
 71
     7
 72
     1
  1
\fArial Narrow|b0|i0;Als raumabschließendes Bauteil;
 11
1.00000000000000
 21
0.00000000000000
 31
0.00000000000000
 73
     1
 44
1.00000000000000
  0
MTEXT
  5
2C7
330
2B
100
AcDbEntity
  8
Zeichnung 5
 62
     7
370
    20
100
AcDbMText
 10
-68.01222297822672
 20
-120.29999999999984
 30
0.00000000000000
 40
2.20000000000000
 41
0.00000000000000
 71
     1
 72
     1
  1
\fArial Narrow|b0|i0;Anf. an Feuerwiderstandsdauer\Pabh. von Gebäudeklasse,\Pmind. jedoch feuerhemmend
 11
1.00000000000000
 21
0.00000000000000
 31
0.00000000000000
 73
     1
 44
1.00000000000000
  0
LINE
  5
2C8
330
2B
100
AcDbEntity
  8
Zeichnung 5
  6
CONTINUOUS
 62
    12
370
    25
100
AcDbLine
 10
-27.99999999999937
 20
-105.49999999999987
 30
0.00000000000000
 11
-29.99999999999969
 21
-119.49999999999983
 31
0.00000000000000
  0
HATCH
  5
2C9
330
2B
100
AcDbEntity
  8
Zeichnung 5
 62
    12
100
AcDbHatch
 10
0.00000000000000
 20
0.00000000000000
 30
0.00000000000000
210
0.00000000000000
220
0.00000000000000
230
1.00000000000000
  2
SOLID
 70
     1
 71
     0
 91
        1
 92
        0
 93
       16
 72
     1
 10
-27.49999999999937
 20
-105.49999999999987
 11
-27.53806023374373
 21
-105.30865828381732
 72
     1
 10
-27.53806023374373
 20
-105.30865828381732
 11
-27.64644660940610
 21
-105.14644660940660
 72
     1
 10
-27.64644660940610
 20
-105.14644660940660
 11
-27.80865828381682
 21
-105.03806023374423
 72
     1
 10
-27.80865828381682
 20
-105.03806023374423
 11
-27.99999999999937
 21
-104.99999999999987
 72
     1
 10
-27.99999999999937
 20
-104.99999999999987
 11
-28.19134171618192
 21
-105.03806023374423
 72
     1
 10
-28.19134171618192
 20
-105.03806023374423
 11
-28.35355339059264
 21
-105.14644660940660
 72
     1
 10
-28.35355339059264
 20
-105.14644660940660
 11
-28.46193976625501
 21
-105.30865828381732
 72
     1
 10
-28.46193976625501
 20
-105.30865828381732
 11
-28.49999999999937
 21
-105.49999999999987
 72
     1
 10
-28.49999999999937
 20
-105.49999999999987
 11
-28.46193976625501
 21
-105.69134171618239
 72
     1
 10
-28.46193976625501
 20
-105.69134171618239
 11
-28.35355339059264
 21
-105.85355339059313
 72
     1
 10
-28.35355339059264
 20
-105.85355339059313
 11
-28.19134171618192
 21
-105.96193976625551
 72
     1
 10
-28.19134171618192
 20
-105.96193976625551
 11
-27.99999999999937
 21
-105.99999999999986
 72
     1
 10
-27.99999999999937
 20
-105.99999999999986
 11
-27.80865828381682
 21
-105.96193976625551
 72
     1
 10
-27.80865828381682
 20
-105.96193976625551
 11
-27.64644660940610
 21
-105.85355339059313
 72
     1
 10
-27.64644660940610
 20
-105.85355339059313
 11
-27.53806023374373
 21
-105.69134171618239
 72
     1
 10
-27.53806023374373
 20
-105.69134171618239
 11
-27.49999999999937
 21
-105.49999999999987
 97
        0
 75
     0
 76
     0
 98
        1
 10
0.00000000000000
 20
0.00000000000000
  0
LWPOLYLINE
  5
2CA
330
2B
100
AcDbEntity
  8
Zeichnung 5
  6
CONTINUOUS
 62
    12
370
    25
100
AcDbPolyline
 90
       17
 70
   128
 10
-27.49999999999937
 20
-105.49999999999987
 10
-27.53806023374373
 20
-105.30865828381732
 10
-27.64644660940610
 20
-105.14644660940660
 10
-27.80865828381682
 20
-105.03806023374423
 10
-27.99999999999937
 20
-104.99999999999987
 10
-28.19134171618192
 20
-105.03806023374423
 10
-28.35355339059264
 20
-105.14644660940660
 10
-28.46193976625501
 20
-105.30865828381732
 10
-28.49999999999937
 20
-105.49999999999987
 10
-28.46193976625501
 20
-105.69134171618239
 10
-28.35355339059264
 20
-105.85355339059313
 10
-28.19134171618192
 20
-105.96193976625551
 10
-27.99999999999937
 20
-105.99999999999986
 10
-27.80865828381682
 20
-105.96193976625551
 10
-27.64644660940610
 20
-105.85355339059313
 10
-27.53806023374373
 20
-105.69134171618239
 10
-27.49999999999937
 20
-105.49999999999987
  0
LINE
  5
2CB
330
2B
100
AcDbEntity
  8
Zeichnung 5
  6
CONTINUOUS
 62
    12
370
    25
100
AcDbLine
 10
-69.11222297822671
 20
-119.49999999999983
 30
0.00000000000000
 11
-29.99999999999969
 21
-119.49999999999983
 31
0.00000000000000
  0
ENDBLK
  5
2CC
330
2B
100
AcDbEntity
  8
0
100
AcDbBlockEnd
  0
BLOCK
  5
2CD
330
2C
100
AcDbEntity
  8
0
100
AcDbBlockBegin
  2
*U21
 70
     1
 10
0.00000000000000
 20
0.00000000000000
 30
0.00000000000000
  3
*U21
  1

  0
MTEXT
  5
2CE
330
2C
100
AcDbEntity
  8
Zeichnung 5
 62
     7
370
    30
100
AcDbMText
 10
-68.55685021384100
 20
-104.69999999999986
 30
0.00000000000000
 40
2.80000000000000
 41
0.00000000000000
 71
     7
 72
     1
  1
\fArial Narrow|b0|i0;Wohnungstrennwand
 11
1.00000000000000
 21
0.00000000000000
 31
0.00000000000000
 73
     1
 44
1.00000000000000
  0
MTEXT
  5
2CF
330
2C
100
AcDbEntity
  8
Zeichnung 5
 62
     7
370
    30
100
AcDbMText
 10
-68.55685021384100
 20
-106.29999999999987
 30
0.00000000000000
 40
2.80000000000000
 41
0.00000000000000
 71
     1
 72
     1
  1
\fArial Narrow|b0|i0;z.B. USZ-Schalungsziegel\Pmit Betonverfüllung
 11
1.00000000000000
 21
0.00000000000000
 31
0.00000000000000
 73
     1
 44
1.00000000000000
  0
LINE
  5
2D0
330
2C
100
AcDbEntity
  8
Zeichnung 5
  6
CONTINUOUS
 62
    12
370
    25
100
AcDbLine
 10
-7.96923076923081
 20
-94.05384615384610
 30
0.00000000000000
 11
-27.99999999999937
 21
-105.49999999999987
 31
0.00000000000000
  0
HATCH
  5
2D1
330
2C
100
AcDbEntity
  8
Zeichnung 5
 62
    12
100
AcDbHatch
 10
0.00000000000000
 20
0.00000000000000
 30
0.00000000000000
210
0.00000000000000
220
0.00000000000000
230
1.00000000000000
  2
SOLID
 70
     1
 71
     0
 91
        1
 92
        0
 93
       16
 72
     1
 10
-7.46923076923081
 20
-94.05384615384610
 11
-7.50729100297517
 21
-93.86250443766355
 72
     1
 10
-7.50729100297517
 20
-93.86250443766355
 11
-7.61567737863754
 21
-93.70029276325280
 72
     1
 10
-7.61567737863754
 20
-93.70029276325280
 11
-7.77788905304827
 21
-93.59190638759044
 72
     1
 10
-7.77788905304827
 20
-93.59190638759044
 11
-7.96923076923081
 21
-93.55384615384610
 72
     1
 10
-7.96923076923081
 20
-93.55384615384610
 11
-8.16057248541336
 21
-93.59190638759044
 72
     1
 10
-8.16057248541336
 20
-93.59190638759044
 11
-8.32278415982409
 21
-93.70029276325280
 72
     1
 10
-8.32278415982409
 20
-93.70029276325280
 11
-8.43117053548646
 21
-93.86250443766355
 72
     1
 10
-8.43117053548646
 20
-93.86250443766355
 11
-8.46923076923081
 21
-94.05384615384610
 72
     1
 10
-8.46923076923081
 20
-94.05384615384610
 11
-8.43117053548646
 21
-94.24518787002864
 72
     1
 10
-8.43117053548646
 20
-94.24518787002864
 11
-8.32278415982409
 21
-94.40739954443937
 72
     1
 10
-8.32278415982409
 20
-94.40739954443937
 11
-8.16057248541336
 21
-94.51578592010174
 72
     1
 10
-8.16057248541336
 20
-94.51578592010174
 11
-7.96923076923081
 21
-94.55384615384610
 72
     1
 10
-7.96923076923081
 20
-94.55384615384610
 11
-7.77788905304827
 21
-94.51578592010174
 72
     1
 10
-7.77788905304827
 20
-94.51578592010174
 11
-7.61567737863754
 21
-94.40739954443937
 72
     1
 10
-7.61567737863754
 20
-94.40739954443937
 11
-7.50729100297517
 21
-94.24518787002864
 72
     1
 10
-7.50729100297517
 20
-94.24518787002864
 11
-7.46923076923081
 21
-94.05384615384610
 97
        0
 75
     0
 76
     0
 98
        1
 10
0.00000000000000
 20
0.00000000000000
  0
LWPOLYLINE
  5
2D2
330
2C
100
AcDbEntity
  8
Zeichnung 5
  6
CONTINUOUS
 62
    12
370
    25
100
AcDbPolyline
 90
       17
 70
   128
 10
-7.46923076923081
 20
-94.05384615384610
 10
-7.50729100297517
 20
-93.86250443766355
 10
-7.61567737863754
 20
-93.70029276325280
 10
-7.77788905304827
 20
-93.59190638759044
 10
-7.96923076923081
 20
-93.55384615384610
 10
-8.16057248541336
 20
-93.59190638759044
 10
-8.32278415982409
 20
-93.70029276325280
 10
-8.43117053548646
 20
-93.86250443766355
 10
-8.46923076923081
 20
-94.05384615384610
 10
-8.43117053548646
 20
-94.24518787002864
 10
-8.32278415982409
 20
-94.40739954443937
 10
-8.16057248541336
 20
-94.51578592010174
 10
-7.96923076923081
 20
-94.55384615384610
 10
-7.77788905304827
 20
-94.51578592010174
 10
-7.61567737863754
 20
-94.40739954443937
 10
-7.50729100297517
 20
-94.24518787002864
 10
-7.46923076923081
 20
-94.05384615384610
  0
LINE
  5
2D3
330
2C
100
AcDbEntity
  8
Zeichnung 5
  6
CONTINUOUS
 62
    12
370
    25
100
AcDbLine
 10
-69.95685021384099
 20
-105.49999999999987
 30
0.00000000000000
 11
-27.99999999999937
 21
-105.49999999999987
 31
0.00000000000000
  0
ENDBLK
  5
2D4
330
2C
100
AcDbEntity
  8
0
100
AcDbBlockEnd
  0
BLOCK
  5
2D5
330
2D
100
AcDbEntity
  8
0
100
AcDbBlockBegin
  2
*U22
 70
     1
 10
0.00000000000000
 20
0.00000000000000
 30
0.00000000000000
  3
*U22
  1

  0
MTEXT
  5
2D6
330
2D
100
AcDbEntity
  8
Zeichnung 5
 62
     7
370
    30
100
AcDbMText
 10
49.24999999999999
 20
-69.20000000000002
 30
0.00000000000000
 40
2.80000000000000
 41
0.00000000000000
 71
     7
 72
     1
  1
\fArial Narrow|b0|i0;Dampfsperre (diffusionsdicht);
 11
1.00000000000000
 21
0.00000000000000
 31
0.00000000000000
 73
     1
 44
1.00000000000000
  0
MTEXT
  5
2D7
330
2D
100
AcDbEntity
  8
Zeichnung 5
 62
     7
370
    30
100
AcDbMText
 10
49.24999999999999
 20
-70.80000000000001
 30
0.00000000000000
 40
2.80000000000000
 41
0.00000000000000
 71
     1
 72
     1
  1
\fArial Narrow|b0|i0;dicht verklebt mit Putz-\Panschlussband
 11
1.00000000000000
 21
0.00000000000000
 31
0.00000000000000
 73
     1
 44
1.00000000000000
  0
LINE
  5
2D8
330
2D
100
AcDbEntity
  8
Zeichnung 5
  6
CONTINUOUS
 62
    12
370
    25
100
AcDbLine
 10
41.58909075774828
 20
-56.00499736683234
 30
0.00000000000000
 11
47.99999999999999
 21
-70.00000000000000
 31
0.00000000000000
  0
HATCH
  5
2D9
330
2D
100
AcDbEntity
  8
Zeichnung 5
 62
    12
100
AcDbHatch
 10
0.00000000000000
 20
0.00000000000000
 30
0.00000000000000
210
0.00000000000000
220
0.00000000000000
230
1.00000000000000
  2
SOLID
 70
     1
 71
     0
 91
        1
 92
        0
 93
       16
 72
     1
 10
42.08909075774828
 20
-56.00499736683234
 11
42.05103052400393
 21
-55.81365565064980
 72
     1
 10
42.05103052400393
 20
-55.81365565064980
 11
41.94264414834156
 21
-55.65144397623907
 72
     1
 10
41.94264414834156
 20
-55.65144397623907
 11
41.78043247393083
 21
-55.54305760057670
 72
     1
 10
41.78043247393083
 20
-55.54305760057670
 11
41.58909075774828
 21
-55.50499736683234
 72
     1
 10
41.58909075774828
 20
-55.50499736683234
 11
41.39774904156573
 21
-55.54305760057670
 72
     1
 10
41.39774904156573
 20
-55.54305760057670
 11
41.23553736715501
 21
-55.65144397623907
 72
     1
 10
41.23553736715501
 20
-55.65144397623907
 11
41.12715099149264
 21
-55.81365565064980
 72
     1
 10
41.12715099149264
 20
-55.81365565064980
 11
41.08909075774828
 21
-56.00499736683234
 72
     1
 10
41.08909075774828
 20
-56.00499736683234
 11
41.12715099149264
 21
-56.19633908301489
 72
     1
 10
41.12715099149264
 20
-56.19633908301489
 11
41.23553736715501
 21
-56.35855075742562
 72
     1
 10
41.23553736715501
 20
-56.35855075742562
 11
41.39774904156573
 21
-56.46693713308800
 72
     1
 10
41.39774904156573
 20
-56.46693713308800
 11
41.58909075774828
 21
-56.50499736683234
 72
     1
 10
41.58909075774828
 20
-56.50499736683234
 11
41.78043247393083
 21
-56.46693713308800
 72
     1
 10
41.78043247393083
 20
-56.46693713308800
 11
41.94264414834156
 21
-56.35855075742562
 72
     1
 10
41.94264414834156
 20
-56.35855075742562
 11
42.05103052400393
 21
-56.19633908301489
 72
     1
 10
42.05103052400393
 20
-56.19633908301489
 11
42.08909075774828
 21
-56.00499736683234
 97
        0
 75
     0
 76
     0
 98
        1
 10
0.00000000000000
 20
0.00000000000000
  0
LWPOLYLINE
  5
2DA
330
2D
100
AcDbEntity
  8
Zeichnung 5
  6
CONTINUOUS
 62
    12
370
    25
100
AcDbPolyline
 90
       17
 70
   128
 10
42.08909075774828
 20
-56.00499736683234
 10
42.05103052400393
 20
-55.81365565064980
 10
41.94264414834156
 20
-55.65144397623907
 10
41.78043247393083
 20
-55.54305760057670
 10
41.58909075774828
 20
-55.50499736683234
 10
41.39774904156573
 20
-55.54305760057670
 10
41.23553736715501
 20
-55.65144397623907
 10
41.12715099149264
 20
-55.81365565064980
 10
41.08909075774828
 20
-56.00499736683234
 10
41.12715099149264
 20
-56.19633908301489
 10
41.23553736715501
 20
-56.35855075742562
 10
41.39774904156573
 20
-56.46693713308800
 10
41.58909075774828
 20
-56.50499736683234
 10
41.78043247393083
 20
-56.46693713308800
 10
41.94264414834156
 20
-56.35855075742562
 10
42.05103052400393
 20
-56.19633908301489
 10
42.08909075774828
 20
-56.00499736683234
  0
LINE
  5
2DB
330
2D
100
AcDbEntity
  8
Zeichnung 5
  6
CONTINUOUS
 62
    12
370
    25
100
AcDbLine
 10
47.99999999999999
 20
-70.00000000000000
 30
0.00000000000000
 11
92.63307494167961
 21
-70.00000000000000
 31
0.00000000000000
  0
ENDBLK
  5
2DC
330
2D
100
AcDbEntity
  8
0
100
AcDbBlockEnd
  0
BLOCK
  5
2DD
330
2E
100
AcDbEntity
  8
0
100
AcDbBlockBegin
  2
*U23
 70
     1
 10
0.00000000000000
 20
0.00000000000000
 30
0.00000000000000
  3
*U23
  1

  0
LINE
  5
2DE
330
2E
100
AcDbEntity
  8
Zeichnung 5
  6
DC_VERDECKT
 62
     5
 48
0.28571428571429
370
    35
100
AcDbLine
 10
32.99999999999981
 20
-79.49999999999960
 30
0.00000000000000
 11
32.99999999999985
 21
-61.00000000000000
 31
0.00000000000000
  0
LINE
  5
2DF
330
2E
100
AcDbEntity
  8
Zeichnung 5
  6
CONTINUOUS
 62
     5
370
    18
100
AcDbLine
 10
32.59999999999985
 20
-68.49999999999960
 30
0.00000000000000
 11
32.59999999999985
 21
-60.69999999999964
 31
0.00000000000000
  0
LINE
  5
2E0
330
2E
100
AcDbEntity
  8
Zeichnung 5
  6
CONTINUOUS
 62
     5
370
    18
100
AcDbLine
 10
32.59999999999983
 20
-60.69999999999964
 30
0.00000000000000
 11
33.44999999999996
 21
-59.84999999999951
 31
0.00000000000000
  0
LINE
  5
2E1
330
2E
100
AcDbEntity
  8
Zeichnung 5
  6
CONTINUOUS
 62
     5
370
    18
100
AcDbLine
 10
33.44999999999996
 20
-59.84999999999951
 30
0.00000000000000
 11
33.44999999999998
 21
-54.89999999999964
 31
0.00000000000000
  0
LINE
  5
2E2
330
2E
100
AcDbEntity
  8
Zeichnung 5
  6
CONTINUOUS
 62
     5
370
    18
100
AcDbLine
 10
33.25000000000000
 20
-54.89999999999962
 30
0.00000000000000
 11
33.24999999999998
 21
-59.76715728752487
 31
0.00000000000000
  0
LINE
  5
2E3
330
2E
100
AcDbEntity
  8
Zeichnung 5
  6
CONTINUOUS
 62
     5
370
    18
100
AcDbLine
 10
32.39999999999983
 20
-60.61715728752508
 30
0.00000000000000
 11
33.24999999999998
 21
-59.76715728752487
 31
0.00000000000000
  0
LINE
  5
2E4
330
2E
100
AcDbEntity
  8
Zeichnung 5
  6
CONTINUOUS
 62
     5
370
    18
100
AcDbLine
 10
32.39999999999983
 20
-68.49999999999960
 30
0.00000000000000
 11
32.39999999999983
 21
-60.61715728752508
 31
0.00000000000000
  0
LINE
  5
2E5
330
2E
100
AcDbEntity
  8
Zeichnung 5
  6
CONTINUOUS
 62
     5
370
    18
100
AcDbLine
 10
32.59999999999983
 20
-68.49999999999960
 30
0.00000000000000
 11
32.39999999999983
 21
-68.49999999999960
 31
0.00000000000000
  0
LINE
  5
2E6
330
2E
100
AcDbEntity
  8
Zeichnung 5
  6
CONTINUOUS
 62
     5
370
    18
100
AcDbLine
 10
33.44999999999996
 20
-54.89999999999962
 30
0.00000000000000
 11
33.24999999999998
 21
-54.89999999999962
 31
0.00000000000000
  0
ENDBLK
  5
2E7
330
2E
100
AcDbEntity
  8
0
100
AcDbBlockEnd
  0
BLOCK
  5
2E8
330
2F
100
AcDbEntity
  8
0
100
AcDbBlockBegin
  2
*U24
 70
     1
 10
0.00000000000000
 20
0.00000000000000
 30
0.00000000000000
  3
*U24
  1

  0
MTEXT
  5
2E9
330
2F
100
AcDbEntity
  8
Zeichnung 5
 62
     7
370
    30
100
AcDbMText
 10
38.77869103635511
 20
-103.20000000000002
 30
0.00000000000000
 40
2.80000000000000
 41
0.00000000000000
 71
     7
 72
     1
  1
\fArial Narrow|b0|i0;Putzanschlussband (z.B. Contega PV)
 11
1.00000000000000
 21
0.00000000000000
 31
0.00000000000000
 73
     1
 44
1.00000000000000
  0
MTEXT
  5
2EA
330
2F
100
AcDbEntity
  8
Zeichnung 5
 62
     7
370
    30
100
AcDbMText
 10
38.77869103635511
 20
-104.80000000000000
 30
0.00000000000000
 40
2.80000000000000
 41
0.00000000000000
 71
     1
 72
     1
  1
\fArial Narrow|b0|i0;mit Anschlusskleber gem. Hersteller-\Pangabe auf Mauerwerk fixiert und in\PInnenputz eingearbeitet
 11
1.00000000000000
 21
0.00000000000000
 31
0.00000000000000
 73
     1
 44
1.00000000000000
  0
LINE
  5
2EB
330
2F
100
AcDbEntity
  8
Zeichnung 5
  6
CONTINUOUS
 62
    12
370
    25
100
AcDbLine
 10
32.99999999999999
 20
-72.00000000000000
 30
0.00000000000000
 11
37.99999999999998
 21
-104.00000000000000
 31
0.00000000000000
  0
HATCH
  5
2EC
330
2F
100
AcDbEntity
  8
Zeichnung 5
 62
    12
100
AcDbHatch
 10
0.00000000000000
 20
0.00000000000000
 30
0.00000000000000
210
0.00000000000000
220
0.00000000000000
230
1.00000000000000
  2
SOLID
 70
     1
 71
     0
 91
        1
 92
        0
 93
       16
 72
     1
 10
33.49999999999999
 20
-72.00000000000000
 11
33.46193976625563
 21
-71.80865828381744
 72
     1
 10
33.46193976625563
 20
-71.80865828381744
 11
33.35355339059327
 21
-71.64644660940671
 72
     1
 10
33.35355339059327
 20
-71.64644660940671
 11
33.19134171618254
 21
-71.53806023374435
 72
     1
 10
33.19134171618254
 20
-71.53806023374435
 11
32.99999999999999
 21
-71.49999999999999
 72
     1
 10
32.99999999999999
 20
-71.49999999999999
 11
32.80865828381744
 21
-71.53806023374435
 72
     1
 10
32.80865828381744
 20
-71.53806023374435
 11
32.64644660940672
 21
-71.64644660940671
 72
     1
 10
32.64644660940672
 20
-71.64644660940671
 11
32.53806023374435
 21
-71.80865828381744
 72
     1
 10
32.53806023374435
 20
-71.80865828381744
 11
32.49999999999999
 21
-72.00000000000000
 72
     1
 10
32.49999999999999
 20
-72.00000000000000
 11
32.53806023374435
 21
-72.19134171618254
 72
     1
 10
32.53806023374435
 20
-72.19134171618254
 11
32.64644660940672
 21
-72.35355339059326
 72
     1
 10
32.64644660940672
 20
-72.35355339059326
 11
32.80865828381744
 21
-72.46193976625563
 72
     1
 10
32.80865828381744
 20
-72.46193976625563
 11
32.99999999999999
 21
-72.50000000000000
 72
     1
 10
32.99999999999999
 20
-72.50000000000000
 11
33.19134171618254
 21
-72.46193976625563
 72
     1
 10
33.19134171618254
 20
-72.46193976625563
 11
33.35355339059327
 21
-72.35355339059326
 72
     1
 10
33.35355339059327
 20
-72.35355339059326
 11
33.46193976625563
 21
-72.19134171618254
 72
     1
 10
33.46193976625563
 20
-72.19134171618254
 11
33.49999999999999
 21
-72.00000000000000
 97
        0
 75
     0
 76
     0
 98
        1
 10
0.00000000000000
 20
0.00000000000000
  0
LWPOLYLINE
  5
2ED
330
2F
100
AcDbEntity
  8
Zeichnung 5
  6
CONTINUOUS
 62
    12
370
    25
100
AcDbPolyline
 90
       17
 70
   128
 10
33.49999999999999
 20
-72.00000000000000
 10
33.46193976625563
 20
-71.80865828381744
 10
33.35355339059327
 20
-71.64644660940671
 10
33.19134171618254
 20
-71.53806023374435
 10
32.99999999999999
 20
-71.49999999999999
 10
32.80865828381744
 20
-71.53806023374435
 10
32.64644660940672
 20
-71.64644660940671
 10
32.53806023374435
 20
-71.80865828381744
 10
32.49999999999999
 20
-72.00000000000000
 10
32.53806023374435
 20
-72.19134171618254
 10
32.64644660940672
 20
-72.35355339059326
 10
32.80865828381744
 20
-72.46193976625563
 10
32.99999999999999
 20
-72.50000000000000
 10
33.19134171618254
 20
-72.46193976625563
 10
33.35355339059327
 20
-72.35355339059326
 10
33.46193976625563
 20
-72.19134171618254
 10
33.49999999999999
 20
-72.00000000000000
  0
LINE
  5
2EE
330
2F
100
AcDbEntity
  8
Zeichnung 5
  6
CONTINUOUS
 62
    12
370
    25
100
AcDbLine
 10
37.99999999999998
 20
-104.00000000000000
 30
0.00000000000000
 11
93.71162989716380
 21
-104.00000000000000
 31
0.00000000000000
  0
ENDBLK
  5
2EF
330
2F
100
AcDbEntity
  8
0
100
AcDbBlockEnd
  0
BLOCK
  5
2F0
330
30
100
AcDbEntity
  8
0
100
AcDbBlockBegin
  2
*U25
 70
     1
 10
0.00000000000000
 20
0.00000000000000
 30
0.00000000000000
  3
*U25
  1

  0
MTEXT
  5
2F1
330
30
100
AcDbEntity
  8
Zeichnung 5
 62
     7
370
    30
100
AcDbMText
 10
42.77869103635512
 20
-83.19999999999999
 30
0.00000000000000
 40
2.80000000000000
 41
0.00000000000000
 71
     7
 72
     1
  1
\fArial Narrow|b0|i0;Dauerelastische Fuge
 11
1.00000000000000
 21
0.00000000000000
 31
0.00000000000000
 73
     1
 44
1.00000000000000
  0
LINE
  5
2F2
330
30
100
AcDbEntity
  8
Zeichnung 5
  6
CONTINUOUS
 62
    12
370
    25
100
AcDbLine
 10
35.39999999999999
 20
-63.40000000000000
 30
0.00000000000000
 11
41.99999999999999
 21
-84.00000000000000
 31
0.00000000000000
  0
HATCH
  5
2F3
330
30
100
AcDbEntity
  8
Zeichnung 5
 62
    12
100
AcDbHatch
 10
0.00000000000000
 20
0.00000000000000
 30
0.00000000000000
210
0.00000000000000
220
0.00000000000000
230
1.00000000000000
  2
SOLID
 70
     1
 71
     0
 91
        1
 92
        0
 93
       16
 72
     1
 10
35.89999999999999
 20
-63.40000000000000
 11
35.86193976625564
 21
-63.20865828381744
 72
     1
 10
35.86193976625564
 20
-63.20865828381744
 11
35.75355339059327
 21
-63.04644660940671
 72
     1
 10
35.75355339059327
 20
-63.04644660940671
 11
35.59134171618254
 21
-62.93806023374435
 72
     1
 10
35.59134171618254
 20
-62.93806023374435
 11
35.39999999999999
 21
-62.90000000000000
 72
     1
 10
35.39999999999999
 20
-62.90000000000000
 11
35.20865828381744
 21
-62.93806023374435
 72
     1
 10
35.20865828381744
 20
-62.93806023374435
 11
35.04644660940672
 21
-63.04644660940671
 72
     1
 10
35.04644660940672
 20
-63.04644660940671
 11
34.93806023374435
 21
-63.20865828381744
 72
     1
 10
34.93806023374435
 20
-63.20865828381744
 11
34.89999999999999
 21
-63.40000000000000
 72
     1
 10
34.89999999999999
 20
-63.40000000000000
 11
34.93806023374435
 21
-63.59134171618254
 72
     1
 10
34.93806023374435
 20
-63.59134171618254
 11
35.04644660940672
 21
-63.75355339059327
 72
     1
 10
35.04644660940672
 20
-63.75355339059327
 11
35.20865828381744
 21
-63.86193976625563
 72
     1
 10
35.20865828381744
 20
-63.86193976625563
 11
35.39999999999999
 21
-63.90000000000000
 72
     1
 10
35.39999999999999
 20
-63.90000000000000
 11
35.59134171618254
 21
-63.86193976625563
 72
     1
 10
35.59134171618254
 20
-63.86193976625563
 11
35.75355339059327
 21
-63.75355339059327
 72
     1
 10
35.75355339059327
 20
-63.75355339059327
 11
35.86193976625564
 21
-63.59134171618254
 72
     1
 10
35.86193976625564
 20
-63.59134171618254
 11
35.89999999999999
 21
-63.40000000000000
 97
        0
 75
     0
 76
     0
 98
        1
 10
0.00000000000000
 20
0.00000000000000
  0
LWPOLYLINE
  5
2F4
330
30
100
AcDbEntity
  8
Zeichnung 5
  6
CONTINUOUS
 62
    12
370
    25
100
AcDbPolyline
 90
       17
 70
   128
 10
35.89999999999999
 20
-63.40000000000000
 10
35.86193976625564
 20
-63.20865828381744
 10
35.75355339059327
 20
-63.04644660940671
 10
35.59134171618254
 20
-62.93806023374435
 10
35.39999999999999
 20
-62.90000000000000
 10
35.20865828381744
 20
-62.93806023374435
 10
35.04644660940672
 20
-63.04644660940671
 10
34.93806023374435
 20
-63.20865828381744
 10
34.89999999999999
 20
-63.40000000000000
 10
34.93806023374435
 20
-63.59134171618254
 10
35.04644660940672
 20
-63.75355339059327
 10
35.20865828381744
 20
-63.86193976625563
 10
35.39999999999999
 20
-63.90000000000000
 10
35.59134171618254
 20
-63.86193976625563
 10
35.75355339059327
 20
-63.75355339059327
 10
35.86193976625564
 20
-63.59134171618254
 10
35.89999999999999
 20
-63.40000000000000
  0
LINE
  5
2F5
330
30
100
AcDbEntity
  8
Zeichnung 5
  6
CONTINUOUS
 62
    12
370
    25
100
AcDbLine
 10
41.99999999999999
 20
-84.00000000000000
 30
0.00000000000000
 11
74.79050820198498
 21
-84.00000000000000
 31
0.00000000000000
  0
ENDBLK
  5
2F6
330
30
100
AcDbEntity
  8
0
100
AcDbBlockEnd
  0
BLOCK
  5
2F7
330
31
100
AcDbEntity
  8
0
100
AcDbBlockBegin
  2
*U26
 70
     1
 10
0.00000000000000
 20
0.00000000000000
 30
0.00000000000000
  3
*U26
  1

  0
ARC
  5
2F8
330
31
100
AcDbEntity
  8
Zeichnung 5
  6
CONTINUOUS
 62
     7
370
    18
100
AcDbCircle
 10
49.25000000000006
 20
-3.49999999999930
 30
0.00000000000000
 40
3.24999999999998
100
AcDbArc
 50
256.69379378368262
 51
0.00000000000000
  0
LINE
  5
2F9
330
31
100
AcDbEntity
  8
Zeichnung 5
  6
CONTINUOUS
 62
     7
370
    18
100
AcDbLine
 10
48.50199576408636
 20
-6.66275033207660
 30
0.00000000000000
 11
35.49800423591364
 21
-3.58724966792198
 31
0.00000000000000
  0
ARC
  5
2FA
330
31
100
AcDbEntity
  8
Zeichnung 5
  6
CONTINUOUS
 62
     7
370
    18
100
AcDbCircle
 10
34.74999999999995
 20
-6.74999999999928
 30
0.00000000000000
 40
3.24999999999998
100
AcDbArc
 50
76.69379378368264
 51
283.30620621631726
  0
LINE
  5
2FB
330
31
100
AcDbEntity
  8
Zeichnung 5
  6
CONTINUOUS
 62
     7
370
    18
100
AcDbLine
 10
35.49800423591364
 20
-9.91275033207658
 30
0.00000000000000
 11
48.50199576408637
 21
-6.83724966792197
 31
0.00000000000000
  0
ARC
  5
2FC
330
31
100
AcDbEntity
  8
Zeichnung 5
  6
CONTINUOUS
 62
     7
370
    18
100
AcDbCircle
 10
49.25000000000006
 20
-9.99999999999927
 30
0.00000000000000
 40
3.24999999999998
100
AcDbArc
 50
256.69379378368262
 51
103.30620621631726
  0
LINE
  5
2FD
330
31
100
AcDbEntity
  8
Zeichnung 5
  6
CONTINUOUS
 62
     7
370
    18
100
AcDbLine
 10
48.50199576408636
 20
-13.16275033207657
 30
0.00000000000000
 11
35.49800423591364
 21
-10.08724966792195
 31
0.00000000000000
  0
ARC
  5
2FE
330
31
100
AcDbEntity
  8
Zeichnung 5
  6
CONTINUOUS
 62
     7
370
    18
100
AcDbCircle
 10
34.74999999999995
 20
-13.24999999999925
 30
0.00000000000000
 40
3.24999999999998
100
AcDbArc
 50
76.69379378368264
 51
283.30620621631726
  0
LINE
  5
2FF
330
31
100
AcDbEntity
  8
Zeichnung 5
  6
CONTINUOUS
 62
     7
370
    18
100
AcDbLine
 10
35.49800423591364
 20
-16.41275033207655
 30
0.00000000000000
 11
48.50199576408635
 21
-13.33724966792194
 31
0.00000000000000
  0
ARC
  5
300
330
31
100
AcDbEntity
  8
Zeichnung 5
  6
CONTINUOUS
 62
     7
370
    18
100
AcDbCircle
 10
49.25000000000005
 20
-16.49999999999923
 30
0.00000000000000
 40
3.24999999999998
100
AcDbArc
 50
256.69379378368274
 51
103.30620621631735
  0
LINE
  5
301
330
31
100
AcDbEntity
  8
Zeichnung 5
  6
CONTINUOUS
 62
     7
370
    18
100
AcDbLine
 10
48.50199576408636
 20
-19.66275033207653
 30
0.00000000000000
 11
35.49800423591364
 21
-16.58724966792192
 31
0.00000000000000
  0
ARC
  5
302
330
31
100
AcDbEntity
  8
Zeichnung 5
  6
CONTINUOUS
 62
     7
370
    18
100
AcDbCircle
 10
34.74999999999994
 20
-19.74999999999922
 30
0.00000000000000
 40
3.24999999999998
100
AcDbArc
 50
76.69379378368264
 51
283.30620621631726
  0
LINE
  5
303
330
31
100
AcDbEntity
  8
Zeichnung 5
  6
CONTINUOUS
 62
     7
370
    18
100
AcDbLine
 10
35.49800423591363
 20
-22.91275033207651
 30
0.00000000000000
 11
48.50199576408636
 21
-19.83724966792190
 31
0.00000000000000
  0
ARC
  5
304
330
31
100
AcDbEntity
  8
Zeichnung 5
  6
CONTINUOUS
 62
     7
370
    18
100
AcDbCircle
 10
49.25000000000005
 20
-22.99999999999920
 30
0.00000000000000
 40
3.24999999999998
100
AcDbArc
 50
256.69379378368274
 51
103.30620621631726
  0
LINE
  5
305
330
31
100
AcDbEntity
  8
Zeichnung 5
  6
CONTINUOUS
 62
     7
370
    18
100
AcDbLine
 10
48.50199576408636
 20
-26.16275033207650
 30
0.00000000000000
 11
35.49800423591364
 21
-23.08724966792189
 31
0.00000000000000
  0
ARC
  5
306
330
31
100
AcDbEntity
  8
Zeichnung 5
  6
CONTINUOUS
 62
     7
370
    18
100
AcDbCircle
 10
34.74999999999994
 20
-26.24999999999918
 30
0.00000000000000
 40
3.24999999999998
100
AcDbArc
 50
76.69379378368264
 51
283.30620621631726
  0
LINE
  5
307
330
31
100
AcDbEntity
  8
Zeichnung 5
  6
CONTINUOUS
 62
     7
370
    18
100
AcDbLine
 10
35.49800423591363
 20
-29.41275033207648
 30
0.00000000000000
 11
48.50199576408636
 21
-26.33724966792186
 31
0.00000000000000
  0
ARC
  5
308
330
31
100
AcDbEntity
  8
Zeichnung 5
  6
CONTINUOUS
 62
     7
370
    18
100
AcDbCircle
 10
49.25000000000005
 20
-29.49999999999917
 30
0.00000000000000
 40
3.24999999999998
100
AcDbArc
 50
256.69379378368274
 51
103.30620621631726
  0
LINE
  5
309
330
31
100
AcDbEntity
  8
Zeichnung 5
  6
CONTINUOUS
 62
     7
370
    18
100
AcDbLine
 10
48.50199576408636
 20
-32.66275033207647
 30
0.00000000000000
 11
35.49800423591362
 21
-29.58724966792185
 31
0.00000000000000
  0
ARC
  5
30A
330
31
100
AcDbEntity
  8
Zeichnung 5
  6
CONTINUOUS
 62
     7
370
    18
100
AcDbCircle
 10
34.74999999999994
 20
-32.74999999999914
 30
0.00000000000000
 40
3.24999999999998
100
AcDbArc
 50
76.69379378368274
 51
283.30620621631726
  0
LINE
  5
30B
330
31
100
AcDbEntity
  8
Zeichnung 5
  6
CONTINUOUS
 62
     7
370
    18
100
AcDbLine
 10
35.49800423591362
 20
-35.91275033207644
 30
0.00000000000000
 11
48.50199576408636
 21
-32.83724966792183
 31
0.00000000000000
  0
ARC
  5
30C
330
31
100
AcDbEntity
  8
Zeichnung 5
  6
CONTINUOUS
 62
     7
370
    18
100
AcDbCircle
 10
49.25000000000005
 20
-35.99999999999913
 30
0.00000000000000
 40
3.24999999999998
100
AcDbArc
 50
256.69379378368274
 51
103.30620621631726
  0
LINE
  5
30D
330
31
100
AcDbEntity
  8
Zeichnung 5
  6
CONTINUOUS
 62
     7
370
    18
100
AcDbLine
 10
48.50199576408636
 20
-39.16275033207644
 30
0.00000000000000
 11
35.49800423591362
 21
-36.08724966792181
 31
0.00000000000000
  0
ARC
  5
30E
330
31
100
AcDbEntity
  8
Zeichnung 5
  6
CONTINUOUS
 62
     7
370
    18
100
AcDbCircle
 10
34.74999999999994
 20
-39.24999999999911
 30
0.00000000000000
 40
3.24999999999998
100
AcDbArc
 50
76.69379378368274
 51
283.30620621631726
  0
LINE
  5
30F
330
31
100
AcDbEntity
  8
Zeichnung 5
  6
CONTINUOUS
 62
     7
370
    18
100
AcDbLine
 10
35.49800423591362
 20
-42.41275033207641
 30
0.00000000000000
 11
48.50199576408636
 21
-39.33724966792179
 31
0.00000000000000
  0
ARC
  5
310
330
31
100
AcDbEntity
  8
Zeichnung 5
  6
CONTINUOUS
 62
     7
370
    18
100
AcDbCircle
 10
49.25000000000005
 20
-42.49999999999909
 30
0.00000000000000
 40
3.24999999999998
100
AcDbArc
 50
256.69379378368274
 51
103.30620621631726
  0
LINE
  5
311
330
31
100
AcDbEntity
  8
Zeichnung 5
  6
CONTINUOUS
 62
     7
370
    18
100
AcDbLine
 10
48.50199576408636
 20
-45.66275033207639
 30
0.00000000000000
 11
35.49800423591361
 21
-42.58724966792178
 31
0.00000000000000
  0
ARC
  5
312
330
31
100
AcDbEntity
  8
Zeichnung 5
  6
CONTINUOUS
 62
     7
370
    18
100
AcDbCircle
 10
34.74999999999993
 20
-45.74999999999907
 30
0.00000000000000
 40
3.24999999999998
100
AcDbArc
 50
76.69379378368274
 51
283.30620621631726
  0
LINE
  5
313
330
31
100
AcDbEntity
  8
Zeichnung 5
  6
CONTINUOUS
 62
     7
370
    18
100
AcDbLine
 10
35.49800423591361
 20
-48.91275033207637
 30
0.00000000000000
 11
48.50199576408635
 21
-45.83724966792176
 31
0.00000000000000
  0
ARC
  5
314
330
31
100
AcDbEntity
  8
Zeichnung 5
  6
CONTINUOUS
 62
     7
370
    18
100
AcDbCircle
 10
49.25000000000004
 20
-48.99999999999906
 30
0.00000000000000
 40
3.24999999999998
100
AcDbArc
 50
256.69379378368262
 51
103.30620621631726
  0
LINE
  5
315
330
31
100
AcDbEntity
  8
Zeichnung 5
  6
CONTINUOUS
 62
     7
370
    18
100
AcDbLine
 10
48.50199576408635
 20
-52.16275033207636
 30
0.00000000000000
 11
35.49800423591361
 21
-49.08724966792175
 31
0.00000000000000
  0
ARC
  5
316
330
31
100
AcDbEntity
  8
Zeichnung 5
  6
CONTINUOUS
 62
     7
370
    18
100
AcDbCircle
 10
34.74999999999993
 20
-52.24999999999905
 30
0.00000000000000
 40
3.24999999999998
100
AcDbArc
 50
76.69379378368274
 51
225.00000000000014
  0
LINE
  5
317
330
31
100
AcDbEntity
  8
Zeichnung 5
  6
CONTINUOUS
 62
     7
370
    18
100
AcDbLine
 10
37.76549271168666
 20
-54.87647942647826
 30
0.00000000000000
 11
48.50199576408635
 21
-52.33724966792173
 31
0.00000000000000
  0
ARC
  5
318
330
31
100
AcDbEntity
  8
Zeichnung 5
  6
CONTINUOUS
 62
     7
370
    18
100
AcDbCircle
 10
49.25000000000004
 20
-55.49999999999903
 30
0.00000000000000
 40
3.24999999999998
100
AcDbArc
 50
0.00000000000000
 51
103.30620621631726
  0
ENDBLK
  5
319
330
31
100
AcDbEntity
  8
0
100
AcDbBlockEnd
  0
BLOCK
  5
31A
330
32
100
AcDbEntity
  8
0
100
AcDbBlockBegin
  2
*U27
 70
     1
 10
0.00000000000000
 20
0.00000000000000
 30
0.00000000000000
  3
*U27
  1

  0
LINE
  5
31B
330
32
100
AcDbEntity
  8
Zeichnung 5
  6
DC_VERDECKT
 62
     5
 48
0.28571428571429
370
    35
100
AcDbLine
 10
-17.99999999999980
 20
-61.00000000000000
 30
0.00000000000000
 11
-17.99999999999976
 21
-79.49999999999960
 31
0.00000000000000
  0
LINE
  5
31C
330
32
100
AcDbEntity
  8
Zeichnung 5
  6
CONTINUOUS
 62
     5
370
    18
100
AcDbLine
 10
-17.59999999999980
 20
-60.69999999999964
 30
0.00000000000000
 11
-17.59999999999980
 21
-68.49999999999960
 31
0.00000000000000
  0
LINE
  5
31D
330
32
100
AcDbEntity
  8
Zeichnung 5
  6
CONTINUOUS
 62
     5
370
    18
100
AcDbLine
 10
-18.44999999999991
 20
-59.84999999999951
 30
0.00000000000000
 11
-17.59999999999978
 21
-60.69999999999964
 31
0.00000000000000
  0
LINE
  5
31E
330
32
100
AcDbEntity
  8
Zeichnung 5
  6
CONTINUOUS
 62
     5
370
    18
100
AcDbLine
 10
-18.44999999999993
 20
-54.89999999999964
 30
0.00000000000000
 11
-18.44999999999991
 21
-59.84999999999951
 31
0.00000000000000
  0
LINE
  5
31F
330
32
100
AcDbEntity
  8
Zeichnung 5
  6
CONTINUOUS
 62
     5
370
    18
100
AcDbLine
 10
-18.24999999999993
 20
-59.76715728752487
 30
0.00000000000000
 11
-18.24999999999995
 21
-54.89999999999962
 31
0.00000000000000
  0
LINE
  5
320
330
32
100
AcDbEntity
  8
Zeichnung 5
  6
CONTINUOUS
 62
     5
370
    18
100
AcDbLine
 10
-18.24999999999993
 20
-59.76715728752487
 30
0.00000000000000
 11
-17.39999999999978
 21
-60.61715728752508
 31
0.00000000000000
  0
LINE
  5
321
330
32
100
AcDbEntity
  8
Zeichnung 5
  6
CONTINUOUS
 62
     5
370
    18
100
AcDbLine
 10
-17.39999999999978
 20
-60.61715728752508
 30
0.00000000000000
 11
-17.39999999999978
 21
-68.49999999999960
 31
0.00000000000000
  0
LINE
  5
322
330
32
100
AcDbEntity
  8
Zeichnung 5
  6
CONTINUOUS
 62
     5
370
    18
100
AcDbLine
 10
-17.39999999999978
 20
-68.49999999999960
 30
0.00000000000000
 11
-17.59999999999978
 21
-68.49999999999960
 31
0.00000000000000
  0
LINE
  5
323
330
32
100
AcDbEntity
  8
Zeichnung 5
  6
CONTINUOUS
 62
     5
370
    18
100
AcDbLine
 10
-18.24999999999993
 20
-54.89999999999962
 30
0.00000000000000
 11
-18.44999999999991
 21
-54.89999999999962
 31
0.00000000000000
  0
ENDBLK
  5
324
330
32
100
AcDbEntity
  8
0
100
AcDbBlockEnd
  0
BLOCK
  5
325
330
33
100
AcDbEntity
  8
0
100
AcDbBlockBegin
  2
*U28
 70
     1
 10
0.00000000000000
 20
0.00000000000000
 30
0.00000000000000
  3
*U28
  1

  0
MTEXT
  5
326
330
33
100
AcDbEntity
  8
Zeichnung 5
 62
     7
370
    30
100
AcDbMText
 10
-73.64074650077723
 20
-73.49462464300271
 30
0.00000000000000
 40
2.80000000000000
 41
0.00000000000000
 71
     7
 72
     1
  1
\fArial Narrow|b0|i0;Oberer Wandabschluss
 11
1.00000000000000
 21
0.00000000000000
 31
0.00000000000000
 73
     1
 44
1.00000000000000
  0
MTEXT
  5
327
330
33
100
AcDbEntity
  8
Zeichnung 5
 62
     7
370
    30
100
AcDbMText
 10
-73.64074650077723
 20
-75.09462464300272
 30
0.00000000000000
 40
2.80000000000000
 41
0.00000000000000
 71
     1
 72
     1
  1
\fArial Narrow|b0|i0;ggf. mit Stahlbeton-Ringanker\P(nach Angabe Statik)
 11
1.00000000000000
 21
0.00000000000000
 31
0.00000000000000
 73
     1
 44
1.00000000000000
  0
LINE
  5
328
330
33
100
AcDbEntity
  8
Zeichnung 5
  6
CONTINUOUS
 62
    12
370
    25
100
AcDbLine
 10
1.12935956562477
 20
-45.16526507737859
 30
0.00000000000000
 11
-27.99999999999937
 21
-74.29462464300272
 31
0.00000000000000
  0
HATCH
  5
329
330
33
100
AcDbEntity
  8
Zeichnung 5
 62
    12
100
AcDbHatch
 10
0.00000000000000
 20
0.00000000000000
 30
0.00000000000000
210
0.00000000000000
220
0.00000000000000
230
1.00000000000000
  2
SOLID
 70
     1
 71
     0
 91
        1
 92
        0
 93
       16
 72
     1
 10
1.62935956562477
 20
-45.16526507737859
 11
1.59129933188041
 21
-44.97392336119604
 72
     1
 10
1.59129933188041
 20
-44.97392336119604
 11
1.48291295621804
 21
-44.81171168678532
 72
     1
 10
1.48291295621804
 20
-44.81171168678532
 11
1.32070128180731
 21
-44.70332531112295
 72
     1
 10
1.32070128180731
 20
-44.70332531112295
 11
1.12935956562477
 21
-44.66526507737859
 72
     1
 10
1.12935956562477
 20
-44.66526507737859
 11
0.93801784944222
 21
-44.70332531112295
 72
     1
 10
0.93801784944222
 20
-44.70332531112295
 11
0.77580617503149
 21
-44.81171168678532
 72
     1
 10
0.77580617503149
 20
-44.81171168678532
 11
0.66741979936912
 21
-44.97392336119604
 72
     1
 10
0.66741979936912
 20
-44.97392336119604
 11
0.62935956562477
 21
-45.16526507737859
 72
     1
 10
0.62935956562477
 20
-45.16526507737859
 11
0.66741979936912
 21
-45.35660679356113
 72
     1
 10
0.66741979936912
 20
-45.35660679356113
 11
0.77580617503149
 21
-45.51881846797186
 72
     1
 10
0.77580617503149
 20
-45.51881846797186
 11
0.93801784944222
 21
-45.62720484363423
 72
     1
 10
0.93801784944222
 20
-45.62720484363423
 11
1.12935956562477
 21
-45.66526507737859
 72
     1
 10
1.12935956562477
 20
-45.66526507737859
 11
1.32070128180731
 21
-45.62720484363423
 72
     1
 10
1.32070128180731
 20
-45.62720484363423
 11
1.48291295621804
 21
-45.51881846797186
 72
     1
 10
1.48291295621804
 20
-45.51881846797186
 11
1.59129933188041
 21
-45.35660679356113
 72
     1
 10
1.59129933188041
 20
-45.35660679356113
 11
1.62935956562477
 21
-45.16526507737859
 97
        0
 75
     0
 76
     0
 98
        1
 10
0.00000000000000
 20
0.00000000000000
  0
LWPOLYLINE
  5
32A
330
33
100
AcDbEntity
  8
Zeichnung 5
  6
CONTINUOUS
 62
    12
370
    25
100
AcDbPolyline
 90
       17
 70
   128
 10
1.62935956562477
 20
-45.16526507737859
 10
1.59129933188041
 20
-44.97392336119604
 10
1.48291295621804
 20
-44.81171168678532
 10
1.32070128180731
 20
-44.70332531112295
 10
1.12935956562477
 20
-44.66526507737859
 10
0.93801784944222
 20
-44.70332531112295
 10
0.77580617503149
 20
-44.81171168678532
 10
0.66741979936912
 20
-44.97392336119604
 10
0.62935956562477
 20
-45.16526507737859
 10
0.66741979936912
 20
-45.35660679356113
 10
0.77580617503149
 20
-45.51881846797186
 10
0.93801784944222
 20
-45.62720484363423
 10
1.12935956562477
 20
-45.66526507737859
 10
1.32070128180731
 20
-45.62720484363423
 10
1.48291295621804
 20
-45.51881846797186
 10
1.59129933188041
 20
-45.35660679356113
 10
1.62935956562477
 20
-45.16526507737859
  0
LINE
  5
32B
330
33
100
AcDbEntity
  8
Zeichnung 5
  6
CONTINUOUS
 62
    12
370
    25
100
AcDbLine
 10
-75.04074650077725
 20
-74.29462464300272
 30
0.00000000000000
 11
-27.99999999999937
 21
-74.29462464300272
 31
0.00000000000000
  0
ENDBLK
  5
32C
330
33
100
AcDbEntity
  8
0
100
AcDbBlockEnd
  0
BLOCK
  5
32D
330
34
100
AcDbEntity
  8
0
100
AcDbBlockBegin
  2
*U29
 70
     1
 10
0.00000000000000
 20
0.00000000000000
 30
0.00000000000000
  3
*U29
  1

  0
ARC
  5
32E
330
34
100
AcDbEntity
  8
Zeichnung 5
  6
CONTINUOUS
 62
     7
370
    18
100
AcDbCircle
 10
-16.49999999999992
 20
-20.49999999999921
 30
0.00000000000000
 40
3.00000000000000
100
AcDbArc
 50
270.00000000000000
 51
12.68038349181984
  0
LINE
  5
32F
330
34
100
AcDbEntity
  8
Zeichnung 5
  6
CONTINUOUS
 62
     7
370
    18
100
AcDbLine
 10
-13.57317073170723
 20
-19.84146341463336
 30
0.00000000000000
 11
-16.42682926829260
 21
-7.15853658536511
 31
0.00000000000000
  0
ARC
  5
330
330
34
100
AcDbEntity
  8
Zeichnung 5
  6
CONTINUOUS
 62
     7
370
    18
100
AcDbCircle
 10
-13.49999999999991
 20
-6.49999999999925
 30
0.00000000000000
 40
3.00000000000000
100
AcDbArc
 50
347.31961650818016
 51
192.68038349181984
  0
LINE
  5
331
330
34
100
AcDbEntity
  8
Zeichnung 5
  6
CONTINUOUS
 62
     7
370
    18
100
AcDbLine
 10
-10.57317073170723
 20
-7.15853658536511
 30
0.00000000000000
 11
-13.42682926829260
 21
-19.84146341463336
 31
0.00000000000000
  0
ARC
  5
332
330
34
100
AcDbEntity
  8
Zeichnung 5
  6
CONTINUOUS
 62
     7
370
    18
100
AcDbCircle
 10
-10.49999999999991
 20
-20.49999999999921
 30
0.00000000000000
 40
3.00000000000000
100
AcDbArc
 50
167.31961650818019
 51
12.68038349181984
  0
LINE
  5
333
330
34
100
AcDbEntity
  8
Zeichnung 5
  6
CONTINUOUS
 62
     7
370
    18
100
AcDbLine
 10
-7.57317073170723
 20
-19.84146341463336
 30
0.00000000000000
 11
-10.42682926829260
 21
-7.15853658536511
 31
0.00000000000000
  0
ARC
  5
334
330
34
100
AcDbEntity
  8
Zeichnung 5
  6
CONTINUOUS
 62
     7
370
    18
100
AcDbCircle
 10
-7.49999999999991
 20
-6.49999999999925
 30
0.00000000000000
 40
3.00000000000000
100
AcDbArc
 50
347.31961650818016
 51
192.68038349181984
  0
LINE
  5
335
330
34
100
AcDbEntity
  8
Zeichnung 5
  6
CONTINUOUS
 62
     7
370
    18
100
AcDbLine
 10
-4.57317073170722
 20
-7.15853658536511
 30
0.00000000000000
 11
-7.42682926829259
 21
-19.84146341463336
 31
0.00000000000000
  0
ARC
  5
336
330
34
100
AcDbEntity
  8
Zeichnung 5
  6
CONTINUOUS
 62
     7
370
    18
100
AcDbCircle
 10
-4.49999999999991
 20
-20.49999999999921
 30
0.00000000000000
 40
3.00000000000000
100
AcDbArc
 50
167.31961650818019
 51
12.68038349181984
  0
LINE
  5
337
330
34
100
AcDbEntity
  8
Zeichnung 5
  6
CONTINUOUS
 62
     7
370
    18
100
AcDbLine
 10
-1.57317073170722
 20
-19.84146341463336
 30
0.00000000000000
 11
-4.42682926829259
 21
-7.15853658536511
 31
0.00000000000000
  0
ARC
  5
338
330
34
100
AcDbEntity
  8
Zeichnung 5
  6
CONTINUOUS
 62
     7
370
    18
100
AcDbCircle
 10
-1.49999999999990
 20
-6.49999999999925
 30
0.00000000000000
 40
3.00000000000000
100
AcDbArc
 50
347.31961650818016
 51
192.68038349181984
  0
LINE
  5
339
330
34
100
AcDbEntity
  8
Zeichnung 5
  6
CONTINUOUS
 62
     7
370
    18
100
AcDbLine
 10
1.42682926829278
 20
-7.15853658536511
 30
0.00000000000000
 11
-1.42682926829259
 21
-19.84146341463336
 31
0.00000000000000
  0
ARC
  5
33A
330
34
100
AcDbEntity
  8
Zeichnung 5
  6
CONTINUOUS
 62
     7
370
    18
100
AcDbCircle
 10
1.50000000000010
 20
-20.49999999999921
 30
0.00000000000000
 40
3.00000000000000
100
AcDbArc
 50
167.31961650818019
 51
12.68038349181995
  0
LINE
  5
33B
330
34
100
AcDbEntity
  8
Zeichnung 5
  6
CONTINUOUS
 62
     7
370
    18
100
AcDbLine
 10
4.42682926829278
 20
-19.84146341463336
 30
0.00000000000000
 11
1.57317073170742
 21
-7.15853658536511
 31
0.00000000000000
  0
ARC
  5
33C
330
34
100
AcDbEntity
  8
Zeichnung 5
  6
CONTINUOUS
 62
     7
370
    18
100
AcDbCircle
 10
4.50000000000010
 20
-6.49999999999926
 30
0.00000000000000
 40
3.00000000000000
100
AcDbArc
 50
347.31961650818010
 51
192.68038349181990
  0
LINE
  5
33D
330
34
100
AcDbEntity
  8
Zeichnung 5
  6
CONTINUOUS
 62
     7
370
    18
100
AcDbLine
 10
7.42682926829279
 20
-7.15853658536511
 30
0.00000000000000
 11
4.57317073170742
 21
-19.84146341463336
 31
0.00000000000000
  0
ARC
  5
33E
330
34
100
AcDbEntity
  8
Zeichnung 5
  6
CONTINUOUS
 62
     7
370
    18
100
AcDbCircle
 10
7.50000000000010
 20
-20.49999999999921
 30
0.00000000000000
 40
3.00000000000000
100
AcDbArc
 50
167.31961650818008
 51
12.68038349181995
  0
LINE
  5
33F
330
34
100
AcDbEntity
  8
Zeichnung 5
  6
CONTINUOUS
 62
     7
370
    18
100
AcDbLine
 10
10.42682926829279
 20
-19.84146341463336
 30
0.00000000000000
 11
7.57317073170742
 21
-7.15853658536511
 31
0.00000000000000
  0
ARC
  5
340
330
34
100
AcDbEntity
  8
Zeichnung 5
  6
CONTINUOUS
 62
     7
370
    18
100
AcDbCircle
 10
10.50000000000011
 20
-6.49999999999926
 30
0.00000000000000
 40
3.00000000000000
100
AcDbArc
 50
347.31961650818010
 51
192.68038349181990
  0
LINE
  5
341
330
34
100
AcDbEntity
  8
Zeichnung 5
  6
CONTINUOUS
 62
     7
370
    18
100
AcDbLine
 10
13.42682926829279
 20
-7.15853658536511
 30
0.00000000000000
 11
10.57317073170743
 21
-19.84146341463336
 31
0.00000000000000
  0
ARC
  5
342
330
34
100
AcDbEntity
  8
Zeichnung 5
  6
CONTINUOUS
 62
     7
370
    18
100
AcDbCircle
 10
13.50000000000011
 20
-20.49999999999921
 30
0.00000000000000
 40
3.00000000000000
100
AcDbArc
 50
167.31961650818008
 51
12.68038349181995
  0
LINE
  5
343
330
34
100
AcDbEntity
  8
Zeichnung 5
  6
CONTINUOUS
 62
     7
370
    18
100
AcDbLine
 10
16.42682926829279
 20
-19.84146341463336
 30
0.00000000000000
 11
13.57317073170743
 21
-7.15853658536511
 31
0.00000000000000
  0
ARC
  5
344
330
34
100
AcDbEntity
  8
Zeichnung 5
  6
CONTINUOUS
 62
     7
370
    18
100
AcDbCircle
 10
16.50000000000011
 20
-6.49999999999926
 30
0.00000000000000
 40
3.00000000000000
100
AcDbArc
 50
347.31961650818010
 51
192.68038349181990
  0
LINE
  5
345
330
34
100
AcDbEntity
  8
Zeichnung 5
  6
CONTINUOUS
 62
     7
370
    18
100
AcDbLine
 10
19.42682926829280
 20
-7.15853658536511
 30
0.00000000000000
 11
16.57317073170743
 21
-19.84146341463336
 31
0.00000000000000
  0
ARC
  5
346
330
34
100
AcDbEntity
  8
Zeichnung 5
  6
CONTINUOUS
 62
     7
370
    18
100
AcDbCircle
 10
19.50000000000011
 20
-20.49999999999921
 30
0.00000000000000
 40
3.00000000000000
100
AcDbArc
 50
167.31961650818008
 51
12.68038349181995
  0
LINE
  5
347
330
34
100
AcDbEntity
  8
Zeichnung 5
  6
CONTINUOUS
 62
     7
370
    18
100
AcDbLine
 10
22.42682926829280
 20
-19.84146341463336
 30
0.00000000000000
 11
19.57317073170743
 21
-7.15853658536512
 31
0.00000000000000
  0
ARC
  5
348
330
34
100
AcDbEntity
  8
Zeichnung 5
  6
CONTINUOUS
 62
     7
370
    18
100
AcDbCircle
 10
22.50000000000012
 20
-6.49999999999926
 30
0.00000000000000
 40
3.00000000000000
100
AcDbArc
 50
347.31961650818010
 51
192.68038349181990
  0
LINE
  5
349
330
34
100
AcDbEntity
  8
Zeichnung 5
  6
CONTINUOUS
 62
     7
370
    18
100
AcDbLine
 10
25.42682926829280
 20
-7.15853658536512
 30
0.00000000000000
 11
22.57317073170744
 21
-19.84146341463336
 31
0.00000000000000
  0
ARC
  5
34A
330
34
100
AcDbEntity
  8
Zeichnung 5
  6
CONTINUOUS
 62
     7
370
    18
100
AcDbCircle
 10
25.50000000000012
 20
-20.49999999999921
 30
0.00000000000000
 40
3.00000000000000
100
AcDbArc
 50
167.31961650818008
 51
12.68038349181995
  0
LINE
  5
34B
330
34
100
AcDbEntity
  8
Zeichnung 5
  6
CONTINUOUS
 62
     7
370
    18
100
AcDbLine
 10
28.42682926829281
 20
-19.84146341463336
 30
0.00000000000000
 11
25.57317073170744
 21
-7.15853658536512
 31
0.00000000000000
  0
ARC
  5
34C
330
34
100
AcDbEntity
  8
Zeichnung 5
  6
CONTINUOUS
 62
     7
370
    18
100
AcDbCircle
 10
28.50000000000012
 20
-6.49999999999926
 30
0.00000000000000
 40
3.00000000000000
100
AcDbArc
 50
347.31961650818010
 51
192.68038349181990
  0
LINE
  5
34D
330
34
100
AcDbEntity
  8
Zeichnung 5
  6
CONTINUOUS
 62
     7
370
    18
100
AcDbLine
 10
31.42682926829281
 20
-7.15853658536512
 30
0.00000000000000
 11
28.57317073170744
 21
-19.84146341463336
 31
0.00000000000000
  0
ARC
  5
34E
330
34
100
AcDbEntity
  8
Zeichnung 5
  6
CONTINUOUS
 62
     7
370
    18
100
AcDbCircle
 10
31.50000000000013
 20
-20.49999999999921
 30
0.00000000000000
 40
3.00000000000000
100
AcDbArc
 50
167.31961650818008
 51
270.00000000000000
  0
ENDBLK
  5
34F
330
34
100
AcDbEntity
  8
0
100
AcDbBlockEnd
  0
BLOCK
  5
350
330
35
100
AcDbEntity
  8
0
100
AcDbBlockBegin
  2
*U30
 70
     1
 10
0.00000000000000
 20
0.00000000000000
 30
0.00000000000000
  3
*U30
  1

  0
MTEXT
  5
351
330
35
100
AcDbEntity
  8
Zeichnung 5
 62
     7
370
    30
100
AcDbMText
 10
48.99999999999965
 20
22.95912138978413
 30
0.00000000000000
 40
2.80000000000000
 41
0.00000000000000
 71
     7
 72
     1
  1
\fArial Narrow|b0|i0;Mineralwolle auf Wandkopf
 11
1.00000000000000
 21
0.00000000000000
 31
0.00000000000000
 73
     1
 44
1.00000000000000
  0
MTEXT
  5
352
330
35
100
AcDbEntity
  8
Zeichnung 5
 62
     7
370
    30
100
AcDbMText
 10
48.99999999999965
 20
21.35912138978413
 30
0.00000000000000
 40
2.80000000000000
 41
0.00000000000000
 71
     1
 72
     1
  1
\fArial Narrow|b0|i0;(als Wärmedämmung)
 11
1.00000000000000
 21
0.00000000000000
 31
0.00000000000000
 73
     1
 44
1.00000000000000
  0
LINE
  5
353
330
35
100
AcDbEntity
  8
Zeichnung 5
  6
CONTINUOUS
 62
    12
370
    25
100
AcDbLine
 10
23.34701072387360
 20
-7.47887336943265
 30
0.00000000000000
 11
46.99999999999970
 21
22.15912138978413
 31
0.00000000000000
  0
HATCH
  5
354
330
35
100
AcDbEntity
  8
Zeichnung 5
 62
    12
100
AcDbHatch
 10
0.00000000000000
 20
0.00000000000000
 30
0.00000000000000
210
0.00000000000000
220
0.00000000000000
230
1.00000000000000
  2
SOLID
 70
     1
 71
     0
 91
        1
 92
        0
 93
       16
 72
     1
 10
23.84701072387360
 20
-7.47887336943265
 11
23.80895049012924
 21
-7.28753165325011
 72
     1
 10
23.80895049012924
 20
-7.28753165325011
 11
23.70056411446687
 21
-7.12531997883938
 72
     1
 10
23.70056411446687
 20
-7.12531997883938
 11
23.53835244005614
 21
-7.01693360317701
 72
     1
 10
23.53835244005614
 20
-7.01693360317701
 11
23.34701072387360
 21
-6.97887336943265
 72
     1
 10
23.34701072387360
 20
-6.97887336943265
 11
23.15566900769105
 21
-7.01693360317701
 72
     1
 10
23.15566900769105
 20
-7.01693360317701
 11
22.99345733328032
 21
-7.12531997883938
 72
     1
 10
22.99345733328032
 20
-7.12531997883938
 11
22.88507095761795
 21
-7.28753165325011
 72
     1
 10
22.88507095761795
 20
-7.28753165325011
 11
22.84701072387360
 21
-7.47887336943265
 72
     1
 10
22.84701072387360
 20
-7.47887336943265
 11
22.88507095761795
 21
-7.67021508561520
 72
     1
 10
22.88507095761795
 20
-7.67021508561520
 11
22.99345733328032
 21
-7.83242676002593
 72
     1
 10
22.99345733328032
 20
-7.83242676002593
 11
23.15566900769105
 21
-7.94081313568830
 72
     1
 10
23.15566900769105
 20
-7.94081313568830
 11
23.34701072387360
 21
-7.97887336943265
 72
     1
 10
23.34701072387360
 20
-7.97887336943265
 11
23.53835244005614
 21
-7.94081313568830
 72
     1
 10
23.53835244005614
 20
-7.94081313568830
 11
23.70056411446687
 21
-7.83242676002593
 72
     1
 10
23.70056411446687
 20
-7.83242676002593
 11
23.80895049012924
 21
-7.67021508561520
 72
     1
 10
23.80895049012924
 20
-7.67021508561520
 11
23.84701072387360
 21
-7.47887336943265
 97
        0
 75
     0
 76
     0
 98
        1
 10
0.00000000000000
 20
0.00000000000000
  0
LWPOLYLINE
  5
355
330
35
100
AcDbEntity
  8
Zeichnung 5
  6
CONTINUOUS
 62
    12
370
    25
100
AcDbPolyline
 90
       17
 70
   128
 10
23.84701072387360
 20
-7.47887336943265
 10
23.80895049012924
 20
-7.28753165325011
 10
23.70056411446687
 20
-7.12531997883938
 10
23.53835244005614
 20
-7.01693360317701
 10
23.34701072387360
 20
-6.97887336943265
 10
23.15566900769105
 20
-7.01693360317701
 10
22.99345733328032
 20
-7.12531997883938
 10
22.88507095761795
 20
-7.28753165325011
 10
22.84701072387360
 20
-7.47887336943265
 10
22.88507095761795
 20
-7.67021508561520
 10
22.99345733328032
 20
-7.83242676002593
 10
23.15566900769105
 20
-7.94081313568830
 10
23.34701072387360
 20
-7.97887336943265
 10
23.53835244005614
 20
-7.94081313568830
 10
23.70056411446687
 20
-7.83242676002593
 10
23.80895049012924
 20
-7.67021508561520
 10
23.84701072387360
 20
-7.47887336943265
  0
LINE
  5
356
330
35
100
AcDbEntity
  8
Zeichnung 5
  6
CONTINUOUS
 62
    12
370
    25
100
AcDbLine
 10
46.99999999999970
 20
22.15912138978413
 30
0.00000000000000
 11
88.18583057931537
 21
22.15912138978413
 31
0.00000000000000
  0
ENDBLK
  5
357
330
35
100
AcDbEntity
  8
0
100
AcDbBlockEnd
  0
BLOCK
  5
358
330
36
100
AcDbEntity
  8
0
100
AcDbBlockBegin
  2
*U31
 70
     1
 10
0.00000000000000
 20
0.00000000000000
 30
0.00000000000000
  3
*U31
  1

  0
LWPOLYLINE
  5
359
330
36
100
AcDbEntity
  8
Planrahmen
  6
CONTINUOUS
 62
     7
370
     0
100
AcDbPolyline
 90
       29
 70
   129
 10
68.38640000000001
 20
135.52340000000004
 10
68.30445000000002
 20
135.52340000000004
 10
68.05955000000002
 20
135.58855000000003
 10
67.80640000000004
 20
135.78435000000005
 10
67.64285000000002
 20
136.11180000000002
 10
67.58480000000006
 20
136.45680000000004
 10
67.58480000000006
 20
136.57185000000004
 10
67.58480000000006
 20
136.68415000000002
 10
67.64040000000004
 20
137.02055000000004
 10
67.79960000000001
 20
137.33765000000002
 10
68.05030000000001
 20
137.52590000000004
 10
68.29795000000000
 20
137.58805000000004
 10
68.38070000000002
 20
137.58805000000004
 10
68.45800000000001
 20
137.58805000000004
 10
68.68995000000005
 20
137.52860000000004
 10
68.93105000000004
 20
137.34575000000004
 10
69.08790000000003
 20
137.03435000000005
 10
69.14405000000001
 20
136.70010000000005
 10
69.14405000000001
 20
136.58865000000003
 10
69.14405000000001
 20
136.52165000000005
 10
69.12940000000000
 20
136.32070000000004
 10
69.08730000000001
 20
136.09575000000004
 10
69.02010000000003
 20
135.91160000000005
 10
68.92975000000001
 20
135.76590000000004
 10
68.81905000000005
 20
135.65660000000005
 10
68.68995000000005
 20
135.58115000000004
 10
68.54480000000001
 20
135.53750000000002
 10
68.42600000000005
 20
135.52340000000004
 10
68.38640000000001
 20
135.52340000000004
  0
LWPOLYLINE
  5
35A
330
36
100
AcDbEntity
  8
Planrahmen
  6
CONTINUOUS
 62
     7
370
     0
100
AcDbPolyline
 90
       41
 70
   129
 10
68.40835000000000
 20
138.60365000000004
 10
68.29635000000000
 20
138.60365000000004
 10
67.96080000000005
 20
138.56810000000004
 10
67.56010000000001
 20
138.46310000000003
 10
67.21015000000003
 20
138.29220000000004
 10
66.91475000000003
 20
138.05895000000004
 10
66.67820000000002
 20
137.76625000000004
 10
66.50405000000004
 20
137.41790000000003
 10
66.39690000000003
 20
137.01700000000005
 10
66.36030000000004
 20
136.67930000000004
 10
66.36030000000004
 20
136.56670000000003
 10
66.36030000000004
 20
136.44980000000004
 10
66.39690000000003
 20
136.09900000000005
 10
66.50490000000004
 20
135.68860000000004
 10
66.67935000000003
 20
135.33755000000002
 10
66.91615000000000
 20
135.04680000000005
 10
67.21130000000002
 20
134.81810000000004
 10
67.56010000000001
 20
134.65290000000005
 10
67.95855000000000
 20
134.55285000000003
 10
68.29140000000000
 20
134.51890000000006
 10
68.40265000000001
 20
134.51890000000006
 10
68.50415000000004
 20
134.51890000000006
 10
68.80880000000001
 20
134.54930000000004
 10
69.18310000000005
 20
134.64125000000004
 10
69.51835000000000
 20
134.79610000000002
 10
69.80810000000004
 20
135.01535000000004
 10
70.04545000000000
 20
135.30015000000003
 10
70.22345000000001
 20
135.65170000000003
 10
70.33515000000001
 20
136.07195000000004
 10
70.37400000000005
 20
136.43895000000003
 10
70.37400000000005
 20
136.56125000000006
 10
70.37400000000005
 20
136.67680000000004
 10
70.33790000000001
 20
137.02270000000004
 10
70.23345000000003
 20
137.42930000000004
 10
70.06475000000000
 20
137.77920000000003
 10
69.83580000000001
 20
138.07035000000005
 10
69.55120000000004
 20
138.30060000000006
 10
69.21565000000001
 20
138.46775000000005
 10
68.83315000000000
 20
138.56945000000005
 10
68.51440000000002
 20
138.60365000000004
 10
68.40835000000000
 20
138.60365000000004
  0
LWPOLYLINE
  5
35B
330
36
100
AcDbEntity
  8
Planrahmen
  6
CONTINUOUS
 62
     7
370
     0
100
AcDbPolyline
 90
        5
 70
   129
 10
68.68940000000001
 20
139.50260000000006
 10
69.60245000000003
 20
139.50260000000006
 10
69.60245000000003
 20
138.72790000000003
 10
68.68940000000001
 20
138.72790000000003
 10
68.68940000000001
 20
139.50260000000006
  0
LWPOLYLINE
  5
35C
330
36
100
AcDbEntity
  8
Planrahmen
  6
CONTINUOUS
 62
     7
370
     0
100
AcDbPolyline
 90
        7
 70
   129
 10
74.80650000000011
 20
134.62330000000003
 10
74.80650000000011
 20
138.49950000000004
 10
75.99760000000011
 20
138.49950000000004
 10
75.99760000000011
 20
135.50715000000005
 10
77.46925000000005
 20
135.50715000000005
 10
77.46925000000005
 20
134.62330000000003
 10
74.80650000000011
 20
134.62330000000003
  0
LWPOLYLINE
  5
35D
330
36
100
AcDbEntity
  8
Planrahmen
  6
CONTINUOUS
 62
     7
370
     0
100
AcDbPolyline
 90
       13
 70
   129
 10
79.16599999999995
 20
134.62330000000003
 10
79.16599999999995
 20
136.06160000000003
 10
77.82105000000006
 20
136.06160000000003
 10
77.82105000000006
 20
137.06525000000005
 10
79.16599999999995
 20
137.06525000000005
 10
79.16599999999995
 20
138.49895000000004
 10
80.33730000000006
 20
138.49895000000004
 10
80.33730000000006
 20
137.06525000000005
 10
81.68280000000006
 20
137.06525000000005
 10
81.68280000000006
 20
136.06160000000003
 10
80.33730000000006
 20
136.06160000000003
 10
80.33730000000006
 20
134.62330000000003
 10
79.16599999999995
 20
134.62330000000003
  0
LWPOLYLINE
  5
35E
330
36
100
AcDbEntity
  8
Planrahmen
  6
CONTINUOUS
 62
     7
370
     0
100
AcDbPolyline
 90
       20
 70
   129
 10
72.98275000000010
 20
136.97275000000002
 10
72.96479999999994
 20
136.95650000000003
 10
72.83460000000008
 20
136.89660000000003
 10
72.65314999999994
 20
136.86890000000005
 10
72.59265000000004
 20
136.86890000000005
 10
72.04365000000001
 20
136.86890000000005
 10
72.04365000000001
 20
137.58235000000005
 10
72.58185000000006
 20
137.58235000000005
 10
72.63635000000002
 20
137.58235000000005
 10
72.79990000000002
 20
137.56520000000006
 10
72.92440000000011
 20
137.52320000000003
 10
72.94370000000005
 20
137.51070000000004
 10
72.96705000000003
 20
137.49575000000004
 10
73.04190000000010
 20
137.39295000000004
 10
73.07010000000003
 20
137.26765000000003
 10
73.07010000000003
 20
137.22560000000001
 10
73.07010000000003
 20
137.18735000000004
 10
73.04675000000005
 20
137.07235000000003
 10
72.99630000000002
 20
136.98660000000004
 10
72.98275000000010
 20
136.97275000000002
  0
LWPOLYLINE
  5
35F
330
36
100
AcDbEntity
  8
Planrahmen
  6
CONTINUOUS
 62
     7
370
     0
100
AcDbPolyline
 90
       27
 70
   129
 10
73.53130000000007
 20
136.15465000000003
 10
73.61994999999999
 20
136.18525000000002
 10
73.87085000000005
 20
136.32145000000003
 10
74.12070000000004
 20
136.56045000000006
 10
74.27480000000008
 20
136.87670000000006
 10
74.32740000000004
 20
137.17540000000002
 10
74.32740000000004
 20
137.27470000000005
 10
74.32740000000004
 20
137.36180000000004
 10
74.29540000000002
 20
137.62275000000005
 10
74.19475000000008
 20
137.91110000000003
 10
74.01924999999999
 20
138.14520000000005
 10
73.83100000000009
 20
138.29220000000004
 10
73.76210000000005
 20
138.32910000000004
 10
73.71654999999998
 20
138.35355000000004
 10
73.56974999999999
 20
138.40670000000006
 10
73.32810000000001
 20
138.45955000000004
 10
73.03295000000010
 20
138.49000000000007
 10
72.76844999999999
 20
138.49950000000004
 10
72.68030000000003
 20
138.49950000000004
 10
70.85765000000011
 20
138.49950000000004
 10
70.85765000000011
 20
134.62330000000003
 10
72.04365000000001
 20
134.62330000000003
 10
72.04365000000001
 20
135.96285000000006
 10
72.39515000000007
 20
135.96285000000006
 10
73.13630000000005
 20
134.62330000000003
 10
74.48690000000002
 20
134.62330000000003
 10
73.53130000000007
 20
136.15465000000003
  0
LWPOLYLINE
  5
360
330
36
100
AcDbEntity
  8
Planrahmen
  6
CONTINUOUS
 62
     7
370
     0
100
AcDbPolyline
 90
       13
 70
   129
 10
64.67140000000005
 20
129.90595000000002
 10
64.67140000000005
 20
131.41505000000004
 10
63.54480000000001
 20
131.41505000000004
 10
63.54480000000001
 20
129.90595000000002
 10
62.35285000000001
 20
129.90595000000002
 10
62.35285000000001
 20
133.76640000000003
 10
63.54480000000001
 20
133.76640000000003
 10
63.54480000000001
 20
132.41035000000002
 10
64.67140000000005
 20
132.41035000000002
 10
64.67140000000005
 20
133.76640000000003
 10
65.86905000000004
 20
133.76640000000003
 10
65.86905000000004
 20
129.90595000000002
 10
64.67140000000005
 20
129.90595000000002
  0
LWPOLYLINE
  5
361
330
36
100
AcDbEntity
  8
Planrahmen
  6
CONTINUOUS
 62
     7
370
     0
100
AcDbPolyline
 90
        9
 70
   129
 10
75.25050000000000
 20
129.90595000000002
 10
75.25050000000000
 20
132.84760000000003
 10
74.27755000000002
 20
132.84760000000003
 10
74.27755000000002
 20
133.76640000000003
 10
77.42175000000006
 20
133.76640000000003
 10
77.42175000000006
 20
132.84760000000003
 10
76.45390000000008
 20
132.84760000000003
 10
76.45390000000008
 20
129.90595000000002
 10
75.25050000000000
 20
129.90595000000002
  0
LWPOLYLINE
  5
362
330
36
100
AcDbEntity
  8
Planrahmen
  6
CONTINUOUS
 62
     7
370
     0
100
AcDbPolyline
 90
       44
 70
   129
 10
81.20510000000003
 20
129.90595000000002
 10
81.20510000000003
 20
130.12220000000005
 10
81.20620000000011
 20
130.77000000000001
 10
81.21105000000006
 20
131.43355000000003
 10
81.22115000000008
 20
131.99365000000003
 10
81.23335000000009
 20
132.40875000000005
 10
81.23820000000004
 20
132.54680000000005
 10
81.21300000000009
 20
132.44965000000002
 10
81.13789999999999
 20
132.15805000000006
 10
81.00629999999997
 20
131.65510000000006
 10
80.81425000000009
 20
130.93790000000001
 10
80.60319999999999
 20
130.16395000000003
 10
80.53240000000005
 20
129.90595000000002
 10
79.56474999999996
 20
129.90595000000002
 10
79.50725000000003
 20
130.10970000000003
 10
79.33829999999998
 20
130.72195000000002
 10
79.15705000000006
 20
131.40200000000004
 10
79.00460000000010
 20
132.00125000000003
 10
78.89905000000007
 20
132.43150000000003
 10
78.86460000000007
 20
132.57470000000004
 10
78.86685000000004
 20
132.48090000000005
 10
78.87355000000007
 20
132.19845000000004
 10
78.88255000000000
 20
131.70990000000003
 10
78.88934999999997
 20
130.98670000000004
 10
78.89230000000002
 20
130.17615000000004
 10
78.89230000000002
 20
129.90595000000002
 10
77.76545000000002
 20
129.90595000000002
 10
77.76545000000002
 20
133.76640000000003
 10
79.44435000000006
 20
133.76640000000003
 10
79.50210000000013
 20
133.55400000000003
 10
79.67245000000000
 20
132.91490000000002
 10
79.84635000000006
 20
132.23670000000004
 10
79.97495000000009
 20
131.70420000000001
 10
80.04544999999996
 20
131.39330000000004
 10
80.06775000000010
 20
131.28945000000002
 10
80.08559999999997
 20
131.38660000000004
 10
80.14474999999999
 20
131.67630000000005
 10
80.25789999999999
 20
132.17515000000003
 10
80.42605000000003
 20
132.85035000000002
 10
80.60725000000002
 20
133.53770000000003
 10
80.66940000000000
 20
133.76640000000003
 10
82.33170000000001
 20
133.76640000000003
 10
82.33170000000001
 20
129.90595000000002
 10
81.20510000000003
 20
129.90595000000002
  0
LWPOLYLINE
  5
363
330
36
100
AcDbEntity
  8
Planrahmen
  6
CONTINUOUS
 62
     7
370
     0
100
AcDbPolyline
 90
       31
 70
   129
 10
88.35630000000005
 20
133.76640000000003
 10
88.45230000000004
 20
133.59060000000002
 10
88.73935000000010
 20
133.06195000000002
 10
89.04230000000013
 20
132.49255000000005
 10
89.28809999999999
 20
132.01320000000001
 10
89.44760000000007
 20
131.68825000000004
 10
89.49915000000009
 20
131.57890000000003
 10
89.49370000000012
 20
131.66240000000005
 10
89.48150000000010
 20
131.91310000000004
 10
89.46955000000011
 20
132.32410000000002
 10
89.46280000000006
 20
132.90945000000005
 10
89.46085000000004
 20
133.55235000000005
 10
89.46085000000004
 20
133.76640000000003
 10
90.63650000000011
 20
133.76640000000003
 10
90.63650000000011
 20
129.90595000000002
 10
89.34560000000002
 20
129.90595000000002
 10
89.25119999999997
 20
130.07500000000002
 10
88.97070000000007
 20
130.58255000000005
 10
88.66365000000009
 20
131.14730000000006
 10
88.40780000000004
 20
131.63020000000003
 10
88.24130000000008
 20
131.95270000000002
 10
88.18675000000009
 20
132.06040000000004
 10
88.19005000000001
 20
131.98580000000004
 10
88.19650000000011
 20
131.76090000000005
 10
88.20330000000010
 20
131.35240000000005
 10
88.20710000000010
 20
130.75945000000002
 10
88.20845000000010
 20
130.11950000000002
 10
88.20845000000010
 20
129.90595000000002
 10
87.03300000000003
 20
129.90595000000002
 10
87.03300000000003
 20
133.76640000000003
 10
88.35630000000005
 20
133.76640000000003
  0
LWPOLYLINE
  5
364
330
36
100
AcDbEntity
  8
Planrahmen
  6
CONTINUOUS
 62
     7
370
     0
100
AcDbPolyline
 90
       31
 70
   129
 10
92.71950000000007
 20
133.76640000000003
 10
92.81550000000004
 20
133.59060000000002
 10
93.10249999999998
 20
133.06195000000002
 10
93.40599999999999
 20
132.49255000000005
 10
93.65150000000011
 20
132.01320000000001
 10
93.81099999999998
 20
131.68825000000004
 10
93.86250000000007
 20
131.57890000000003
 10
93.85700000000007
 20
131.66240000000005
 10
93.84500000000007
 20
131.91310000000004
 10
93.83300000000006
 20
132.32410000000002
 10
93.82600000000008
 20
132.90945000000005
 10
93.82400000000001
 20
133.55235000000005
 10
93.82400000000001
 20
133.76640000000003
 10
95.00000000000009
 20
133.76640000000003
 10
95.00000000000009
 20
129.90595000000002
 10
93.70900000000005
 20
129.90595000000002
 10
93.61450000000005
 20
130.07500000000002
 10
93.33400000000013
 20
130.58255000000005
 10
93.02700000000009
 20
131.14730000000006
 10
92.77100000000004
 20
131.63020000000003
 10
92.60450000000009
 20
131.95270000000002
 10
92.55000000000003
 20
132.06040000000004
 10
92.55350000000007
 20
131.98580000000004
 10
92.56000000000009
 20
131.76090000000005
 10
92.56700000000006
 20
131.35240000000005
 10
92.57050000000000
 20
130.75945000000002
 10
92.57199999999999
 20
130.11950000000002
 10
92.57199999999999
 20
129.90595000000002
 10
91.39649999999999
 20
129.90595000000002
 10
91.39649999999999
 20
133.76640000000003
 10
92.71950000000007
 20
133.76640000000003
  0
LWPOLYLINE
  5
365
330
36
100
AcDbEntity
  8
Planrahmen
  6
CONTINUOUS
 62
     7
370
     0
100
AcDbPolyline
 90
       20
 70
   129
 10
72.68675000000002
 20
132.24595000000002
 10
72.66890000000004
 20
132.22965000000002
 10
72.53944999999995
 20
132.16970000000003
 10
72.35884999999998
 20
132.14235000000005
 10
72.29885000000003
 20
132.14235000000005
 10
71.75175000000012
 20
132.14235000000005
 10
71.75175000000012
 20
132.85305000000005
 10
72.28725000000003
 20
132.85305000000005
 10
72.34149999999994
 20
132.85305000000005
 10
72.50475000000000
 20
132.83595000000003
 10
72.62924999999997
 20
132.79445000000004
 10
72.64855000000003
 20
132.78200000000004
 10
72.67159999999994
 20
132.76705000000001
 10
72.74619999999999
 20
132.66450000000003
 10
72.77414999999998
 20
132.53945000000002
 10
72.77414999999998
 20
132.49770000000001
 10
72.77414999999998
 20
132.45970000000003
 10
72.75080000000000
 20
132.34520000000003
 10
72.70034999999997
 20
132.25980000000004
 10
72.68675000000002
 20
132.24595000000002
  0
LWPOLYLINE
  5
366
330
36
100
AcDbEntity
  8
Planrahmen
  6
CONTINUOUS
 62
     7
370
     0
100
AcDbPolyline
 90
       27
 70
   129
 10
73.23365000000004
 20
131.43130000000002
 10
73.32185000000003
 20
131.46200000000005
 10
73.57195000000006
 20
131.59735000000003
 10
73.82070000000007
 20
131.83555000000004
 10
73.97400000000009
 20
132.15045000000003
 10
74.02655000000003
 20
132.44775000000004
 10
74.02655000000003
 20
132.54680000000005
 10
74.02655000000003
 20
132.63360000000003
 10
73.99454999999999
 20
132.89345000000006
 10
73.89444999999995
 20
133.18075000000005
 10
73.71954999999997
 20
133.41375000000002
 10
73.53204999999996
 20
133.56025000000005
 10
73.46345000000009
 20
133.59685000000005
 10
73.41815000000007
 20
133.62125000000003
 10
73.27190000000006
 20
133.67415000000005
 10
73.03130000000002
 20
133.72680000000003
 10
72.73724999999998
 20
133.75695000000005
 10
72.47355000000010
 20
133.76640000000003
 10
72.38595000000004
 20
133.76640000000003
 10
70.57035000000001
 20
133.76640000000003
 10
70.57035000000001
 20
129.90575000000004
 10
71.75175000000012
 20
129.90575000000004
 10
71.75175000000012
 20
131.23955000000004
 10
72.10195000000007
 20
131.23955000000004
 10
72.84005000000005
 20
129.90575000000004
 10
74.18530000000001
 20
129.90575000000004
 10
73.23365000000004
 20
131.43130000000002
  0
LWPOLYLINE
  5
367
330
36
100
AcDbEntity
  8
Planrahmen
  6
CONTINUOUS
 62
     7
370
     0
100
AcDbPolyline
 90
       10
 70
   129
 10
67.81510000000002
 20
131.37680000000003
 10
67.85880000000005
 20
131.51355000000004
 10
68.03970000000004
 20
132.10570000000004
 10
68.19080000000005
 20
132.62595000000005
 10
68.21980000000005
 20
132.72695000000004
 10
68.24560000000001
 20
132.62595000000005
 10
68.38585000000002
 20
132.10765000000004
 10
68.55595000000002
 20
131.51485000000005
 10
68.59690000000002
 20
131.37680000000003
 10
67.81510000000002
 20
131.37680000000003
  0
LWPOLYLINE
  5
368
330
36
100
AcDbEntity
  8
Planrahmen
  6
CONTINUOUS
 62
     7
370
     0
100
AcDbPolyline
 90
        9
 70
   129
 10
68.96310000000005
 20
133.76610000000002
 10
67.54170000000003
 20
133.76610000000002
 10
66.12540000000000
 20
129.90595000000002
 10
67.40495000000001
 20
129.90595000000002
 10
67.59650000000001
 20
130.52880000000002
 10
68.82150000000003
 20
130.52880000000002
 10
69.01275000000001
 20
129.90595000000002
 10
70.31425000000002
 20
129.90595000000002
 10
68.96310000000005
 20
133.76610000000002
  0
LWPOLYLINE
  5
369
330
36
100
AcDbEntity
  8
Planrahmen
  6
CONTINUOUS
 62
     7
370
     0
100
AcDbPolyline
 90
       10
 70
   129
 10
84.27755000000003
 20
131.37680000000003
 10
84.32120000000009
 20
131.51355000000004
 10
84.50239999999998
 20
132.10570000000004
 10
84.65320000000010
 20
132.62595000000005
 10
84.68225000000007
 20
132.72695000000004
 10
84.70800000000011
 20
132.62595000000005
 10
84.84800000000003
 20
132.10765000000004
 10
85.01835000000001
 20
131.51485000000005
 10
85.05955000000009
 20
131.37680000000003
 10
84.27755000000003
 20
131.37680000000003
  0
LWPOLYLINE
  5
36A
330
36
100
AcDbEntity
  8
Planrahmen
  6
CONTINUOUS
 62
     7
370
     0
100
AcDbPolyline
 90
        9
 70
   129
 10
85.42550000000004
 20
133.76610000000002
 10
84.00379999999996
 20
133.76610000000002
 10
82.58780000000010
 20
129.90595000000002
 10
83.86760000000004
 20
129.90595000000002
 10
84.05885000000002
 20
130.52880000000002
 10
85.28389999999996
 20
130.52880000000002
 10
85.47515000000006
 20
129.90595000000002
 10
86.77640000000008
 20
129.90595000000002
 10
85.42550000000004
 20
133.76610000000002
  0
LWPOLYLINE
  5
36B
330
36
100
AcDbEntity
  8
Planrahmen
  6
CONTINUOUS
 62
     7
370
     0
100
AcDbPolyline
 90
       13
 70
   129
 10
64.67410000000001
 20
134.62330000000003
 10
64.67410000000001
 20
136.13840000000005
 10
63.54345000000000
 20
136.13840000000005
 10
63.54345000000000
 20
134.62330000000003
 10
62.34605000000004
 20
134.62330000000003
 10
62.34605000000004
 20
138.49950000000004
 10
63.54345000000000
 20
138.49950000000004
 10
63.54345000000000
 20
137.13770000000005
 10
64.67410000000001
 20
137.13770000000005
 10
64.67410000000001
 20
138.49950000000004
 10
65.87635000000003
 20
138.49950000000004
 10
65.87635000000003
 20
134.62330000000003
 10
64.67410000000001
 20
134.62330000000003
  0
LWPOLYLINE
  5
36C
330
36
100
AcDbEntity
  8
Planrahmen
  6
CONTINUOUS
 62
     7
370
     0
100
AcDbPolyline
 90
        5
 70
   129
 10
67.26710000000003
 20
139.50260000000006
 10
68.18050000000004
 20
139.50260000000006
 10
68.18050000000004
 20
138.72790000000003
 10
67.26710000000003
 20
138.72790000000003
 10
67.26710000000003
 20
139.50260000000006
  0
LWPOLYLINE
  5
36D
330
36
100
AcDbEntity
  8
Planrahmen
  6
CONTINUOUS
 62
     7
370
     0
100
AcDbPolyline
 90
       44
 70
   129
 10
63.55864999999999
 20
123.89063000000003
 10
63.51905000000002
 20
124.03169500000003
 10
63.40050000000002
 20
124.45459500000003
 10
63.30665000000002
 20
124.79423000000003
 10
63.25350000000002
 20
124.99605000000003
 10
63.22605000000003
 20
125.10945000000004
 10
63.21765000000001
 20
125.14715000000004
 10
63.20925000000005
 20
125.10915000000003
 10
63.18295000000001
 20
124.99550500000004
 10
63.13115000000003
 20
124.79369000000004
 10
63.03810000000004
 20
124.45432500000003
 10
62.92035000000001
 20
124.03169500000003
 10
62.88100000000002
 20
123.89063000000003
 10
62.75050000000004
 20
123.89063000000003
 10
62.35260000000004
 20
125.33050000000004
 10
62.48740000000002
 20
125.33050000000004
 10
62.52675000000002
 20
125.18430000000002
 10
62.64445000000002
 20
124.74512500000004
 10
62.74050000000003
 20
124.38515500000003
 10
62.79365000000004
 20
124.17818000000003
 10
62.81675000000004
 20
124.08350500000000
 10
62.82380000000004
 20
124.05177000000003
 10
62.83085000000005
 20
124.08269500000002
 10
62.85335000000003
 20
124.17465500000002
 10
62.90380000000001
 20
124.37213000000003
 10
62.99740000000003
 20
124.72939500000003
 10
63.11675000000000
 20
125.18025000000002
 10
63.15665000000004
 20
125.33050000000004
 10
63.27705000000000
 20
125.33050000000004
 10
63.31800000000004
 20
125.18160000000003
 10
63.44094999999999
 20
124.73455000000003
 10
63.53800000000004
 20
124.37702000000003
 10
63.59039999999999
 20
124.17737000000004
 10
63.61400000000000
 20
124.08513000000001
 10
63.62155000000003
 20
124.05421000000003
 10
63.62780000000001
 20
124.08567500000004
 10
63.64845000000003
 20
124.17980500000003
 10
63.69565000000005
 20
124.37810500000005
 10
63.78545000000002
 20
124.73346500000001
 10
63.90129999999999
 20
125.18135000000002
 10
63.94005000000003
 20
125.33050000000004
 10
64.07025000000004
 20
125.33050000000004
 10
63.68695000000002
 20
123.89063000000003
 10
63.55864999999999
 20
123.89063000000003
  0
LWPOLYLINE
  5
36E
330
36
100
AcDbEntity
  8
Planrahmen
  6
CONTINUOUS
 62
     7
370
     0
100
AcDbPolyline
 90
        5
 70
   129
 10
64.29515000000002
 20
125.33050000000004
 10
64.42370000000003
 20
125.33050000000004
 10
64.42370000000003
 20
123.89063000000003
 10
64.29515000000002
 20
123.89063000000003
 10
64.29515000000002
 20
125.33050000000004
  0
LWPOLYLINE
  5
36F
330
36
100
AcDbEntity
  8
Planrahmen
  6
CONTINUOUS
 62
     7
370
     0
100
AcDbPolyline
 90
       20
 70
   129
 10
65.27385000000002
 20
124.63933500000005
 10
65.32350000000004
 20
124.63933500000005
 10
65.47300000000000
 20
124.65914000000002
 10
65.58990000000003
 20
124.70850500000002
 10
65.60615000000003
 20
124.72315500000003
 10
65.62030000000002
 20
124.73590500000003
 10
65.66970000000005
 20
124.81348500000003
 10
65.69025000000001
 20
124.90625500000002
 10
65.69025000000001
 20
124.93691500000004
 10
65.69025000000001
 20
124.96946500000003
 10
65.66370000000005
 20
125.06630000000004
 10
65.60045000000004
 20
125.14930000000004
 10
65.58230000000003
 20
125.16150000000003
 10
65.56470000000003
 20
125.17375000000003
 10
65.45400000000001
 20
125.20630000000001
 10
65.31890000000001
 20
125.21440000000003
 10
65.27385000000002
 20
125.21440000000003
 10
64.93970000000005
 20
125.21440000000003
 10
64.93970000000005
 20
124.63933500000005
 10
65.27385000000002
 20
124.63933500000005
  0
LWPOLYLINE
  5
370
330
36
100
AcDbEntity
  8
Planrahmen
  6
CONTINUOUS
 62
     7
370
     0
100
AcDbPolyline
 90
       23
 70
   129
 10
65.71470000000001
 20
123.89063000000003
 10
65.28420000000001
 20
124.52296000000004
 10
64.93970000000005
 20
124.52296000000004
 10
64.93970000000005
 20
123.89063000000003
 10
64.81105000000004
 20
123.89063000000003
 10
64.81105000000004
 20
125.33050000000004
 10
65.25380000000003
 20
125.33050000000004
 10
65.30425000000001
 20
125.33050000000004
 10
65.45585000000004
 20
125.32345000000002
 10
65.59775000000001
 20
125.29470000000003
 10
65.62300000000005
 20
125.28385000000003
 10
65.65175000000001
 20
125.27165000000004
 10
65.76815000000002
 20
125.15500000000004
 10
65.82640000000001
 20
124.98872000000003
 10
65.82640000000001
 20
124.93312000000003
 10
65.82640000000001
 20
124.89514000000004
 10
65.79990000000002
 20
124.78066500000004
 10
65.72195000000002
 20
124.66184500000001
 10
65.59425000000002
 20
124.57965500000003
 10
65.46320000000006
 20
124.54222000000003
 10
65.41900000000000
 20
124.53733500000003
 10
65.87365000000000
 20
123.89063000000003
 10
65.71470000000001
 20
123.89063000000003
  0
LWPOLYLINE
  5
371
330
36
100
AcDbEntity
  8
Planrahmen
  6
CONTINUOUS
 62
     7
370
     0
100
AcDbPolyline
 90
       20
 70
   129
 10
66.71865000000004
 20
124.00700500000004
 10
67.10195000000002
 20
124.00700500000004
 10
67.14835000000002
 20
124.00700500000004
 10
67.28775000000003
 20
124.02600000000002
 10
67.39870000000003
 20
124.07130000000002
 10
67.41420000000004
 20
124.08432000000002
 10
67.42720000000001
 20
124.09625500000001
 10
67.47275000000002
 20
124.17112500000002
 10
67.49175000000001
 20
124.26227000000003
 10
67.49175000000001
 20
124.29238000000004
 10
67.49175000000001
 20
124.32494000000003
 10
67.46845000000002
 20
124.42232000000003
 10
67.41470000000005
 20
124.50804000000001
 10
67.39955000000003
 20
124.52133500000004
 10
67.38350000000004
 20
124.53462500000003
 10
67.27905000000001
 20
124.58073500000002
 10
67.14315000000003
 20
124.60054000000004
 10
67.09790000000004
 20
124.60054000000004
 10
66.71865000000004
 20
124.60054000000004
 10
66.71865000000004
 20
124.00700500000004
  0
LWPOLYLINE
  5
372
330
36
100
AcDbEntity
  8
Planrahmen
  6
CONTINUOUS
 62
     7
370
     0
100
AcDbPolyline
 90
       20
 70
   129
 10
66.71865000000004
 20
124.71474500000004
 10
67.08350000000002
 20
124.71474500000004
 10
67.12255000000000
 20
124.71474500000004
 10
67.24030000000003
 20
124.72776500000002
 10
67.33195000000004
 20
124.76005000000004
 10
67.34635000000006
 20
124.76954000000003
 10
67.36260000000004
 20
124.78039000000004
 10
67.41905000000004
 20
124.85363000000002
 10
67.44265000000004
 20
124.94532000000002
 10
67.44265000000004
 20
124.97570000000002
 10
67.44265000000004
 20
125.00337500000002
 10
67.42390000000003
 20
125.08610000000003
 10
67.37185000000001
 20
125.15585000000004
 10
67.35505000000002
 20
125.16585000000002
 10
67.34175000000003
 20
125.17400000000004
 10
67.24955000000004
 20
125.20220000000003
 10
67.12800000000001
 20
125.21440000000003
 10
67.08760000000002
 20
125.21440000000003
 10
66.71865000000004
 20
125.21440000000003
 10
66.71865000000004
 20
124.71474500000004
  0
LWPOLYLINE
  5
373
330
36
100
AcDbEntity
  8
Planrahmen
  6
CONTINUOUS
 62
     7
370
     0
100
AcDbPolyline
 90
       30
 70
   129
 10
67.12040000000002
 20
125.33050000000004
 10
67.16435000000004
 20
125.33050000000004
 10
67.29695000000002
 20
125.31775000000003
 10
67.41040000000004
 20
125.28520000000003
 10
67.42830000000005
 20
125.27545000000003
 10
67.45435000000005
 20
125.26135000000002
 10
67.53975000000001
 20
125.16015000000003
 10
67.57315000000003
 20
125.03104000000003
 10
67.57315000000003
 20
124.98791000000003
 10
67.57315000000003
 20
124.93691500000004
 10
67.51240000000003
 20
124.78310500000003
 10
67.36810000000004
 20
124.67568000000004
 10
67.32630000000000
 20
124.66375000000004
 10
67.35960000000002
 20
124.65832000000002
 10
67.45650000000003
 20
124.62062000000005
 10
67.55035000000004
 20
124.54222000000003
 10
67.60705000000006
 20
124.43289500000002
 10
67.62630000000003
 20
124.33036000000003
 10
67.62630000000003
 20
124.29618000000004
 10
67.62630000000003
 20
124.25359000000002
 10
67.59865000000004
 20
124.12500500000003
 10
67.53005000000000
 20
124.01596000000004
 10
67.50970000000007
 20
123.99914000000004
 10
67.48820000000005
 20
123.98178000000001
 10
67.33765000000003
 20
123.91912000000002
 10
67.11795000000004
 20
123.89091000000002
 10
67.04470000000001
 20
123.89091000000002
 10
66.59005000000001
 20
123.89091000000002
 10
66.59005000000001
 20
125.33050000000004
 10
67.12040000000002
 20
125.33050000000004
  0
LWPOLYLINE
  5
374
330
36
100
AcDbEntity
  8
Planrahmen
  6
CONTINUOUS
 62
     7
370
     0
100
AcDbPolyline
 90
       20
 70
   129
 10
68.39510000000004
 20
124.63933500000005
 10
68.44470000000003
 20
124.63933500000005
 10
68.59420000000004
 20
124.65914000000002
 10
68.71105000000004
 20
124.70850500000002
 10
68.72740000000005
 20
124.72315500000003
 10
68.74150000000002
 20
124.73590500000003
 10
68.79085000000001
 20
124.81348500000003
 10
68.81150000000002
 20
124.90625500000002
 10
68.81150000000002
 20
124.93691500000004
 10
68.81150000000002
 20
124.96946500000003
 10
68.78490000000004
 20
125.06630000000004
 10
68.72170000000006
 20
125.14930000000004
 10
68.70350000000003
 20
125.16150000000003
 10
68.68585000000005
 20
125.17375000000003
 10
68.57515000000002
 20
125.20630000000001
 10
68.44010000000000
 20
125.21440000000003
 10
68.39510000000004
 20
125.21440000000003
 10
68.06085000000000
 20
125.21440000000003
 10
68.06085000000000
 20
124.63933500000005
 10
68.39510000000004
 20
124.63933500000005
  0
LWPOLYLINE
  5
375
330
36
100
AcDbEntity
  8
Planrahmen
  6
CONTINUOUS
 62
     7
370
     0
100
AcDbPolyline
 90
       23
 70
   129
 10
68.83585000000004
 20
123.89063000000003
 10
68.40540000000000
 20
124.52296000000004
 10
68.06085000000000
 20
124.52296000000004
 10
68.06085000000000
 20
123.89063000000003
 10
67.93230000000000
 20
123.89063000000003
 10
67.93230000000000
 20
125.33050000000004
 10
68.37505000000004
 20
125.33050000000004
 10
68.42545000000006
 20
125.33050000000004
 10
68.57710000000000
 20
125.32345000000002
 10
68.71900000000002
 20
125.29470000000003
 10
68.74420000000004
 20
125.28385000000003
 10
68.77320000000003
 20
125.27165000000004
 10
68.88960000000004
 20
125.15500000000004
 10
68.94795000000003
 20
124.98872000000003
 10
68.94795000000003
 20
124.93312000000003
 10
68.94795000000003
 20
124.89514000000004
 10
68.92135000000005
 20
124.78066500000004
 10
68.84350000000001
 20
124.66184500000001
 10
68.71570000000004
 20
124.57965500000003
 10
68.58470000000006
 20
124.54222000000003
 10
68.54045000000004
 20
124.53733500000003
 10
68.99510000000004
 20
123.89063000000003
 10
68.83585000000004
 20
123.89063000000003
  0
LWPOLYLINE
  5
376
330
36
100
AcDbEntity
  8
Planrahmen
  6
CONTINUOUS
 62
     7
370
     0
100
AcDbPolyline
 90
       13
 70
   129
 10
69.26640000000000
 20
123.89063000000003
 10
69.26640000000000
 20
125.33050000000004
 10
70.18245000000000
 20
125.33050000000004
 10
70.18245000000000
 20
125.21250000000003
 10
69.39710000000004
 20
125.21250000000003
 10
69.39710000000004
 20
124.69196000000001
 10
70.11115000000001
 20
124.69196000000001
 10
70.11115000000001
 20
124.57396000000004
 10
69.39710000000004
 20
124.57396000000004
 10
69.39710000000004
 20
124.00864000000003
 10
70.23130000000005
 20
124.00864000000003
 10
70.23130000000005
 20
123.89063000000003
 10
69.26640000000000
 20
123.89063000000003
  0
LWPOLYLINE
  5
377
330
36
100
AcDbEntity
  8
Planrahmen
  6
CONTINUOUS
 62
     7
370
     0
100
AcDbPolyline
 90
       31
 70
   129
 10
71.47530000000002
 20
123.89063000000003
 10
71.37954999999995
 20
124.03495000000002
 10
71.09280000000007
 20
124.46789000000003
 10
70.86035000000001
 20
124.81945000000002
 10
70.72745000000002
 20
125.02399500000003
 10
70.66369999999999
 20
125.12515000000005
 10
70.64335000000000
 20
125.15910000000002
 10
70.64364999999995
 20
125.13140000000003
 10
70.64470000000000
 20
125.04785000000004
 10
70.64605000000002
 20
124.84929000000002
 10
70.64685000000004
 20
124.48878000000002
 10
70.64740000000002
 20
124.04037500000004
 10
70.64740000000002
 20
123.89063000000003
 10
70.52290000000005
 20
123.89063000000003
 10
70.52290000000005
 20
125.33050000000004
 10
70.67184999999998
 20
125.33050000000004
 10
70.77030000000006
 20
125.18135000000002
 10
71.06599999999996
 20
124.73264500000003
 10
71.30010000000009
 20
124.37647000000004
 10
71.42674999999998
 20
124.18089000000002
 10
71.48209999999999
 20
124.09354000000003
 10
71.50025000000004
 20
124.06424500000004
 10
71.49919999999999
 20
124.09842500000003
 10
71.49729999999998
 20
124.20096500000002
 10
71.49510000000004
 20
124.41364000000002
 10
71.49404999999997
 20
124.76819000000003
 10
71.49380000000005
 20
125.19000000000003
 10
71.49380000000005
 20
125.33050000000004
 10
71.62045000000006
 20
125.33050000000004
 10
71.62045000000006
 20
123.89063000000003
 10
71.47530000000002
 20
123.89063000000003
  0
LWPOLYLINE
  5
378
330
36
100
AcDbEntity
  8
Planrahmen
  6
CONTINUOUS
 62
     7
370
     0
100
AcDbPolyline
 90
       31
 70
   129
 10
72.96050000000010
 20
123.89063000000003
 10
72.86475000000003
 20
124.03495000000002
 10
72.57800000000003
 20
124.46789000000003
 10
72.34525000000002
 20
124.81945000000002
 10
72.21230000000000
 20
125.02399500000003
 10
72.14854999999997
 20
125.12515000000005
 10
72.12819999999998
 20
125.15910000000002
 10
72.12850000000005
 20
125.13140000000003
 10
72.12960000000001
 20
125.04785000000004
 10
72.13100000000006
 20
124.84929000000002
 10
72.13175000000005
 20
124.48878000000002
 10
72.13230000000004
 20
124.04037500000004
 10
72.13230000000004
 20
123.89063000000003
 10
72.00810000000001
 20
123.89063000000003
 10
72.00810000000001
 20
125.33050000000004
 10
72.15705000000006
 20
125.33050000000004
 10
72.25545000000000
 20
125.18135000000002
 10
72.55115000000001
 20
124.73264500000003
 10
72.78495000000007
 20
124.37647000000004
 10
72.91195000000006
 20
124.18089000000002
 10
72.96705000000003
 20
124.09354000000003
 10
72.98515000000005
 20
124.06424500000004
 10
72.98410000000011
 20
124.09842500000003
 10
72.98220000000011
 20
124.20096500000002
 10
72.98030000000011
 20
124.41364000000002
 10
72.97920000000002
 20
124.76819000000003
 10
72.97889999999995
 20
125.19000000000003
 10
72.97889999999995
 20
125.33050000000004
 10
73.10534999999996
 20
125.33050000000004
 10
73.10534999999996
 20
123.89063000000003
 10
72.96050000000010
 20
123.89063000000003
  0
LWPOLYLINE
  5
379
330
36
100
AcDbEntity
  8
Planrahmen
  6
CONTINUOUS
 62
     7
370
     0
100
AcDbPolyline
 90
       13
 70
   129
 10
73.49355000000001
 20
123.89063000000003
 10
73.49355000000001
 20
125.33050000000004
 10
74.40935000000005
 20
125.33050000000004
 10
74.40935000000005
 20
125.21250000000003
 10
73.62405000000005
 20
125.21250000000003
 10
73.62405000000005
 20
124.69196000000001
 10
74.33775000000009
 20
124.69196000000001
 10
74.33775000000009
 20
124.57396000000004
 10
73.62405000000005
 20
124.57396000000004
 10
73.62405000000005
 20
124.00864000000003
 10
74.45815000000000
 20
124.00864000000003
 10
74.45815000000000
 20
123.89063000000003
 10
73.49355000000001
 20
123.89063000000003
  0
LWPOLYLINE
  5
37A
330
36
100
AcDbEntity
  8
Planrahmen
  6
CONTINUOUS
 62
     7
370
     0
100
AcDbPolyline
 90
       31
 70
   129
 10
75.70275000000004
 20
123.89063000000003
 10
75.60694999999996
 20
124.03495000000002
 10
75.32024999999997
 20
124.46789000000003
 10
75.08755000000001
 20
124.81945000000002
 10
74.95459999999999
 20
125.02399500000003
 10
74.89085000000006
 20
125.12515000000005
 10
74.87050000000006
 20
125.15910000000002
 10
74.87080000000002
 20
125.13140000000003
 10
74.87184999999997
 20
125.04785000000004
 10
74.87319999999997
 20
124.84929000000002
 10
74.87405000000003
 20
124.48878000000002
 10
74.87454999999999
 20
124.04037500000004
 10
74.87454999999999
 20
123.89063000000003
 10
74.75030000000005
 20
123.89063000000003
 10
74.75030000000005
 20
125.33050000000004
 10
74.89924999999997
 20
125.33050000000004
 10
74.99774999999997
 20
125.18135000000002
 10
75.29345000000009
 20
124.73264500000003
 10
75.52725000000004
 20
124.37647000000004
 10
75.65390000000005
 20
124.18089000000002
 10
75.70900000000003
 20
124.09354000000003
 10
75.72720000000011
 20
124.06424500000004
 10
75.72604999999999
 20
124.09842500000003
 10
75.72420000000003
 20
124.20096500000002
 10
75.72224999999999
 20
124.41364000000002
 10
75.72120000000004
 20
124.76819000000003
 10
75.72095000000012
 20
125.19000000000003
 10
75.72095000000012
 20
125.33050000000004
 10
75.84760000000001
 20
125.33050000000004
 10
75.84760000000001
 20
123.89063000000003
 10
75.70275000000004
 20
123.89063000000003
  0
LWPOLYLINE
  5
37B
330
36
100
AcDbEntity
  8
Planrahmen
  6
CONTINUOUS
 62
     7
370
     0
100
AcDbPolyline
 90
       11
 70
   129
 10
76.68010000000002
 20
123.89063000000003
 10
76.68010000000002
 20
125.33050000000004
 10
77.59594999999997
 20
125.33050000000004
 10
77.59594999999997
 20
125.21250000000003
 10
76.81060000000007
 20
125.21250000000003
 10
76.81060000000007
 20
124.71284500000004
 10
77.51615000000001
 20
124.71284500000004
 10
77.51615000000001
 20
124.59240500000004
 10
76.81060000000007
 20
124.59240500000004
 10
76.81060000000007
 20
123.89063000000003
 10
76.68010000000002
 20
123.89063000000003
  0
LWPOLYLINE
  5
37C
330
36
100
AcDbEntity
  8
Planrahmen
  6
CONTINUOUS
 62
     7
370
     0
100
AcDbPolyline
 90
        5
 70
   129
 10
78.59935000000007
 20
125.63025000000002
 10
78.71760000000005
 20
125.63025000000002
 10
78.71760000000005
 20
125.46265000000004
 10
78.59935000000007
 20
125.46265000000004
 10
78.59935000000007
 20
125.63025000000002
  0
LWPOLYLINE
  5
37D
330
36
100
AcDbEntity
  8
Planrahmen
  6
CONTINUOUS
 62
     7
370
     0
100
AcDbPolyline
 90
        5
 70
   129
 10
78.11760000000001
 20
125.63025000000002
 10
78.23800000000003
 20
125.63025000000002
 10
78.23800000000003
 20
125.46265000000004
 10
78.11760000000001
 20
125.46265000000004
 10
78.11760000000001
 20
125.63025000000002
  0
LWPOLYLINE
  5
37E
330
36
100
AcDbEntity
  8
Planrahmen
  6
CONTINUOUS
 62
     7
370
     0
100
AcDbPolyline
 90
       39
 70
   129
 10
78.94224999999999
 20
124.52893000000003
 10
78.94224999999999
 20
124.45650000000002
 10
78.92434999999998
 20
124.23840500000001
 10
78.87169999999999
 20
124.08188000000003
 10
78.85434999999995
 20
124.05556500000003
 10
78.83289999999998
 20
124.02409500000003
 10
78.67720000000011
 20
123.91261000000003
 10
78.47650000000006
 20
123.86405000000003
 10
78.40975000000006
 20
123.86405000000003
 10
78.34379999999996
 20
123.86405000000003
 10
78.14660000000006
 20
123.91559000000005
 10
77.99195000000003
 20
124.03061000000001
 10
77.97134999999999
 20
124.06234500000005
 10
77.95240000000003
 20
124.09083500000004
 10
77.90105000000003
 20
124.25657500000003
 10
77.88755000000003
 20
124.45677000000002
 10
77.88755000000003
 20
124.52323000000004
 10
77.88755000000003
 20
125.33050000000004
 10
78.01615000000007
 20
125.33050000000004
 10
78.01615000000007
 20
124.44537500000003
 10
78.01615000000007
 20
124.40306500000003
 10
78.03050000000000
 20
124.27610500000003
 10
78.07065000000002
 20
124.15621000000002
 10
78.08335000000011
 20
124.13505000000002
 10
78.09855000000010
 20
124.11009000000003
 10
78.21550000000011
 20
124.02030000000002
 10
78.36440000000000
 20
123.98042500000003
 10
78.41405000000002
 20
123.98042500000003
 10
78.46230000000010
 20
123.98042500000003
 10
78.60775000000008
 20
124.01406000000003
 10
78.72740000000012
 20
124.09924500000002
 10
78.74634999999996
 20
124.12500500000003
 10
78.76099999999997
 20
124.14535500000004
 10
78.80224999999996
 20
124.27068000000001
 10
78.81389999999999
 20
124.40658500000004
 10
78.81389999999999
 20
124.45162000000003
 10
78.81389999999999
 20
125.33050000000004
 10
78.94224999999999
 20
125.33050000000004
 10
78.94224999999999
 20
124.52893000000003
  0
LWPOLYLINE
  5
37F
330
36
100
AcDbEntity
  8
Planrahmen
  6
CONTINUOUS
 62
     7
370
     0
100
AcDbPolyline
 90
       20
 70
   129
 10
79.79315000000008
 20
124.63933500000005
 10
79.84280000000010
 20
124.63933500000005
 10
79.99175000000014
 20
124.65914000000002
 10
80.10890000000003
 20
124.70850500000002
 10
80.12549999999996
 20
124.72315500000003
 10
80.13959999999997
 20
124.73590500000003
 10
80.18844999999996
 20
124.81348500000003
 10
80.20935000000007
 20
124.90625500000002
 10
80.20935000000007
 20
124.93691500000004
 10
80.20935000000007
 20
124.96946500000003
 10
80.18274999999997
 20
125.06630000000004
 10
80.11924999999998
 20
125.14930000000004
 10
80.10079999999996
 20
125.16150000000003
 10
80.08345000000006
 20
125.17375000000003
 10
79.97275000000003
 20
125.20630000000001
 10
79.83795000000005
 20
125.21440000000003
 10
79.79315000000008
 20
125.21440000000003
 10
79.45815000000012
 20
125.21440000000003
 10
79.45815000000012
 20
124.63933500000005
 10
79.79315000000008
 20
124.63933500000005
  0
LWPOLYLINE
  5
380
330
36
100
AcDbEntity
  8
Planrahmen
  6
CONTINUOUS
 62
     7
370
     0
100
AcDbPolyline
 90
       23
 70
   129
 10
80.23315000000008
 20
123.89063000000003
 10
79.80295000000004
 20
124.52296000000004
 10
79.45815000000012
 20
124.52296000000004
 10
79.45815000000012
 20
123.89063000000003
 10
79.33010000000007
 20
123.89063000000003
 10
79.33010000000007
 20
125.33050000000004
 10
79.77280000000009
 20
125.33050000000004
 10
79.82330000000005
 20
125.33050000000004
 10
79.97470000000007
 20
125.32345000000002
 10
80.11655000000006
 20
125.29470000000003
 10
80.14175000000002
 20
125.28385000000003
 10
80.17079999999999
 20
125.27165000000004
 10
80.28720000000000
 20
125.15500000000004
 10
80.34569999999997
 20
124.98872000000003
 10
80.34569999999997
 20
124.93312000000003
 10
80.34569999999997
 20
124.89514000000004
 10
80.31920000000004
 20
124.78066500000004
 10
80.24105000000003
 20
124.66184500000001
 10
80.11299999999999
 20
124.57965500000003
 10
79.98194999999997
 20
124.54222000000003
 10
79.93775000000002
 20
124.53733500000003
 10
80.39240000000002
 20
123.89063000000003
 10
80.23315000000008
 20
123.89063000000003
  0
LWPOLYLINE
  5
381
330
36
100
AcDbEntity
  8
Planrahmen
  6
CONTINUOUS
 62
     7
370
     0
100
AcDbPolyline
 90
       25
 70
   129
 10
81.66140000000010
 20
125.24100000000001
 10
81.61120000000011
 20
125.24100000000001
 10
81.46120000000001
 20
125.19840000000001
 10
81.30979999999998
 20
125.07610000000003
 10
81.21380000000011
 20
124.88401500000003
 10
81.18045000000006
 20
124.69440500000003
 10
81.18045000000006
 20
124.63119500000002
 10
81.18045000000006
 20
124.56392500000004
 10
81.21460000000013
 20
124.36128500000001
 10
81.31279999999997
 20
124.15702000000003
 10
81.46745000000000
 20
124.02762500000003
 10
81.62045000000006
 20
123.98232500000003
 10
81.67140000000006
 20
123.98232500000003
 10
81.71920000000010
 20
123.98232500000003
 10
81.86265000000003
 20
124.02518000000003
 10
82.00865000000002
 20
124.14780000000003
 10
82.10195000000009
 20
124.34311000000004
 10
82.13475000000004
 20
124.53788000000002
 10
82.13475000000004
 20
124.60271500000003
 10
82.13475000000004
 20
124.67025500000003
 10
82.10170000000005
 20
124.87208500000001
 10
82.00755000000004
 20
125.07255000000004
 10
81.85834999999997
 20
125.19790000000003
 10
81.71050000000012
 20
125.24100000000001
 10
81.66140000000010
 20
125.24100000000001
  0
LWPOLYLINE
  5
382
330
36
100
AcDbEntity
  8
Planrahmen
  6
CONTINUOUS
 62
     7
370
     0
100
AcDbPolyline
 90
       30
 70
   129
 10
82.38164999999997
 20
123.79487500000002
 10
82.29615000000001
 20
123.70916000000001
 10
81.99400000000001
 20
123.95980500000003
 10
81.97280000000006
 20
123.94462000000003
 10
81.84774999999999
 20
123.88928000000001
 10
81.71105000000011
 20
123.86432000000002
 10
81.66570000000006
 20
123.86432000000002
 10
81.59925000000013
 20
123.86432000000002
 10
81.40045000000006
 20
123.92020000000004
 10
81.20510000000003
 20
124.07645000000004
 10
81.08470000000001
 20
124.31680000000003
 10
81.04345000000002
 20
124.54791500000003
 10
81.04345000000002
 20
124.62469000000003
 10
81.04345000000002
 20
124.70091000000002
 10
81.08634999999997
 20
124.92878000000005
 10
81.20975000000009
 20
125.15935000000003
 10
81.40559999999996
 20
125.30585000000002
 10
81.60065000000004
 20
125.35710000000003
 10
81.66570000000006
 20
125.35710000000003
 10
81.73355000000004
 20
125.35710000000003
 10
81.93780000000005
 20
125.29690000000001
 10
82.12690000000011
 20
125.13330000000003
 10
82.23730000000006
 20
124.89269500000002
 10
82.27335000000002
 20
124.67378500000004
 10
82.27335000000002
 20
124.60081000000004
 10
82.27335000000002
 20
124.52187500000002
 10
82.22650000000009
 20
124.28478500000003
 10
82.11470000000010
 20
124.07537000000005
 10
82.08210000000004
 20
124.03956500000004
 10
82.38164999999997
 20
123.79487500000002
  0
LWPOLYLINE
  5
383
330
36
100
AcDbEntity
  8
Planrahmen
  6
CONTINUOUS
 62
     7
370
     0
100
AcDbPolyline
 90
       39
 70
   129
 10
83.65685000000001
 20
124.52920000000003
 10
83.65685000000001
 20
124.45650000000002
 10
83.63890000000006
 20
124.23840500000001
 10
83.58635000000002
 20
124.08188000000003
 10
83.56920000000001
 20
124.05584000000003
 10
83.54780000000007
 20
124.02437000000002
 10
83.39210000000008
 20
123.91261000000003
 10
83.19135000000000
 20
123.86405000000003
 10
83.12459999999999
 20
123.86405000000003
 10
83.05870000000004
 20
123.86405000000003
 10
82.86150000000004
 20
123.91586000000001
 10
82.70659999999997
 20
124.03061000000001
 10
82.68600000000004
 20
124.06207500000002
 10
82.66695000000001
 20
124.09083500000004
 10
82.61570000000008
 20
124.25657500000003
 10
82.60245000000010
 20
124.45623000000002
 10
82.60245000000010
 20
124.52268500000002
 10
82.60245000000010
 20
125.33080000000001
 10
82.73045000000001
 20
125.33080000000001
 10
82.73045000000001
 20
124.44510500000003
 10
82.73045000000001
 20
124.40278500000004
 10
82.74510000000001
 20
124.27583500000003
 10
82.78550000000007
 20
124.15621000000002
 10
82.79829999999998
 20
124.13505000000002
 10
82.81349999999998
 20
124.11036000000003
 10
82.93010000000011
 20
124.02057000000002
 10
83.07905000000004
 20
123.98042500000003
 10
83.12870000000005
 20
123.98042500000003
 10
83.17695000000002
 20
123.98042500000003
 10
83.32210000000006
 20
124.01406000000003
 10
83.44225000000004
 20
124.09951500000003
 10
83.46130000000007
 20
124.12528500000003
 10
83.47595000000007
 20
124.14562500000004
 10
83.51690000000012
 20
124.27095000000001
 10
83.52855000000004
 20
124.40685500000004
 10
83.52855000000004
 20
124.45189000000003
 10
83.52855000000004
 20
125.33080000000001
 10
83.65685000000001
 20
125.33080000000001
 10
83.65685000000001
 20
124.52920000000003
  0
LWPOLYLINE
  5
384
330
36
100
AcDbEntity
  8
Planrahmen
  6
CONTINUOUS
 62
     7
370
     0
100
AcDbPolyline
 90
       14
 70
   129
 10
84.78670000000010
 20
124.42313000000001
 10
84.75710000000002
 20
124.50261000000003
 10
84.66890000000005
 20
124.74051500000002
 10
84.59160000000010
 20
124.94912000000002
 10
84.54140000000010
 20
125.08665000000002
 10
84.51379999999998
 20
125.16450000000003
 10
84.50510000000000
 20
125.19030000000004
 10
84.49614999999999
 20
125.16450000000003
 10
84.46850000000006
 20
125.08745000000002
 10
84.41745000000000
 20
124.94884500000003
 10
84.33880000000005
 20
124.73916000000004
 10
84.24925000000005
 20
124.50207000000002
 10
84.21945000000008
 20
124.42313000000001
 10
84.78670000000010
 20
124.42313000000001
  0
LWPOLYLINE
  5
385
330
36
100
AcDbEntity
  8
Planrahmen
  6
CONTINUOUS
 62
     7
370
     0
100
AcDbPolyline
 90
        9
 70
   129
 10
84.97870000000008
 20
123.89091000000002
 10
84.82765000000003
 20
124.31082500000004
 10
84.17685000000007
 20
124.31082500000004
 10
84.02410000000005
 20
123.89091000000002
 10
83.88095000000007
 20
123.89091000000002
 10
84.44220000000013
 20
125.33050000000004
 10
84.57670000000006
 20
125.33050000000004
 10
85.12140000000012
 20
123.89091000000002
 10
84.97870000000008
 20
123.89091000000002
  0
LWPOLYLINE
  5
386
330
36
100
AcDbEntity
  8
Planrahmen
  6
CONTINUOUS
 62
     7
370
     0
100
AcDbPolyline
 90
        7
 70
   129
 10
85.34600000000003
 20
123.89063000000003
 10
85.34600000000003
 20
125.33050000000004
 10
85.47405000000008
 20
125.33050000000004
 10
85.47405000000008
 20
124.00864000000003
 10
86.24120000000002
 20
124.00864000000003
 10
86.24120000000002
 20
123.89063000000003
 10
85.34600000000003
 20
123.89063000000003
  0
LWPOLYLINE
  5
387
330
36
100
AcDbEntity
  8
Planrahmen
  6
CONTINUOUS
 62
     7
370
     0
100
AcDbPolyline
 90
        5
 70
   129
 10
86.52280000000012
 20
125.33050000000004
 10
86.65105000000006
 20
125.33050000000004
 10
86.65105000000006
 20
123.89063000000003
 10
86.52280000000012
 20
123.89063000000003
 10
86.52280000000012
 20
125.33050000000004
  0
LWPOLYLINE
  5
388
330
36
100
AcDbEntity
  8
Planrahmen
  6
CONTINUOUS
 62
     7
370
     0
100
AcDbPolyline
 90
        9
 70
   129
 10
87.36940000000004
 20
123.89063000000003
 10
87.36940000000004
 20
125.21250000000003
 10
86.92915000000012
 20
125.21250000000003
 10
86.92915000000012
 20
125.33050000000004
 10
87.94475000000001
 20
125.33050000000004
 10
87.94475000000001
 20
125.21250000000003
 10
87.50205000000000
 20
125.21250000000003
 10
87.50205000000000
 20
123.89063000000003
 10
87.36940000000004
 20
123.89063000000003
  0
LWPOLYLINE
  5
389
330
36
100
AcDbEntity
  8
Planrahmen
  6
CONTINUOUS
 62
     7
370
     0
100
AcDbPolyline
 90
        5
 70
   129
 10
88.86630000000007
 20
125.63025000000002
 10
88.98425000000010
 20
125.63025000000002
 10
88.98425000000010
 20
125.46265000000004
 10
88.86630000000007
 20
125.46265000000004
 10
88.86630000000007
 20
125.63025000000002
  0
LWPOLYLINE
  5
38A
330
36
100
AcDbEntity
  8
Planrahmen
  6
CONTINUOUS
 62
     7
370
     0
100
AcDbPolyline
 90
       14
 70
   129
 10
88.96635000000008
 20
124.42286000000003
 10
88.93705000000007
 20
124.50234000000002
 10
88.84864999999998
 20
124.74051500000002
 10
88.77135000000003
 20
124.94912000000002
 10
88.72115000000014
 20
125.08640000000001
 10
88.69350000000009
 20
125.16425000000002
 10
88.68480000000012
 20
125.19000000000003
 10
88.67585000000011
 20
125.16425000000002
 10
88.64815000000003
 20
125.08720000000004
 10
88.59720000000004
 20
124.94857500000003
 10
88.51850000000006
 20
124.73889000000001
 10
88.42899999999997
 20
124.50180000000002
 10
88.39910000000006
 20
124.42286000000003
 10
88.96635000000008
 20
124.42286000000003
  0
LWPOLYLINE
  5
38B
330
36
100
AcDbEntity
  8
Planrahmen
  6
CONTINUOUS
 62
     7
370
     0
100
AcDbPolyline
 90
        5
 70
   129
 10
88.38505000000008
 20
125.63025000000002
 10
88.50545000000010
 20
125.63025000000002
 10
88.50545000000010
 20
125.46265000000004
 10
88.38505000000008
 20
125.46265000000004
 10
88.38505000000008
 20
125.63025000000002
  0
LWPOLYLINE
  5
38C
330
36
100
AcDbEntity
  8
Planrahmen
  6
CONTINUOUS
 62
     7
370
     0
100
AcDbPolyline
 90
        9
 70
   129
 10
89.15870000000014
 20
123.89091000000002
 10
89.00730000000011
 20
124.31082500000004
 10
88.35654999999997
 20
124.31082500000004
 10
88.20385000000009
 20
123.89091000000002
 10
88.06060000000004
 20
123.89091000000002
 10
88.62185000000011
 20
125.33050000000004
 10
88.75640000000007
 20
125.33050000000004
 10
89.30084999999998
 20
123.89091000000002
 10
89.15870000000014
 20
123.89091000000002
  0
LWPOLYLINE
  5
38D
330
36
100
AcDbEntity
  8
Planrahmen
  6
CONTINUOUS
 62
     7
370
     0
100
AcDbPolyline
 90
        9
 70
   129
 10
89.85585000000008
 20
123.89063000000003
 10
89.85585000000008
 20
125.21250000000003
 10
89.41585000000008
 20
125.21250000000003
 10
89.41585000000008
 20
125.33050000000004
 10
90.43150000000011
 20
125.33050000000004
 10
90.43150000000011
 20
125.21250000000003
 10
89.98880000000008
 20
125.21250000000003
 10
89.98880000000008
 20
123.89063000000003
 10
89.85585000000008
 20
123.89063000000003
  0
LWPOLYLINE
  5
38E
330
36
100
AcDbEntity
  8
Planrahmen
  6
CONTINUOUS
 62
    20
370
     0
100
AcDbPolyline
 90
       21
 70
   129
 10
44.30544500000000
 20
138.50000000000003
 10
44.30544500000000
 20
132.48435000000006
 10
47.74295000000001
 20
132.48435000000006
 10
47.74295000000001
 20
135.06275000000002
 10
51.18044999999999
 20
135.06275000000002
 10
51.18044999999999
 20
127.32785000000004
 10
47.74295000000001
 20
127.32785000000004
 10
47.74295000000001
 20
129.90595000000002
 10
44.30544500000000
 20
129.90595000000002
 10
44.30544500000000
 20
123.89063000000003
 10
58.91479999999999
 20
123.89063000000003
 10
58.91479999999999
 20
129.90595000000002
 10
55.47760000000002
 20
129.90595000000002
 10
55.47760000000002
 20
127.32785000000004
 10
52.03954999999999
 20
127.32785000000004
 10
52.03954999999999
 20
135.06275000000002
 10
55.47760000000002
 20
135.06275000000002
 10
55.47760000000002
 20
132.48435000000006
 10
58.91479999999999
 20
132.48435000000006
 10
58.91479999999999
 20
138.50000000000003
 10
44.30544500000000
 20
138.50000000000003
  0
ENDBLK
  5
38F
330
36
100
AcDbEntity
  8
0
100
AcDbBlockEnd
  0
BLOCK
  5
390
330
37
100
AcDbEntity
  8
0
100
AcDbBlockBegin
  2
*U32
 70
     1
 10
0.00000000000000
 20
0.00000000000000
 30
0.00000000000000
  3
*U32
  1

  0
MTEXT
  5
391
330
37
100
AcDbEntity
  8
Planrahmen
 62
     7
370
    25
100
AcDbMText
 10
60.00000000000033
 20
68.50000000000040
 30
0.00000000000000
 40
2.50000000000000
 41
0.00000000000000
 71
     7
 72
     1
  1
\fArial|b0|i0;Stand:\PMassstab:
 11
1.00000000000000
 21
0.00000000000000
 31
0.00000000000000
 73
     1
 44
1.00000000000000
  0
MTEXT
  5
392
330
37
100
AcDbEntity
  8
Planrahmen
 62
     7
370
    25
100
AcDbMText
 10
95.00000000000026
 20
68.50000000000028
 30
0.00000000000000
 40
2.50000000000000
 41
0.00000000000000
 71
     9
 72
     1
  1
\fArial|b0|i0;02/2021\P1:5
 11
1.00000000000000
 21
0.00000000000000
 31
0.00000000000000
 73
     1
 44
1.00000000000000
  0
ENDBLK
  5
393
330
37
100
AcDbEntity
  8
0
100
AcDbBlockEnd
  0
ENDSEC
  0
SECTION
  2
ENTITIES
  0
SOLID
  5
394
330
39
100
AcDbEntity
  8
Zeichnung 5
 62
     2
100
AcDbTrace
 10
31.50000000000014
 20
-23.49999999999922
 30
0.00000000000000
 11
31.50000000000014
 21
-3.49999999999926
 31
0.00000000000000
 12
-16.49999999999992
 22
-23.49999999999921
 32
0.00000000000000
 13
-16.49999999999991
 23
-3.49999999999925
 33
0.00000000000000
  0
HATCH
  5
395
330
39
100
AcDbEntity
  8
Zeichnung 5
 62
     7
100
AcDbHatch
 10
0.00000000000000
 20
0.00000000000000
 30
0.00000000000000
210
0.00000000000000
220
0.00000000000000
230
1.00000000000000
  2
SOLID
 70
     1
 71
     0
 91
        1
 92
        0
 93
        9
 72
     1
 10
-37.49999999999982
 20
-3.49999999999925
 11
-16.49999999999991
 21
-3.49999999999925
 72
     1
 10
-16.49999999999991
 20
-3.49999999999925
 11
-16.49999999999990
 21
-52.24999999999905
 72
     2
 10
-19.74999999999972
 20
-52.24999999999905
 40
3.24999999999998
 50
0.00000000000000
 51
32.94913721415495
 73
     0
 72
     1
 10
-17.02275039028741
 20
-54.01765651819594
 11
-17.02351196806688
 21
-54.01763549515894
 72
     2
 10
-19.02275039028736
 20
-53.96244735225334
 40
2.00000000000000
 50
358.41877545683042
 51
494.99999999999926
 73
     1
 72
     1
 10
-20.43696395266044
 20
-52.54823378988021
 11
-22.74436508138989
 21
-54.85563491860965
 72
     2
 10
-24.29999999999991
 20
-53.29999999999962
 40
2.19999999999945
 50
45.00000000000040
 51
90.00000000000000
 73
     0
 72
     1
 10
-24.29999999999991
 20
-55.49999999999906
 11
-37.49999999999964
 21
-55.49999999999903
 72
     1
 10
-37.49999999999964
 20
-55.49999999999903
 11
-37.49999999999982
 21
-3.49999999999925
 97
        0
 75
     0
 76
     0
 98
        1
 10
0.00000000000000
 20
0.00000000000000
  0
INSERT
  5
3B
330
39
100
AcDbEntity
  8
Zeichnung 5
 62
     5
370
    25
100
AcDbBlockReference
  2
*U1
 10
0.00000000000000
 20
0.00000000000000
 30
0.00000000000000
  0
HATCH
  5
396
330
39
100
AcDbEntity
  8
Zeichnung 5
 62
     7
100
AcDbHatch
 10
0.00000000000000
 20
0.00000000000000
 30
0.00000000000000
210
0.00000000000000
220
0.00000000000000
230
1.00000000000000
  2
SOLID
 70
     1
 71
     0
 91
        1
 92
        0
 93
        9
 72
     1
 10
52.50000000000004
 20
-3.49999999999926
 11
31.50000000000013
 21
-3.49999999999926
 72
     1
 10
31.50000000000013
 20
-3.49999999999926
 11
31.50000000000012
 21
-52.24999999999905
 72
     2
 10
34.74999999999993
 20
-52.24999999999905
 40
3.24999999999998
 50
180.00000000000000
 51
212.94913721415494
 73
     1
 72
     1
 10
32.02275039028762
 20
-54.01765651819594
 11
32.02351196806710
 21
-54.01763549515894
 72
     2
 10
34.02275039028757
 20
-53.96244735225334
 40
2.00000000000000
 50
178.41877545683047
 51
314.99999999999932
 73
     0
 72
     1
 10
35.43696395266066
 20
-52.54823378988021
 11
37.74436508139010
 21
-54.85563491860965
 72
     2
 10
39.30000000000011
 20
-53.29999999999962
 40
2.19999999999945
 50
225.00000000000040
 51
270.00000000000000
 73
     1
 72
     1
 10
39.30000000000011
 20
-55.49999999999906
 11
52.49999999999985
 21
-55.49999999999903
 72
     1
 10
52.49999999999985
 20
-55.49999999999903
 11
52.50000000000004
 21
-3.49999999999926
 97
        0
 75
     0
 76
     0
 98
        1
 10
0.00000000000000
 20
0.00000000000000
  0
HATCH
  5
397
330
39
100
AcDbEntity
  8
Zeichnung 5
 62
     7
370
     9
100
AcDbHatch
 10
0.00000000000000
 20
0.00000000000000
 30
0.00000000000000
210
0.00000000000000
220
0.00000000000000
230
1.00000000000000
  2
SCHRAFFUR
 70
     0
 71
     0
 91
        1
 92
        0
 93
        4
 72
     1
 10
52.50000000000021
 20
-15.49999999999940
 11
52.50000000000004
 21
-3.49999999999930
 72
     1
 10
52.50000000000004
 20
-3.49999999999930
 11
92.99999999999926
 21
-3.49999999999926
 72
     1
 10
92.99999999999926
 20
-3.49999999999926
 11
92.99999999999926
 21
-15.49999999999940
 72
     1
 10
92.99999999999926
 20
-15.49999999999940
 11
52.50000000000021
 21
-15.49999999999940
 97
        0
 75
     0
 76
     0
 52
90.00000000000000
 41
1.00000000000000
 77
     0
 78
     1
 53
90.00000000000000
 43
-1244.91577015120040
 44
462.98874235961841
 45
-5.00000000000000
 46
0.00000000000000
 79
     0
 98
        1
 10
0.00000000000000
 20
0.00000000000000
  0
HATCH
  5
398
330
39
100
AcDbEntity
  8
Zeichnung 5
 62
     7
370
     9
100
AcDbHatch
 10
0.00000000000000
 20
0.00000000000000
 30
0.00000000000000
210
0.00000000000000
220
0.00000000000000
230
1.00000000000000
  2
SCHRAFFUR
 70
     0
 71
     0
 91
        1
 92
        0
 93
        4
 72
     1
 10
-77.99999999999923
 20
-15.49999999999940
 11
-77.99999999999869
 21
-3.49999999999921
 72
     1
 10
-77.99999999999869
 20
-3.49999999999921
 11
-37.49999999999982
 21
-3.49999999999930
 72
     1
 10
-37.49999999999982
 20
-3.49999999999930
 11
-37.49999999999982
 21
-15.49999999999940
 72
     1
 10
-37.49999999999982
 20
-15.49999999999940
 11
-77.99999999999923
 21
-15.49999999999940
 97
        0
 75
     0
 76
     0
 52
90.00000000000000
 41
1.00000000000000
 77
     0
 78
     1
 53
90.00000000000000
 43
-1244.91577015120040
 44
462.98874235961841
 45
-5.00000000000000
 46
0.00000000000000
 79
     0
 98
        1
 10
0.00000000000000
 20
0.00000000000000
  0
SOLID
  5
399
330
39
100
AcDbEntity
  8
Zeichnung 5
 62
   254
100
AcDbTrace
 10
-64.49999999999960
 20
11.30000000000089
 30
0.00000000000000
 11
-64.49999999999960
 21
6.30000000000046
 31
0.00000000000000
 12
79.50000000000000
 22
11.30000000000089
 32
0.00000000000000
 13
79.49999999999965
 23
6.30000000000046
 33
0.00000000000000
  0
SOLID
  5
39A
330
39
100
AcDbEntity
  8
Zeichnung 5
 62
     7
100
AcDbTrace
 10
-41.49999999999957
 20
6.30000000000046
 30
0.00000000000000
 11
-41.49999999999992
 21
-2.69999999999939
 31
0.00000000000000
 12
56.49999999999960
 22
6.30000000000046
 32
0.00000000000000
 13
56.49999999999888
 23
-2.69999999999948
 33
0.00000000000000
  0
SOLID
  5
39B
330
39
100
AcDbEntity
  8
Zeichnung 5
 62
    30
100
AcDbTrace
 10
-16.49999999999992
 20
-117.49999999999979
 30
0.00000000000000
 11
-16.49999999999992
 21
-105.49999999999980
 31
0.00000000000000
 12
31.49999999999995
 22
-117.49999999999979
 32
0.00000000000000
 13
31.49999999999995
 23
-105.49999999999980
 33
0.00000000000000
  0
HATCH
  5
39C
330
39
100
AcDbEntity
  8
Zeichnung 5
 62
     7
370
    18
100
AcDbHatch
 10
0.00000000000000
 20
0.00000000000000
 30
0.00000000000000
210
0.00000000000000
220
0.00000000000000
230
1.00000000000000
  2
SCHRAFFUR
 70
     0
 71
     0
 91
        1
 92
        0
 93
        4
 72
     1
 10
-16.49999999999992
 20
-117.49999999999979
 11
-16.49999999999992
 21
-105.49999999999980
 72
     1
 10
-16.49999999999992
 20
-105.49999999999980
 11
31.49999999999995
 21
-105.49999999999980
 72
     1
 10
31.49999999999995
 20
-105.49999999999980
 11
31.49999999999995
 21
-117.49999999999979
 72
     1
 10
31.49999999999995
 20
-117.49999999999979
 11
-16.49999999999992
 21
-117.49999999999979
 97
        0
 75
     0
 76
     0
 52
135.00000000000011
 41
1.00000000000000
 77
     0
 78
     1
 53
135.00000000000011
 43
-1173.00000000000020
 44
1075.69999999999980
 45
-2.82842712474618
 46
-2.82842712474620
 79
     0
 98
        1
 10
0.00000000000000
 20
0.00000000000000
  0
SOLID
  5
39D
330
39
100
AcDbEntity
  8
Zeichnung 5
 62
    30
100
AcDbTrace
 10
31.50000000000013
 20
-23.49999999999922
 30
0.00000000000000
 11
31.49999999999995
 21
-55.29999999999911
 31
0.00000000000000
 12
-16.49999999999992
 22
-23.49999999999922
 32
0.00000000000000
 13
-16.49999999999992
 23
-55.29999999999911
 33
0.00000000000000
  0
HATCH
  5
39E
330
39
100
AcDbEntity
  8
Zeichnung 5
 62
     7
370
    18
100
AcDbHatch
 10
0.00000000000000
 20
0.00000000000000
 30
0.00000000000000
210
0.00000000000000
220
0.00000000000000
230
1.00000000000000
  2
SCHRAFFUR
 70
     0
 71
     0
 91
        1
 92
        0
 93
        4
 72
     1
 10
31.50000000000013
 20
-23.49999999999922
 11
31.49999999999995
 21
-55.29999999999911
 72
     1
 10
31.49999999999995
 20
-55.29999999999911
 11
-16.49999999999992
 21
-55.29999999999911
 72
     1
 10
-16.49999999999992
 20
-55.29999999999911
 11
-16.49999999999992
 21
-23.49999999999922
 72
     1
 10
-16.49999999999992
 20
-23.49999999999922
 11
31.50000000000013
 21
-23.49999999999922
 97
        0
 75
     0
 76
     0
 52
135.00000000000011
 41
1.00000000000000
 77
     0
 78
     1
 53
135.00000000000011
 43
-1173.00000000000020
 44
1075.69999999999980
 45
-2.82842712474618
 46
-2.82842712474620
 79
     0
 98
        1
 10
0.00000000000000
 20
0.00000000000000
  0
SOLID
  5
39F
330
39
100
AcDbEntity
  8
Zeichnung 5
 62
    30
100
AcDbTrace
 10
31.49999999999995
 20
-55.49999999999975
 30
0.00000000000000
 11
31.49999999999995
 21
-105.29999999999912
 31
0.00000000000000
 12
-16.49999999999992
 22
-55.49999999999975
 32
0.00000000000000
 13
-16.49999999999992
 23
-105.29999999999912
 33
0.00000000000000
  0
HATCH
  5
3A0
330
39
100
AcDbEntity
  8
Zeichnung 5
 62
     7
370
    18
100
AcDbHatch
 10
0.00000000000000
 20
0.00000000000000
 30
0.00000000000000
210
0.00000000000000
220
0.00000000000000
230
1.00000000000000
  2
SCHRAFFUR
 70
     0
 71
     0
 91
        1
 92
        0
 93
        4
 72
     1
 10
31.49999999999995
 20
-55.49999999999975
 11
31.49999999999995
 21
-105.29999999999912
 72
     1
 10
31.49999999999995
 20
-105.29999999999912
 11
-16.49999999999992
 21
-105.29999999999912
 72
     1
 10
-16.49999999999992
 20
-105.29999999999912
 11
-16.49999999999992
 21
-55.49999999999975
 72
     1
 10
-16.49999999999992
 20
-55.49999999999975
 11
31.49999999999995
 21
-55.49999999999975
 97
        0
 75
     0
 76
     0
 52
135.00000000000011
 41
1.00000000000000
 77
     0
 78
     1
 53
135.00000000000011
 43
-1173.00000000000020
 44
1075.69999999999980
 45
-2.82842712474618
 46
-2.82842712474620
 79
     0
 98
        1
 10
0.00000000000000
 20
0.00000000000000
  0
MTEXT
  5
3A1
330
39
100
AcDbEntity
  8
Planrahmen
 62
     7
370
    50
100
AcDbMText
 10
-80.00000000000007
 20
138.50000000000006
 30
0.00000000000000
 40
5.00000000000000
 41
0.00000000000000
 71
     1
 72
     1
  1
\fArial|b0|i0;Detail TW-06.1\P\H0.7x;Oberer Abschluss Wohnungstrennwand\Pim Dachgeschoss
 11
1.00000000000000
 21
0.00000000000000
 31
0.00000000000000
 73
     1
 44
1.00000000000000
  0
HATCH
  5
3A2
330
39
100
AcDbEntity
  8
Zeichnung 5
 62
     7
370
     9
100
AcDbHatch
 10
0.00000000000000
 20
0.00000000000000
 30
0.00000000000000
210
0.00000000000000
220
0.00000000000000
230
1.00000000000000
  2
SCHRAFFUR
 70
     0
 71
     0
 91
        1
 92
        0
 93
        4
 72
     1
 10
92.99999999999926
 20
-62.29999999999902
 11
92.99999999999945
 21
-64.79999999999897
 72
     1
 10
92.99999999999945
 20
-64.79999999999897
 11
36.49999999999984
 21
-64.79999999999897
 72
     1
 10
36.49999999999984
 20
-64.79999999999897
 11
36.49999999999984
 21
-62.29999999999902
 72
     1
 10
36.49999999999984
 20
-62.29999999999902
 11
92.99999999999926
 21
-62.29999999999902
 97
        0
 75
     0
 76
     0
 52
90.00000000000000
 41
1.00000000000000
 77
     0
 78
     1
 53
90.00000000000000
 43
-296.41577015120527
 44
113.02874235961916
 45
-1.00000000000000
 46
0.00000000000000
 79
     0
 98
        1
 10
0.00000000000000
 20
0.00000000000000
  0
SOLID
  5
3A3
330
39
100
AcDbEntity
  8
Zeichnung 5
 62
     7
100
AcDbTrace
 10
88.49999999999999
 20
-55.49999999999891
 30
0.00000000000000
 11
88.49999999999999
 21
-56.29999999999909
 31
0.00000000000000
 12
83.50000000000009
 22
-55.49999999999891
 32
0.00000000000000
 13
83.50000000000009
 23
-56.29999999999909
 33
0.00000000000000
  0
SOLID
  5
3A4
330
39
100
AcDbEntity
  8
Zeichnung 5
 62
     7
100
AcDbTrace
 10
76.50000000000007
 20
-55.49999999999891
 30
0.00000000000000
 11
76.50000000000007
 21
-56.29999999999909
 31
0.00000000000000
 12
71.49999999999999
 22
-55.49999999999891
 32
0.00000000000000
 13
71.49999999999999
 23
-56.29999999999909
 33
0.00000000000000
  0
SOLID
  5
3A5
330
39
100
AcDbEntity
  8
Zeichnung 5
 62
     7
100
AcDbTrace
 10
64.49999999999996
 20
-55.49999999999891
 30
0.00000000000000
 11
64.49999999999996
 21
-56.29999999999909
 31
0.00000000000000
 12
59.49999999999989
 22
-55.49999999999908
 32
0.00000000000000
 13
59.49999999999989
 23
-56.29999999999909
 33
0.00000000000000
  0
SOLID
  5
3A6
330
39
100
AcDbEntity
  8
Zeichnung 5
 62
     7
100
AcDbTrace
 10
52.49999999999986
 20
-55.49999999999908
 30
0.00000000000000
 11
52.49999999999986
 21
-56.29999999999909
 31
0.00000000000000
 12
47.49999999999996
 22
-55.49999999999908
 32
0.00000000000000
 13
47.49999999999996
 23
-56.29999999999909
 33
0.00000000000000
  0
LINE
  5
3A7
330
39
100
AcDbEntity
  8
Zeichnung 5
  6
CONTINUOUS
 62
     7
370
    18
100
AcDbLine
 10
34.49999999999971
 20
-117.49999999999977
 30
0.00000000000000
 11
34.49999999999983
 21
-61.59999999999999
 31
0.00000000000000
  0
LINE
  5
3A8
330
39
100
AcDbEntity
  8
Zeichnung 5
  6
CONTINUOUS
 62
     7
370
    25
100
AcDbLine
 10
52.50000000000004
 20
-15.49999999999940
 30
0.00000000000000
 11
72.49999999999997
 21
-15.49999999999940
 31
0.00000000000000
  0
LINE
  5
3A9
330
39
100
AcDbEntity
  8
Zeichnung 5
  6
CONTINUOUS
 62
     7
370
    18
100
AcDbLine
 10
72.49999999999997
 20
-15.49999999999940
 30
0.00000000000000
 11
92.99999999999926
 21
-15.49999999999940
 31
0.00000000000000
  0
LWPOLYLINE
  5
3AA
330
39
100
AcDbEntity
  8
Zeichnung 5
  6
CONTINUOUS
 62
     7
370
    25
100
AcDbPolyline
 90
        4
 70
   129
 10
52.50000000000004
 20
-55.49999999999935
 10
72.49999999999997
 20
-55.49999999999935
 10
72.49999999999997
 20
-15.49999999999931
 10
52.50000000000004
 20
-15.49999999999931
  0
LINE
  5
3AB
330
39
100
AcDbEntity
  8
Zeichnung 5
  6
CONTINUOUS
 62
     7
370
    18
100
AcDbLine
 10
72.49999999999997
 20
-15.49999999999931
 30
0.00000000000000
 11
52.50000000000004
 21
-55.49999999999935
 31
0.00000000000000
  0
LINE
  5
3AC
330
39
100
AcDbEntity
  8
Zeichnung 5
  6
CONTINUOUS
 62
     7
370
    18
100
AcDbLine
 10
72.49999999999997
 20
-55.49999999999935
 30
0.00000000000000
 11
52.50000000000004
 21
-15.49999999999931
 31
0.00000000000000
  0
LINE
  5
3AD
330
39
100
AcDbEntity
  8
Zeichnung 5
  6
CONTINUOUS
 62
     7
370
    18
100
AcDbLine
 10
34.49999999999989
 20
-62.29999999999894
 30
0.00000000000000
 11
92.99999999999926
 21
-62.29999999999894
 31
0.00000000000000
  0
LINE
  5
3AE
330
39
100
AcDbEntity
  8
Zeichnung 5
  6
CONTINUOUS
 62
     7
370
    18
100
AcDbLine
 10
-77.99999999999869
 20
5.30000000000097
 30
0.00000000000000
 11
-41.49999999999938
 21
5.30000000000097
 31
0.00000000000000
  0
LINE
  5
3AF
330
39
100
AcDbEntity
  8
Zeichnung 5
  6
CONTINUOUS
 62
     7
370
    18
100
AcDbLine
 10
56.49999999999977
 20
5.30000000000097
 30
0.00000000000000
 11
92.99999999999926
 21
5.30000000000093
 31
0.00000000000000
  0
LINE
  5
3B0
330
39
100
AcDbEntity
  8
Zeichnung 5
  6
CONTINUOUS
 62
     7
370
    18
100
AcDbLine
 10
-77.99999999999869
 20
11.30000000000098
 30
0.00000000000000
 11
-64.49999999999960
 21
11.30000000000093
 31
0.00000000000000
  0
LINE
  5
3B1
330
39
100
AcDbEntity
  8
Zeichnung 5
  6
CONTINUOUS
 62
     7
370
    35
100
AcDbLine
 10
-64.49999999999977
 20
11.30000000000089
 30
0.00000000000000
 11
79.49999999999965
 21
11.30000000000093
 31
0.00000000000000
  0
LINE
  5
3B2
330
39
100
AcDbEntity
  8
Zeichnung 5
  6
CONTINUOUS
 62
     7
370
    18
100
AcDbLine
 10
79.50000000000000
 20
11.30000000000093
 30
0.00000000000000
 11
92.99999999999945
 21
11.30000000000093
 31
0.00000000000000
  0
LWPOLYLINE
  5
3B3
330
39
100
AcDbEntity
  8
Zeichnung 5
  6
CONTINUOUS
 62
     7
370
    25
100
AcDbPolyline
 90
        4
 70
   129
 10
56.49999999999995
 20
-2.69999999999877
 10
68.50000000000004
 20
-2.69999999999877
 10
68.50000000000004
 20
5.30000000000124
 10
56.49999999999995
 20
5.30000000000124
  0
LINE
  5
3B4
330
39
100
AcDbEntity
  8
Zeichnung 5
  6
CONTINUOUS
 62
     7
370
    18
100
AcDbLine
 10
56.49999999999995
 20
-2.69999999999877
 30
0.00000000000000
 11
68.50000000000004
 21
5.30000000000097
 31
0.00000000000000
  0
LINE
  5
3B5
330
39
100
AcDbEntity
  8
Zeichnung 5
  6
CONTINUOUS
 62
     7
370
    18
100
AcDbLine
 10
68.50000000000004
 20
-2.69999999999877
 30
0.00000000000000
 11
56.49999999999995
 21
5.30000000000097
 31
0.00000000000000
  0
LINE
  5
3B6
330
39
100
AcDbEntity
  8
Zeichnung 5
  6
CONTINUOUS
 62
     7
370
    18
100
AcDbLine
 10
92.99999999999926
 20
-55.49999999999891
 30
0.00000000000000
 11
40.49999999999996
 21
-55.49999999999906
 31
0.00000000000000
  0
LINE
  5
3B7
330
39
100
AcDbEntity
  8
Zeichnung 5
  6
CONTINUOUS
 62
     7
370
    18
100
AcDbLine
 10
36.49999999999984
 20
-64.79999999999897
 30
0.00000000000000
 11
92.99999999999926
 21
-64.79999999999897
 31
0.00000000000000
  0
ARC
  5
3B8
330
39
100
AcDbEntity
  8
Zeichnung 5
  6
CONTINUOUS
 62
     7
370
    18
100
AcDbCircle
 10
35.49999999999969
 20
-65.68953446724704
 30
0.00000000000000
 40
1.33838393909293
100
AcDbArc
 50
41.65419548745571
 51
138.34580451252913
  0
LINE
  5
3B9
330
39
100
AcDbEntity
  8
Zeichnung 5
  6
CONTINUOUS
 62
     7
370
    18
100
AcDbLine
 10
92.99999999999926
 20
-56.29999999999890
 30
0.00000000000000
 11
39.21715728752567
 21
-56.29999999999907
 31
0.00000000000000
  0
LINE
  5
3BA
330
39
100
AcDbEntity
  8
Zeichnung 5
  6
CONTINUOUS
 62
     7
370
    18
100
AcDbLine
 10
88.49999999999999
 20
-55.49999999999908
 30
0.00000000000000
 11
88.49999999999999
 21
-56.29999999999900
 31
0.00000000000000
  0
LINE
  5
3BB
330
39
100
AcDbEntity
  8
Zeichnung 5
  6
CONTINUOUS
 62
     7
370
    18
100
AcDbLine
 10
83.50000000000009
 20
-55.49999999999908
 30
0.00000000000000
 11
83.50000000000009
 21
-56.29999999999900
 31
0.00000000000000
  0
LINE
  5
3BC
330
39
100
AcDbEntity
  8
Zeichnung 5
  6
CONTINUOUS
 62
     7
370
    18
100
AcDbLine
 10
76.50000000000007
 20
-55.49999999999908
 30
0.00000000000000
 11
76.50000000000007
 21
-56.29999999999900
 31
0.00000000000000
  0
LINE
  5
3BD
330
39
100
AcDbEntity
  8
Zeichnung 5
  6
CONTINUOUS
 62
     7
370
    18
100
AcDbLine
 10
71.49999999999999
 20
-55.49999999999908
 30
0.00000000000000
 11
71.49999999999999
 21
-56.29999999999900
 31
0.00000000000000
  0
LINE
  5
3BE
330
39
100
AcDbEntity
  8
Zeichnung 5
  6
CONTINUOUS
 62
     7
370
    18
100
AcDbLine
 10
64.49999999999996
 20
-55.49999999999908
 30
0.00000000000000
 11
64.49999999999996
 21
-56.29999999999900
 31
0.00000000000000
  0
LINE
  5
3BF
330
39
100
AcDbEntity
  8
Zeichnung 5
  6
CONTINUOUS
 62
     7
370
    18
100
AcDbLine
 10
59.49999999999989
 20
-55.49999999999908
 30
0.00000000000000
 11
59.49999999999989
 21
-56.29999999999900
 31
0.00000000000000
  0
LINE
  5
3C0
330
39
100
AcDbEntity
  8
Zeichnung 5
  6
CONTINUOUS
 62
     7
370
    18
100
AcDbLine
 10
52.49999999999986
 20
-55.49999999999908
 30
0.00000000000000
 11
52.49999999999986
 21
-56.29999999999900
 31
0.00000000000000
  0
LINE
  5
3C1
330
39
100
AcDbEntity
  8
Zeichnung 5
  6
CONTINUOUS
 62
     7
370
    18
100
AcDbLine
 10
47.49999999999996
 20
-55.49999999999908
 30
0.00000000000000
 11
47.49999999999996
 21
-56.29999999999900
 31
0.00000000000000
  0
LINE
  5
3C2
330
39
100
AcDbEntity
  8
Zeichnung 5
  6
CONTINUOUS
 62
     7
370
    18
100
AcDbLine
 10
40.49999999999994
 20
-55.49999999999908
 30
0.00000000000000
 11
40.49999999999994
 21
-56.29999999999900
 31
0.00000000000000
  0
SOLID
  5
3C3
330
39
100
AcDbEntity
  8
Zeichnung 5
 62
     7
100
AcDbTrace
 10
88.00000000000080
 20
-2.69999999999921
 30
0.00000000000000
 11
88.00000000000080
 21
-3.49999999999921
 31
0.00000000000000
 12
83.00000000000091
 22
-2.69999999999904
 32
0.00000000000000
 13
83.00000000000107
 23
-3.49999999999921
 33
0.00000000000000
  0
SOLID
  5
3C4
330
39
100
AcDbEntity
  8
Zeichnung 5
 62
     7
100
AcDbTrace
 10
76.00000000000087
 20
-2.69999999999904
 30
0.00000000000000
 11
76.00000000000087
 21
-3.49999999999921
 31
0.00000000000000
 12
71.00000000000098
 22
-2.69999999999904
 32
0.00000000000000
 13
71.00000000000098
 23
-3.49999999999921
 33
0.00000000000000
  0
LINE
  5
3C5
330
39
100
AcDbEntity
  8
Zeichnung 5
  6
CONTINUOUS
 62
     7
370
    18
100
AcDbLine
 10
92.99999999999926
 20
-2.69999999999908
 30
0.00000000000000
 11
-77.99999999999869
 21
-2.69999999999953
 31
0.00000000000000
  0
LINE
  5
3C6
330
39
100
AcDbEntity
  8
Zeichnung 5
  6
CONTINUOUS
 62
     7
370
    18
100
AcDbLine
 10
83.00000000000091
 20
-3.49999999999921
 30
0.00000000000000
 11
83.00000000000107
 21
-2.69999999999904
 31
0.00000000000000
  0
LINE
  5
3C7
330
39
100
AcDbEntity
  8
Zeichnung 5
  6
CONTINUOUS
 62
     7
370
    18
100
AcDbLine
 10
76.00000000000087
 20
-2.69999999999921
 30
0.00000000000000
 11
76.00000000000087
 21
-3.49999999999913
 31
0.00000000000000
  0
LINE
  5
3C8
330
39
100
AcDbEntity
  8
Zeichnung 5
  6
CONTINUOUS
 62
     7
370
    18
100
AcDbLine
 10
71.00000000000098
 20
-2.69999999999921
 30
0.00000000000000
 11
71.00000000000098
 21
-3.49999999999913
 31
0.00000000000000
  0
SOLID
  5
3C9
330
39
100
AcDbEntity
  8
Zeichnung 5
 62
     7
100
AcDbTrace
 10
64.00000000000094
 20
-2.69999999999904
 30
0.00000000000000
 11
64.00000000000094
 21
-3.49999999999921
 31
0.00000000000000
 12
59.00000000000087
 22
-2.69999999999904
 32
0.00000000000000
 13
59.00000000000087
 23
-3.49999999999921
 33
0.00000000000000
  0
LINE
  5
3CA
330
39
100
AcDbEntity
  8
Zeichnung 5
  6
CONTINUOUS
 62
     7
370
    18
100
AcDbLine
 10
64.00000000000094
 20
-2.69999999999921
 30
0.00000000000000
 11
64.00000000000094
 21
-3.49999999999913
 31
0.00000000000000
  0
LINE
  5
3CB
330
39
100
AcDbEntity
  8
Zeichnung 5
  6
CONTINUOUS
 62
     7
370
    18
100
AcDbLine
 10
59.00000000000087
 20
-2.69999999999921
 30
0.00000000000000
 11
59.00000000000087
 21
-3.49999999999913
 31
0.00000000000000
  0
SOLID
  5
3CC
330
39
100
AcDbEntity
  8
Zeichnung 5
 62
     7
100
AcDbTrace
 10
52.00000000000085
 20
-2.69999999999904
 30
0.00000000000000
 11
52.00000000000085
 21
-3.49999999999921
 31
0.00000000000000
 12
47.00000000000096
 22
-2.69999999999904
 32
0.00000000000000
 13
47.00000000000096
 23
-3.49999999999921
 33
0.00000000000000
  0
LINE
  5
3CD
330
39
100
AcDbEntity
  8
Zeichnung 5
  6
CONTINUOUS
 62
     7
370
    18
100
AcDbLine
 10
52.00000000000085
 20
-2.69999999999921
 30
0.00000000000000
 11
52.00000000000085
 21
-3.49999999999913
 31
0.00000000000000
  0
LINE
  5
3CE
330
39
100
AcDbEntity
  8
Zeichnung 5
  6
CONTINUOUS
 62
     7
370
    18
100
AcDbLine
 10
47.00000000000096
 20
-2.69999999999921
 30
0.00000000000000
 11
47.00000000000096
 21
-3.49999999999913
 31
0.00000000000000
  0
SOLID
  5
3CF
330
39
100
AcDbEntity
  8
Zeichnung 5
 62
     7
100
AcDbTrace
 10
40.00000000000075
 20
-2.69999999999904
 30
0.00000000000000
 11
40.00000000000075
 21
-3.49999999999921
 31
0.00000000000000
 12
35.00000000000085
 22
-2.69999999999904
 32
0.00000000000000
 13
35.00000000000085
 23
-3.49999999999921
 33
0.00000000000000
  0
LINE
  5
3D0
330
39
100
AcDbEntity
  8
Zeichnung 5
  6
CONTINUOUS
 62
     7
370
    18
100
AcDbLine
 10
40.00000000000075
 20
-2.69999999999921
 30
0.00000000000000
 11
40.00000000000075
 21
-3.49999999999913
 31
0.00000000000000
  0
LINE
  5
3D1
330
39
100
AcDbEntity
  8
Zeichnung 5
  6
CONTINUOUS
 62
     7
370
    18
100
AcDbLine
 10
35.00000000000085
 20
-2.69999999999921
 30
0.00000000000000
 11
35.00000000000085
 21
-3.49999999999913
 31
0.00000000000000
  0
SOLID
  5
3D2
330
39
100
AcDbEntity
  8
Zeichnung 5
 62
     7
100
AcDbTrace
 10
28.00000000000082
 20
-2.69999999999904
 30
0.00000000000000
 11
28.00000000000082
 21
-3.49999999999921
 31
0.00000000000000
 12
23.00000000000076
 22
-2.69999999999904
 32
0.00000000000000
 13
23.00000000000076
 23
-3.49999999999921
 33
0.00000000000000
  0
LINE
  5
3D3
330
39
100
AcDbEntity
  8
Zeichnung 5
  6
CONTINUOUS
 62
     7
370
    18
100
AcDbLine
 10
28.00000000000082
 20
-2.69999999999921
 30
0.00000000000000
 11
28.00000000000082
 21
-3.49999999999913
 31
0.00000000000000
  0
LINE
  5
3D4
330
39
100
AcDbEntity
  8
Zeichnung 5
  6
CONTINUOUS
 62
     7
370
    18
100
AcDbLine
 10
23.00000000000076
 20
-2.69999999999921
 30
0.00000000000000
 11
23.00000000000076
 21
-3.49999999999913
 31
0.00000000000000
  0
INSERT
  5
3C
330
39
100
AcDbEntity
  8
Zeichnung 5
 62
     5
370
    25
100
AcDbBlockReference
  2
*U2
 10
0.00000000000000
 20
0.00000000000000
 30
0.00000000000000
  0
INSERT
  5
3D
330
39
100
AcDbEntity
  8
Zeichnung 5
 62
     5
370
    25
100
AcDbBlockReference
  2
*U3
 10
0.00000000000000
 20
0.00000000000000
 30
0.00000000000000
  0
LINE
  5
3D5
330
39
100
AcDbEntity
  8
Zeichnung 5
  6
CONTINUOUS
 62
     7
370
    35
100
AcDbLine
 10
31.49999999999995
 20
-117.49999999999979
 30
0.00000000000000
 11
31.50000000000013
 21
-23.49999999999922
 31
0.00000000000000
  0
LINE
  5
3D6
330
39
100
AcDbEntity
  8
Zeichnung 5
  6
CONTINUOUS
 62
     7
370
    18
100
AcDbLine
 10
31.50000000000013
 20
-23.49999999999922
 30
0.00000000000000
 11
31.50000000000013
 21
-3.49999999999921
 31
0.00000000000000
  0
LINE
  5
3D7
330
39
100
AcDbEntity
  8
Zeichnung 5
  6
CONTINUOUS
 62
     7
370
    35
100
AcDbLine
 10
-16.49999999999992
 20
-117.49999999999979
 30
0.00000000000000
 11
-16.49999999999992
 21
-23.49999999999922
 31
0.00000000000000
  0
LINE
  5
3D8
330
39
100
AcDbEntity
  8
Zeichnung 5
  6
CONTINUOUS
 62
     7
370
    18
100
AcDbLine
 10
-16.49999999999992
 20
-23.49999999999922
 30
0.00000000000000
 11
-16.49999999999992
 21
-3.49999999999921
 31
0.00000000000000
  0
INSERT
  5
3E
330
39
100
AcDbEntity
  8
Zeichnung 5
 62
     5
370
    25
100
AcDbBlockReference
  2
*U4
 10
0.00000000000000
 20
0.00000000000000
 30
0.00000000000000
  0
INSERT
  5
3F
330
39
100
AcDbEntity
  8
Zeichnung 5
 62
     5
370
    25
100
AcDbBlockReference
  2
*U5
 10
0.00000000000000
 20
0.00000000000000
 30
0.00000000000000
  0
LINE
  5
3D9
330
39
100
AcDbEntity
  8
Zeichnung 5
  6
CONTINUOUS
 62
     7
370
    35
100
AcDbLine
 10
-16.49999999999992
 20
-23.49999999999922
 30
0.00000000000000
 11
31.50000000000013
 21
-23.49999999999922
 31
0.00000000000000
  0
LINE
  5
3DA
330
39
100
AcDbEntity
  8
Zeichnung 5
  6
CONTINUOUS
 62
     7
370
    18
100
AcDbLine
 10
-41.49999999999957
 20
5.30000000000097
 30
0.00000000000000
 11
56.49999999999995
 21
5.30000000000097
 31
0.00000000000000
  0
LINE
  5
3DB
330
39
100
AcDbEntity
  8
Zeichnung 5
  6
CONTINUOUS
 62
     7
370
    35
100
AcDbLine
 10
79.49999999999965
 20
11.30000000000093
 30
0.00000000000000
 11
79.49999999999965
 21
6.30000000000046
 31
0.00000000000000
  0
LINE
  5
3DC
330
39
100
AcDbEntity
  8
Zeichnung 5
  6
CONTINUOUS
 62
     7
370
    35
100
AcDbLine
 10
79.49999999999965
 20
6.30000000000046
 30
0.00000000000000
 11
-64.49999999999960
 21
6.30000000000046
 31
0.00000000000000
  0
LINE
  5
3DD
330
39
100
AcDbEntity
  8
Zeichnung 5
  6
CONTINUOUS
 62
     7
370
    18
100
AcDbLine
 10
92.99999999999945
 20
-3.49999999999926
 30
0.00000000000000
 11
-77.99999999999869
 21
-3.49999999999921
 31
0.00000000000000
  0
SOLID
  5
3DE
330
39
100
AcDbEntity
  8
Zeichnung 5
 62
     7
100
AcDbTrace
 10
16.00000000000055
 20
-2.69999999999904
 30
0.00000000000000
 11
16.00000000000055
 21
-3.49999999999921
 31
0.00000000000000
 12
11.00000000000066
 22
-2.69999999999904
 32
0.00000000000000
 13
11.00000000000066
 23
-3.49999999999921
 33
0.00000000000000
  0
LINE
  5
3DF
330
39
100
AcDbEntity
  8
Zeichnung 5
  6
CONTINUOUS
 62
     7
370
    18
100
AcDbLine
 10
16.00000000000055
 20
-2.69999999999921
 30
0.00000000000000
 11
16.00000000000055
 21
-3.49999999999913
 31
0.00000000000000
  0
LINE
  5
3E0
330
39
100
AcDbEntity
  8
Zeichnung 5
  6
CONTINUOUS
 62
     7
370
    18
100
AcDbLine
 10
11.00000000000066
 20
-2.69999999999921
 30
0.00000000000000
 11
11.00000000000066
 21
-3.49999999999913
 31
0.00000000000000
  0
SOLID
  5
3E1
330
39
100
AcDbEntity
  8
Zeichnung 5
 62
     7
100
AcDbTrace
 10
4.00000000000063
 20
-2.69999999999904
 30
0.00000000000000
 11
4.00000000000063
 21
-3.49999999999921
 31
0.00000000000000
 12
-0.99999999999945
 22
-2.69999999999904
 32
0.00000000000000
 13
-0.99999999999945
 23
-3.49999999999921
 33
0.00000000000000
  0
LINE
  5
3E2
330
39
100
AcDbEntity
  8
Zeichnung 5
  6
CONTINUOUS
 62
     7
370
    18
100
AcDbLine
 10
4.00000000000063
 20
-2.69999999999921
 30
0.00000000000000
 11
4.00000000000063
 21
-3.49999999999913
 31
0.00000000000000
  0
LINE
  5
3E3
330
39
100
AcDbEntity
  8
Zeichnung 5
  6
CONTINUOUS
 62
     7
370
    18
100
AcDbLine
 10
-0.99999999999945
 20
-2.69999999999921
 30
0.00000000000000
 11
-0.99999999999945
 21
-3.49999999999913
 31
0.00000000000000
  0
SOLID
  5
3E4
330
39
100
AcDbEntity
  8
Zeichnung 5
 62
     7
100
AcDbTrace
 10
-7.99999999999947
 20
-2.69999999999904
 30
0.00000000000000
 11
-7.99999999999947
 21
-3.49999999999921
 31
0.00000000000000
 12
-12.99999999999937
 22
-2.69999999999904
 32
0.00000000000000
 13
-12.99999999999937
 23
-3.49999999999921
 33
0.00000000000000
  0
LINE
  5
3E5
330
39
100
AcDbEntity
  8
Zeichnung 5
  6
CONTINUOUS
 62
     7
370
    18
100
AcDbLine
 10
-7.99999999999947
 20
-2.69999999999921
 30
0.00000000000000
 11
-7.99999999999947
 21
-3.49999999999913
 31
0.00000000000000
  0
LINE
  5
3E6
330
39
100
AcDbEntity
  8
Zeichnung 5
  6
CONTINUOUS
 62
     7
370
    18
100
AcDbLine
 10
-12.99999999999937
 20
-2.69999999999921
 30
0.00000000000000
 11
-12.99999999999937
 21
-3.49999999999913
 31
0.00000000000000
  0
SOLID
  5
3E7
330
39
100
AcDbEntity
  8
Zeichnung 5
 62
     7
100
AcDbTrace
 10
-19.99999999999957
 20
-2.69999999999904
 30
0.00000000000000
 11
-19.99999999999957
 21
-3.49999999999921
 31
0.00000000000000
 12
-24.99999999999947
 22
-2.69999999999904
 32
0.00000000000000
 13
-24.99999999999947
 23
-3.49999999999921
 33
0.00000000000000
  0
LINE
  5
3E8
330
39
100
AcDbEntity
  8
Zeichnung 5
  6
CONTINUOUS
 62
     7
370
    18
100
AcDbLine
 10
-19.99999999999957
 20
-2.69999999999921
 30
0.00000000000000
 11
-19.99999999999957
 21
-3.49999999999913
 31
0.00000000000000
  0
LINE
  5
3E9
330
39
100
AcDbEntity
  8
Zeichnung 5
  6
CONTINUOUS
 62
     7
370
    18
100
AcDbLine
 10
-24.99999999999947
 20
-2.69999999999921
 30
0.00000000000000
 11
-24.99999999999947
 21
-3.49999999999913
 31
0.00000000000000
  0
SOLID
  5
3EA
330
39
100
AcDbEntity
  8
Zeichnung 5
 62
     7
100
AcDbTrace
 10
-31.99999999999949
 20
-2.69999999999904
 30
0.00000000000000
 11
-31.99999999999949
 21
-3.49999999999921
 31
0.00000000000000
 12
-36.99999999999957
 22
-2.69999999999904
 32
0.00000000000000
 13
-36.99999999999957
 23
-3.49999999999921
 33
0.00000000000000
  0
LINE
  5
3EB
330
39
100
AcDbEntity
  8
Zeichnung 5
  6
CONTINUOUS
 62
     7
370
    18
100
AcDbLine
 10
-31.99999999999949
 20
-2.69999999999921
 30
0.00000000000000
 11
-31.99999999999949
 21
-3.49999999999913
 31
0.00000000000000
  0
LINE
  5
3EC
330
39
100
AcDbEntity
  8
Zeichnung 5
  6
CONTINUOUS
 62
     7
370
    18
100
AcDbLine
 10
-36.99999999999957
 20
-2.69999999999921
 30
0.00000000000000
 11
-36.99999999999957
 21
-3.49999999999913
 31
0.00000000000000
  0
SOLID
  5
3ED
330
39
100
AcDbEntity
  8
Zeichnung 5
 62
     7
100
AcDbTrace
 10
-43.99999999999977
 20
-2.69999999999904
 30
0.00000000000000
 11
-43.99999999999977
 21
-3.49999999999921
 31
0.00000000000000
 12
-48.99999999999967
 22
-2.69999999999904
 32
0.00000000000000
 13
-48.99999999999967
 23
-3.49999999999921
 33
0.00000000000000
  0
LINE
  5
3EE
330
39
100
AcDbEntity
  8
Zeichnung 5
  6
CONTINUOUS
 62
     7
370
    18
100
AcDbLine
 10
-43.99999999999977
 20
-2.69999999999921
 30
0.00000000000000
 11
-43.99999999999977
 21
-3.49999999999913
 31
0.00000000000000
  0
LINE
  5
3EF
330
39
100
AcDbEntity
  8
Zeichnung 5
  6
CONTINUOUS
 62
     7
370
    18
100
AcDbLine
 10
-48.99999999999967
 20
-2.69999999999921
 30
0.00000000000000
 11
-48.99999999999967
 21
-3.49999999999913
 31
0.00000000000000
  0
SOLID
  5
3F0
330
39
100
AcDbEntity
  8
Zeichnung 5
 62
     7
100
AcDbTrace
 10
-55.99999999999969
 20
-2.69999999999904
 30
0.00000000000000
 11
-55.99999999999969
 21
-3.49999999999921
 31
0.00000000000000
 12
-60.99999999999977
 22
-2.69999999999904
 32
0.00000000000000
 13
-60.99999999999977
 23
-3.49999999999921
 33
0.00000000000000
  0
LINE
  5
3F1
330
39
100
AcDbEntity
  8
Zeichnung 5
  6
CONTINUOUS
 62
     7
370
    18
100
AcDbLine
 10
-55.99999999999969
 20
-2.69999999999921
 30
0.00000000000000
 11
-55.99999999999969
 21
-3.49999999999913
 31
0.00000000000000
  0
LINE
  5
3F2
330
39
100
AcDbEntity
  8
Zeichnung 5
  6
CONTINUOUS
 62
     7
370
    18
100
AcDbLine
 10
-60.99999999999977
 20
-2.69999999999921
 30
0.00000000000000
 11
-60.99999999999977
 21
-3.49999999999913
 31
0.00000000000000
  0
SOLID
  5
3F3
330
39
100
AcDbEntity
  8
Zeichnung 5
 62
     7
100
AcDbTrace
 10
-67.99999999999980
 20
-2.69999999999904
 30
0.00000000000000
 11
-67.99999999999980
 21
-3.49999999999921
 31
0.00000000000000
 12
-72.99999999999987
 22
-2.69999999999904
 32
0.00000000000000
 13
-72.99999999999987
 23
-3.49999999999921
 33
0.00000000000000
  0
LINE
  5
3F4
330
39
100
AcDbEntity
  8
Zeichnung 5
  6
CONTINUOUS
 62
     7
370
    18
100
AcDbLine
 10
-67.99999999999980
 20
-2.69999999999921
 30
0.00000000000000
 11
-67.99999999999980
 21
-3.49999999999913
 31
0.00000000000000
  0
LINE
  5
3F5
330
39
100
AcDbEntity
  8
Zeichnung 5
  6
CONTINUOUS
 62
     7
370
    18
100
AcDbLine
 10
-72.99999999999987
 20
-2.69999999999921
 30
0.00000000000000
 11
-72.99999999999987
 21
-3.49999999999913
 31
0.00000000000000
  0
LINE
  5
3F6
330
39
100
AcDbEntity
  8
Zeichnung 5
  6
DC_VERDECKT
 62
     7
 48
0.28571428571429
370
    18
100
AcDbLine
 10
56.49999999999960
 20
6.28000000000055
 30
0.00000000000000
 11
56.49999999999960
 21
11.30000000000049
 31
0.00000000000000
  0
LWPOLYLINE
  5
3F7
330
39
100
AcDbEntity
  8
Zeichnung 5
  6
CONTINUOUS
 62
     7
370
    25
100
AcDbPolyline
 90
        4
 70
   129
 10
-41.49999999999974
 20
-2.69999999999877
 10
-41.49999999999974
 20
5.30000000000124
 10
-53.49999999999984
 20
5.30000000000124
 10
-53.49999999999984
 20
-2.69999999999877
  0
LINE
  5
3F8
330
39
100
AcDbEntity
  8
Zeichnung 5
  6
CONTINUOUS
 62
     7
370
    18
100
AcDbLine
 10
-53.49999999999984
 20
5.30000000000097
 30
0.00000000000000
 11
-41.49999999999974
 21
-2.69999999999877
 31
0.00000000000000
  0
LINE
  5
3F9
330
39
100
AcDbEntity
  8
Zeichnung 5
  6
CONTINUOUS
 62
     7
370
    18
100
AcDbLine
 10
-41.49999999999974
 20
5.30000000000097
 30
0.00000000000000
 11
-53.49999999999984
 21
-2.69999999999877
 31
0.00000000000000
  0
LINE
  5
3FA
330
39
100
AcDbEntity
  8
Zeichnung 5
  6
CONTINUOUS
 62
     7
370
    35
100
AcDbLine
 10
-64.49999999999943
 20
6.30000000000046
 30
0.00000000000000
 11
-64.49999999999943
 21
11.30000000000093
 31
0.00000000000000
  0
LINE
  5
3FB
330
39
100
AcDbEntity
  8
Zeichnung 5
  6
DC_VERDECKT
 62
     7
 48
0.28571428571429
370
    18
100
AcDbLine
 10
-41.49999999999938
 20
11.30000000000049
 30
0.00000000000000
 11
-41.49999999999938
 21
6.30000000000046
 31
0.00000000000000
  0
INSERT
  5
40
330
39
100
AcDbEntity
  8
Zeichnung 5
 62
     5
370
    25
100
AcDbBlockReference
  2
*U6
 10
0.00000000000000
 20
0.00000000000000
 30
0.00000000000000
  0
SOLID
  5
3FC
330
39
100
AcDbEntity
  8
Zeichnung 5
 62
     7
100
AcDbTrace
 10
-73.49999999999977
 20
-55.49999999999891
 30
0.00000000000000
 11
-73.49999999999977
 21
-56.29999999999909
 31
0.00000000000000
 12
-68.49999999999987
 22
-55.49999999999891
 32
0.00000000000000
 13
-68.49999999999987
 23
-56.29999999999909
 33
0.00000000000000
  0
SOLID
  5
3FD
330
39
100
AcDbEntity
  8
Zeichnung 5
 62
     7
100
AcDbTrace
 10
-61.49999999999984
 20
-55.49999999999891
 30
0.00000000000000
 11
-61.49999999999984
 21
-56.29999999999909
 31
0.00000000000000
 12
-56.49999999999977
 22
-55.49999999999891
 32
0.00000000000000
 13
-56.49999999999977
 23
-56.29999999999909
 33
0.00000000000000
  0
SOLID
  5
3FE
330
39
100
AcDbEntity
  8
Zeichnung 5
 62
     7
100
AcDbTrace
 10
-49.49999999999974
 20
-55.49999999999891
 30
0.00000000000000
 11
-49.49999999999974
 21
-56.29999999999909
 31
0.00000000000000
 12
-44.49999999999968
 22
-55.49999999999908
 32
0.00000000000000
 13
-44.49999999999968
 23
-56.29999999999909
 33
0.00000000000000
  0
SOLID
  5
3FF
330
39
100
AcDbEntity
  8
Zeichnung 5
 62
     7
100
AcDbTrace
 10
-37.49999999999965
 20
-55.49999999999908
 30
0.00000000000000
 11
-37.49999999999965
 21
-56.29999999999909
 31
0.00000000000000
 12
-32.49999999999975
 22
-55.49999999999908
 32
0.00000000000000
 13
-32.49999999999975
 23
-56.29999999999909
 33
0.00000000000000
  0
LINE
  5
400
330
39
100
AcDbEntity
  8
Zeichnung 5
  6
CONTINUOUS
 62
     7
370
    25
100
AcDbLine
 10
-57.49999999999975
 20
-15.49999999999940
 30
0.00000000000000
 11
-37.49999999999982
 21
-15.49999999999940
 31
0.00000000000000
  0
LINE
  5
401
330
39
100
AcDbEntity
  8
Zeichnung 5
  6
CONTINUOUS
 62
     7
370
    18
100
AcDbLine
 10
-77.99999999999905
 20
-15.49999999999940
 30
0.00000000000000
 11
-57.49999999999993
 21
-15.49999999999940
 31
0.00000000000000
  0
LWPOLYLINE
  5
402
330
39
100
AcDbEntity
  8
Zeichnung 5
  6
CONTINUOUS
 62
     7
370
    25
100
AcDbPolyline
 90
        4
 70
   129
 10
-37.49999999999982
 20
-55.49999999999935
 10
-37.49999999999982
 20
-15.49999999999931
 10
-57.49999999999975
 20
-15.49999999999931
 10
-57.49999999999975
 20
-55.49999999999935
  0
LINE
  5
403
330
39
100
AcDbEntity
  8
Zeichnung 5
  6
CONTINUOUS
 62
     7
370
    18
100
AcDbLine
 10
-37.49999999999982
 20
-55.49999999999935
 30
0.00000000000000
 11
-57.49999999999975
 21
-15.49999999999931
 31
0.00000000000000
  0
LINE
  5
404
330
39
100
AcDbEntity
  8
Zeichnung 5
  6
CONTINUOUS
 62
     7
370
    18
100
AcDbLine
 10
-37.49999999999982
 20
-15.49999999999931
 30
0.00000000000000
 11
-57.49999999999975
 21
-55.49999999999935
 31
0.00000000000000
  0
LINE
  5
405
330
39
100
AcDbEntity
  8
Zeichnung 5
  6
CONTINUOUS
 62
     7
370
    18
100
AcDbLine
 10
-24.30000000000007
 20
-55.49999999999908
 30
0.00000000000000
 11
-77.99999999999905
 21
-55.49999999999891
 31
0.00000000000000
  0
LWPOLYLINE
  5
406
330
39
100
AcDbEntity
  8
Zeichnung 5
  6
CONTINUOUS
 62
     7
370
    25
100
AcDbPolyline
 90
        4
 70
   129
 10
67.49999999999990
 20
-62.29999999999895
 10
67.49999999999990
 20
-56.29999999999899
 10
57.50000000000012
 20
-56.29999999999899
 10
57.50000000000012
 20
-62.29999999999895
  0
LINE
  5
407
330
39
100
AcDbEntity
  8
Zeichnung 5
  6
CONTINUOUS
 62
     7
370
    18
100
AcDbLine
 10
67.49999999999990
 20
-62.29999999999895
 30
0.00000000000000
 11
57.50000000000012
 21
-56.29999999999899
 31
0.00000000000000
  0
LINE
  5
408
330
39
100
AcDbEntity
  8
Zeichnung 5
  6
CONTINUOUS
 62
     7
370
    18
100
AcDbLine
 10
67.49999999999990
 20
-56.29999999999899
 30
0.00000000000000
 11
57.50000000000012
 21
-62.29999999999895
 31
0.00000000000000
  0
LINE
  5
409
330
39
100
AcDbEntity
  8
Zeichnung 5
  6
CONTINUOUS
 62
     7
370
    18
100
AcDbLine
 10
-24.21715728752562
 20
-56.29999999999907
 30
0.00000000000000
 11
-77.99999999999905
 21
-56.29999999999890
 31
0.00000000000000
  0
LINE
  5
40A
330
39
100
AcDbEntity
  8
Zeichnung 5
  6
CONTINUOUS
 62
     7
370
    18
100
AcDbLine
 10
-73.49999999999977
 20
-56.29999999999900
 30
0.00000000000000
 11
-73.49999999999977
 21
-55.49999999999908
 31
0.00000000000000
  0
LINE
  5
40B
330
39
100
AcDbEntity
  8
Zeichnung 5
  6
CONTINUOUS
 62
     7
370
    18
100
AcDbLine
 10
-68.49999999999987
 20
-56.29999999999900
 30
0.00000000000000
 11
-68.49999999999987
 21
-55.49999999999908
 31
0.00000000000000
  0
LINE
  5
40C
330
39
100
AcDbEntity
  8
Zeichnung 5
  6
CONTINUOUS
 62
     7
370
    18
100
AcDbLine
 10
-61.49999999999984
 20
-56.29999999999900
 30
0.00000000000000
 11
-61.49999999999984
 21
-55.49999999999908
 31
0.00000000000000
  0
LINE
  5
40D
330
39
100
AcDbEntity
  8
Zeichnung 5
  6
CONTINUOUS
 62
     7
370
    18
100
AcDbLine
 10
-56.49999999999977
 20
-56.29999999999900
 30
0.00000000000000
 11
-56.49999999999977
 21
-55.49999999999908
 31
0.00000000000000
  0
LINE
  5
40E
330
39
100
AcDbEntity
  8
Zeichnung 5
  6
CONTINUOUS
 62
     7
370
    18
100
AcDbLine
 10
-49.49999999999974
 20
-56.29999999999900
 30
0.00000000000000
 11
-49.49999999999974
 21
-55.49999999999908
 31
0.00000000000000
  0
LINE
  5
40F
330
39
100
AcDbEntity
  8
Zeichnung 5
  6
CONTINUOUS
 62
     7
370
    18
100
AcDbLine
 10
-44.49999999999968
 20
-56.29999999999900
 30
0.00000000000000
 11
-44.49999999999968
 21
-55.49999999999908
 31
0.00000000000000
  0
LINE
  5
410
330
39
100
AcDbEntity
  8
Zeichnung 5
  6
CONTINUOUS
 62
     7
370
    18
100
AcDbLine
 10
-37.49999999999965
 20
-56.29999999999900
 30
0.00000000000000
 11
-37.49999999999965
 21
-55.49999999999908
 31
0.00000000000000
  0
LINE
  5
411
330
39
100
AcDbEntity
  8
Zeichnung 5
  6
CONTINUOUS
 62
     7
370
    18
100
AcDbLine
 10
-32.49999999999975
 20
-56.29999999999900
 30
0.00000000000000
 11
-32.49999999999975
 21
-55.49999999999908
 31
0.00000000000000
  0
INSERT
  5
41
330
39
100
AcDbEntity
  8
Zeichnung 5
 62
     5
370
    25
100
AcDbBlockReference
  2
*U7
 10
0.00000000000000
 20
0.00000000000000
 30
0.00000000000000
  0
LINE
  5
412
330
39
100
AcDbEntity
  8
Zeichnung 5
  6
CONTINUOUS
 62
     7
370
    18
100
AcDbLine
 10
-16.49999999999992
 20
-55.29999999999911
 30
0.00000000000000
 11
31.50000000000013
 21
-55.29999999999911
 31
0.00000000000000
  0
LINE
  5
413
330
39
100
AcDbEntity
  8
Zeichnung 5
  6
CONTINUOUS
 62
     7
370
    18
100
AcDbLine
 10
-16.49999999999992
 20
-55.49999999999980
 30
0.00000000000000
 11
31.50000000000013
 21
-55.49999999999980
 31
0.00000000000000
  0
LINE
  5
414
330
39
100
AcDbEntity
  8
Zeichnung 5
  6
CONTINUOUS
 62
     7
370
    18
100
AcDbLine
 10
-16.49999999999992
 20
-105.29999999999912
 30
0.00000000000000
 11
31.50000000000013
 21
-105.29999999999912
 31
0.00000000000000
  0
LINE
  5
415
330
39
100
AcDbEntity
  8
Zeichnung 5
  6
CONTINUOUS
 62
     7
370
    18
100
AcDbLine
 10
-16.49999999999992
 20
-105.49999999999980
 30
0.00000000000000
 11
31.50000000000013
 21
-105.49999999999980
 31
0.00000000000000
  0
INSERT
  5
42
330
39
100
AcDbEntity
  8
Zeichnung 5
 62
     5
370
    25
100
AcDbBlockReference
  2
*U8
 10
0.00000000000000
 20
0.00000000000000
 30
0.00000000000000
  0
INSERT
  5
43
330
39
100
AcDbEntity
  8
Zeichnung 5
 62
     5
370
    25
100
AcDbBlockReference
  2
*U9
 10
0.00000000000000
 20
0.00000000000000
 30
0.00000000000000
  0
LINE
  5
416
330
39
100
AcDbEntity
  8
Zeichnung 5
  6
CONTINUOUS
 62
     7
370
    18
100
AcDbLine
 10
-37.49999999999982
 20
-15.49999999999931
 30
0.00000000000000
 11
-37.49999999999982
 21
-3.49999999999930
 31
0.00000000000000
  0
LINE
  5
417
330
39
100
AcDbEntity
  8
Zeichnung 5
  6
CONTINUOUS
 62
     7
370
    18
100
AcDbLine
 10
52.50000000000021
 20
-15.49999999999940
 30
0.00000000000000
 11
52.50000000000004
 21
-3.49999999999926
 31
0.00000000000000
  0
INSERT
  5
44
330
39
100
AcDbEntity
  8
Zeichnung 5
 62
     7
370
    25
100
AcDbBlockReference
  2
*U10
 10
0.00000000000000
 20
0.00000000000000
 30
0.00000000000000
  0
INSERT
  5
45
330
39
100
AcDbEntity
  8
Zeichnung 5
 62
     5
370
    25
100
AcDbBlockReference
  2
*U11
 10
0.00000000000000
 20
0.00000000000000
 30
0.00000000000000
  0
INSERT
  5
46
330
39
100
AcDbEntity
  8
Zeichnung 5
 62
     5
370
    25
100
AcDbBlockReference
  2
*U12
 10
0.00000000000000
 20
0.00000000000000
 30
0.00000000000000
  0
INSERT
  5
47
330
39
100
AcDbEntity
  8
Zeichnung 5
 62
     7
370
    25
100
AcDbBlockReference
  2
*U13
 10
0.00000000000000
 20
0.00000000000000
 30
0.00000000000000
  0
INSERT
  5
48
330
39
100
AcDbEntity
  8
Zeichnung 5
 62
     7
370
    25
100
AcDbBlockReference
  2
*U14
 10
0.00000000000000
 20
0.00000000000000
 30
0.00000000000000
  0
INSERT
  5
49
330
39
100
AcDbEntity
  8
Zeichnung 5
 62
     7
370
    25
100
AcDbBlockReference
  2
*U15
 10
0.00000000000000
 20
0.00000000000000
 30
0.00000000000000
  0
INSERT
  5
4A
330
39
100
AcDbEntity
  8
Zeichnung 5
 62
     7
370
    25
100
AcDbBlockReference
  2
*U16
 10
0.00000000000000
 20
0.00000000000000
 30
0.00000000000000
  0
INSERT
  5
4B
330
39
100
AcDbEntity
  8
Zeichnung 5
 62
     7
370
    25
100
AcDbBlockReference
  2
*U17
 10
0.00000000000000
 20
0.00000000000000
 30
0.00000000000000
  0
INSERT
  5
4C
330
39
100
AcDbEntity
  8
Zeichnung 5
 62
     7
370
    25
100
AcDbBlockReference
  2
*U18
 10
0.00000000000000
 20
0.00000000000000
 30
0.00000000000000
  0
INSERT
  5
4D
330
39
100
AcDbEntity
  8
Zeichnung 5
 62
     7
370
    25
100
AcDbBlockReference
  2
*U19
 10
0.00000000000000
 20
0.00000000000000
 30
0.00000000000000
  0
LINE
  5
418
330
39
100
AcDbEntity
  8
Zeichnung 5
  6
CONTINUOUS
 62
     7
370
    18
100
AcDbLine
 10
56.50000000000066
 20
5.30000000000039
 30
0.00000000000000
 11
56.49999999999960
 21
6.28000000000051
 31
0.00000000000000
  0
LINE
  5
419
330
39
100
AcDbEntity
  8
Zeichnung 5
  6
CONTINUOUS
 62
     7
370
    18
100
AcDbLine
 10
-41.50000000000046
 20
5.30000000000053
 30
0.00000000000000
 11
-41.49999999999938
 21
6.28000000000051
 31
0.00000000000000
  0
MTEXT
  5
41A
330
39
100
AcDbEntity
  8
Zeichnung 5
 62
     7
370
    30
100
AcDbMText
 10
-53.00000000000030
 20
-94.03041826775367
 30
0.00000000000000
 40
2.80000000000000
 41
0.00000000000000
 71
     4
 72
     1
  1
\fArial Narrow|b0|i0;Nutzungseinheit 1
 11
1.00000000000000
 21
0.00000000000000
 31
0.00000000000000
 73
     1
 44
1.00000000000000
  0
MTEXT
  5
41B
330
39
100
AcDbEntity
  8
Zeichnung 5
 62
     7
370
    30
100
AcDbMText
 10
48.99999999999967
 20
-94.03041826775367
 30
0.00000000000000
 40
2.80000000000000
 41
0.00000000000000
 71
     4
 72
     1
  1
\fArial Narrow|b0|i0;Nutzungseinheit 2
 11
1.00000000000000
 21
0.00000000000000
 31
0.00000000000000
 73
     1
 44
1.00000000000000
  0
INSERT
  5
4E
330
39
100
AcDbEntity
  8
Zeichnung 5
 62
     7
370
    25
100
AcDbBlockReference
  2
*U20
 10
0.00000000000000
 20
0.00000000000000
 30
0.00000000000000
  0
INSERT
  5
4F
330
39
100
AcDbEntity
  8
Zeichnung 5
 62
     7
370
    25
100
AcDbBlockReference
  2
*U21
 10
0.00000000000000
 20
0.00000000000000
 30
0.00000000000000
  0
HATCH
  5
41C
330
39
100
AcDbEntity
  8
Zeichnung 5
 62
     7
100
AcDbHatch
 10
0.00000000000000
 20
0.00000000000000
 30
0.00000000000000
210
0.00000000000000
220
0.00000000000000
230
1.00000000000000
  2
SOLID
 70
     1
 71
     0
 91
        1
 92
        0
 93
        6
 72
     2
 10
34.02275039028755
 20
-53.96244735225334
 40
2.00000000000000
 50
102.05658587736558
 51
180.00000000000020
 73
     1
 72
     1
 10
32.02275039028755
 20
-53.96244735225334
 11
32.02275039028764
 21
-55.78711484863290
 72
     1
 10
32.02275039028764
 20
-55.78711484863290
 11
32.82275039028761
 21
-55.78711484863288
 72
     1
 10
32.82275039028761
 20
-55.78711484863288
 11
32.82275039028761
 21
-53.96244735225334
 72
     2
 10
34.02275039028762
 20
-53.96244735225336
 40
1.20000000000000
 50
180.00000000000105
 51
257.94341412263191
 73
     0
 72
     1
 10
33.77209724929966
 20
-52.78891720653367
 11
33.60499515530768
 21
-52.00656377605384
 97
        0
 75
     0
 76
     0
 98
        1
 10
0.00000000000000
 20
0.00000000000000
  0
HATCH
  5
41D
330
39
100
AcDbEntity
  8
Zeichnung 5
 62
     7
100
AcDbHatch
 10
0.00000000000000
 20
0.00000000000000
 30
0.00000000000000
210
0.00000000000000
220
0.00000000000000
230
1.00000000000000
  2
SOLID
 70
     1
 71
     0
 91
        1
 92
        0
 93
        8
 72
     1
 10
40.49999999999996
 20
-55.49999999999911
 11
40.49999999999994
 21
-56.29999999999905
 72
     1
 10
40.49999999999994
 20
-56.29999999999905
 11
39.21715728752567
 21
-56.29999999999905
 72
     2
 10
39.21715728752567
 20
-53.49999999999904
 40
2.80000000000000
 50
90.00000000000000
 51
134.99999999999920
 73
     0
 72
     1
 10
37.23725830020335
 20
-55.47989898732140
 11
36.53769240936207
 21
-54.78033309648007
 72
     1
 10
36.53769240936207
 20
-54.78033309648007
 11
37.10337783431132
 21
-54.21464767153091
 72
     1
 10
37.10337783431132
 20
-54.21464767153091
 11
37.74436508139012
 21
-54.85563491860967
 72
     2
 10
39.30000000000009
 20
-53.29999999999962
 40
2.19999999999945
 50
225.00000000000162
 51
270.00000000000011
 73
     1
 72
     1
 10
39.30000000000009
 20
-55.49999999999906
 11
40.49999999999996
 21
-55.49999999999911
 97
        0
 75
     0
 76
     0
 98
        1
 10
0.00000000000000
 20
0.00000000000000
  0
ARC
  5
41E
330
39
100
AcDbEntity
  8
Zeichnung 5
  6
CONTINUOUS
 62
     7
370
    18
100
AcDbCircle
 10
34.02275039028757
 20
-53.96244735225334
 30
0.00000000000000
 40
2.00000000000000
100
AcDbArc
 50
45.00000000000046
 51
180.00000000000000
  0
LINE
  5
41F
330
39
100
AcDbEntity
  8
Zeichnung 5
  6
CONTINUOUS
 62
     7
370
    18
100
AcDbLine
 10
32.02275039028764
 20
-59.49999999999962
 30
0.00000000000000
 11
32.02275039028762
 21
-53.96244735225334
 31
0.00000000000000
  0
ARC
  5
420
330
39
100
AcDbEntity
  8
Zeichnung 5
  6
CONTINUOUS
 62
     7
370
    18
100
AcDbCircle
 10
39.21715728752567
 20
-53.49999999999904
 30
0.00000000000000
 40
2.80000000000000
100
AcDbArc
 50
224.99999999999969
 51
270.00000000000000
  0
LINE
  5
421
330
39
100
AcDbEntity
  8
Zeichnung 5
  6
CONTINUOUS
 62
     7
370
    18
100
AcDbLine
 10
40.49999999999996
 20
-55.49999999999906
 30
0.00000000000000
 11
40.49999999999996
 21
-56.29999999999897
 31
0.00000000000000
  0
INSERT
  5
50
330
39
100
AcDbEntity
  8
Zeichnung 5
 62
     7
370
    25
100
AcDbBlockReference
  2
*U22
 10
0.00000000000000
 20
0.00000000000000
 30
0.00000000000000
  0
INSERT
  5
51
330
39
100
AcDbEntity
  8
Zeichnung 5
 62
     5
370
    25
100
AcDbBlockReference
  2
*U23
 10
0.00000000000000
 20
0.00000000000000
 30
0.00000000000000
  0
ARC
  5
422
330
39
100
AcDbEntity
  8
Zeichnung 5
  6
CONTINUOUS
 62
     7
370
    18
100
AcDbCircle
 10
39.30000000000011
 20
-53.29999999999962
 30
0.00000000000000
 40
2.19999999999945
100
AcDbArc
 50
225.00000000000134
 51
270.00000000000000
  0
LINE
  5
423
330
39
100
AcDbEntity
  8
Zeichnung 5
  6
CONTINUOUS
 62
     7
370
    18
100
AcDbLine
 10
37.74436508139012
 20
-54.85563491860967
 30
0.00000000000000
 11
35.43696395266066
 21
-52.54823378988023
 31
0.00000000000000
  0
LINE
  5
424
330
39
100
AcDbEntity
  8
Zeichnung 5
  6
CONTINUOUS
 62
     7
370
    18
100
AcDbLine
 10
37.23725830020332
 20
-55.47989898732136
 30
0.00000000000000
 11
34.87127852771145
 21
-53.11391921482953
 31
0.00000000000000
  0
ARC
  5
425
330
39
100
AcDbEntity
  8
Zeichnung 5
  6
CONTINUOUS
 62
     7
370
    18
100
AcDbCircle
 10
34.02275039028762
 20
-53.96244735225336
 30
0.00000000000000
 40
1.20000000000000
100
AcDbArc
 50
44.99999999999926
 51
180.00000000000000
  0
LINE
  5
426
330
39
100
AcDbEntity
  8
Zeichnung 5
  6
CONTINUOUS
 62
     7
370
    18
100
AcDbLine
 10
32.82275039028761
 20
-59.49999999999962
 30
0.00000000000000
 11
32.82275039028761
 21
-53.96244735225336
 31
0.00000000000000
  0
LINE
  5
427
330
39
100
AcDbEntity
  8
Zeichnung 5
  6
CONTINUOUS
 62
     7
370
    18
100
AcDbLine
 10
32.82275039028761
 20
-59.49999999999962
 30
0.00000000000000
 11
32.02275039028764
 21
-59.49999999999962
 31
0.00000000000000
  0
LINE
  5
428
330
39
100
AcDbEntity
  8
Zeichnung 5
  6
CONTINUOUS
 62
     7
370
    18
100
AcDbLine
 10
37.10337783431132
 20
-54.21464767153088
 30
0.00000000000000
 11
36.53769240936205
 21
-54.78033309648011
 31
0.00000000000000
  0
LINE
  5
429
330
39
100
AcDbEntity
  8
Zeichnung 5
  6
CONTINUOUS
 62
     7
370
    18
100
AcDbLine
 10
33.77209724929966
 20
-52.78891720653363
 30
0.00000000000000
 11
33.60499515530771
 21
-52.00656377605387
 31
0.00000000000000
  0
LINE
  5
42A
330
39
100
AcDbEntity
  8
Zeichnung 5
  6
CONTINUOUS
 62
     7
370
    18
100
AcDbLine
 10
32.82275039028764
 20
-55.78711484863290
 30
0.00000000000000
 11
32.02275039028762
 21
-55.78711484863288
 31
0.00000000000000
  0
INSERT
  5
52
330
39
100
AcDbEntity
  8
Zeichnung 5
 62
     7
370
    25
100
AcDbBlockReference
  2
*U24
 10
0.00000000000000
 20
0.00000000000000
 30
0.00000000000000
  0
INSERT
  5
53
330
39
100
AcDbEntity
  8
Zeichnung 5
 62
     7
370
    25
100
AcDbBlockReference
  2
*U25
 10
0.00000000000000
 20
0.00000000000000
 30
0.00000000000000
  0
LINE
  5
42B
330
39
100
AcDbEntity
  8
Zeichnung 5
  6
CONTINUOUS
 62
     7
370
    18
100
AcDbLine
 10
34.49999999999983
 20
-61.59999999999999
 30
0.00000000000000
 11
32.99999999999999
 21
-61.59999999999999
 31
0.00000000000000
  0
LINE
  5
42C
330
39
100
AcDbEntity
  8
Zeichnung 5
  6
CONTINUOUS
 62
     7
370
    18
100
AcDbLine
 10
32.39999999999983
 20
-61.59999999999999
 30
0.00000000000000
 11
31.50000000000004
 21
-61.59999999999999
 31
0.00000000000000
  0
INSERT
  5
54
330
39
100
AcDbEntity
  8
Zeichnung 5
 62
     5
370
    25
100
AcDbBlockReference
  2
*U26
 10
0.00000000000000
 20
0.00000000000000
 30
0.00000000000000
  0
HATCH
  5
42D
330
39
100
AcDbEntity
  8
Zeichnung 5
 62
     7
370
     9
100
AcDbHatch
 10
0.00000000000000
 20
0.00000000000000
 30
0.00000000000000
210
0.00000000000000
220
0.00000000000000
230
1.00000000000000
  2
SCHRAFFUR
 70
     0
 71
     0
 91
        1
 92
        0
 93
        4
 72
     1
 10
-77.99999999999922
 20
-62.29999999999902
 11
-77.99999999999940
 21
-64.79999999999896
 72
     1
 10
-77.99999999999940
 20
-64.79999999999896
 11
-21.49999999999980
 21
-64.79999999999897
 72
     1
 10
-21.49999999999980
 20
-64.79999999999897
 11
-21.49999999999980
 21
-62.29999999999902
 72
     1
 10
-21.49999999999980
 20
-62.29999999999902
 11
-77.99999999999922
 21
-62.29999999999902
 97
        0
 75
     0
 76
     0
 52
90.00000000000000
 41
1.00000000000000
 77
     0
 78
     1
 53
90.00000000000000
 43
311.41577015120538
 44
113.02874235961912
 45
-1.00000000000000
 46
0.00000000000000
 79
     0
 98
        1
 10
0.00000000000000
 20
0.00000000000000
  0
LINE
  5
42E
330
39
100
AcDbEntity
  8
Zeichnung 5
  6
CONTINUOUS
 62
     7
370
    18
100
AcDbLine
 10
-19.49999999999978
 20
-61.59999999999999
 30
0.00000000000000
 11
-19.49999999999967
 21
-117.49999999999977
 31
0.00000000000000
  0
LINE
  5
42F
330
39
100
AcDbEntity
  8
Zeichnung 5
  6
CONTINUOUS
 62
     7
370
    18
100
AcDbLine
 10
-77.99999999999922
 20
-62.29999999999892
 30
0.00000000000000
 11
-19.49999999999984
 21
-62.29999999999894
 31
0.00000000000000
  0
LINE
  5
430
330
39
100
AcDbEntity
  8
Zeichnung 5
  6
CONTINUOUS
 62
     7
370
    18
100
AcDbLine
 10
-77.99999999999922
 20
-64.79999999999896
 30
0.00000000000000
 11
-21.49999999999980
 21
-64.79999999999897
 31
0.00000000000000
  0
ARC
  5
431
330
39
100
AcDbEntity
  8
Zeichnung 5
  6
CONTINUOUS
 62
     7
370
    18
100
AcDbCircle
 10
-20.49999999999964
 20
-65.68953446724704
 30
0.00000000000000
 40
1.33838393909293
100
AcDbArc
 50
41.65419548747086
 51
138.34580451254428
  0
LINE
  5
432
330
39
100
AcDbEntity
  8
Zeichnung 5
  6
CONTINUOUS
 62
     7
370
    18
100
AcDbLine
 10
-25.49999999999988
 20
-56.29999999999900
 30
0.00000000000000
 11
-25.49999999999988
 21
-55.49999999999908
 31
0.00000000000000
  0
LWPOLYLINE
  5
433
330
39
100
AcDbEntity
  8
Zeichnung 5
  6
CONTINUOUS
 62
     7
370
    25
100
AcDbPolyline
 90
        4
 70
   129
 10
-52.49999999999986
 20
-62.29999999999894
 10
-42.50000000000006
 20
-62.29999999999894
 10
-42.50000000000006
 20
-56.29999999999897
 10
-52.49999999999986
 20
-56.29999999999897
  0
LINE
  5
434
330
39
100
AcDbEntity
  8
Zeichnung 5
  6
CONTINUOUS
 62
     7
370
    18
100
AcDbLine
 10
-42.50000000000006
 20
-56.29999999999897
 30
0.00000000000000
 11
-52.49999999999986
 21
-62.29999999999894
 31
0.00000000000000
  0
LINE
  5
435
330
39
100
AcDbEntity
  8
Zeichnung 5
  6
CONTINUOUS
 62
     7
370
    18
100
AcDbLine
 10
-42.50000000000006
 20
-62.29999999999894
 30
0.00000000000000
 11
-52.49999999999986
 21
-56.29999999999897
 31
0.00000000000000
  0
HATCH
  5
436
330
39
100
AcDbEntity
  8
Zeichnung 5
 62
     7
100
AcDbHatch
 10
0.00000000000000
 20
0.00000000000000
 30
0.00000000000000
210
0.00000000000000
220
0.00000000000000
230
1.00000000000000
  2
SOLID
 70
     1
 71
     0
 91
        1
 92
        0
 93
        6
 72
     2
 10
-19.02275039028750
 20
-53.96244735225334
 40
2.00000000000000
 50
282.05658587736559
 51
360.00000000000023
 73
     0
 72
     1
 10
-17.02275039028750
 20
-53.96244735225334
 11
-17.02275039028758
 21
-55.78711484863290
 72
     1
 10
-17.02275039028758
 20
-55.78711484863290
 11
-17.82275039028756
 21
-55.78711484863288
 72
     1
 10
-17.82275039028756
 20
-55.78711484863288
 11
-17.82275039028756
 21
-53.96244735225334
 72
     2
 10
-19.02275039028756
 20
-53.96244735225336
 40
1.20000000000000
 50
0.00000000000106
 51
77.94341412263195
 73
     1
 72
     1
 10
-18.77209724929961
 20
-52.78891720653367
 11
-18.60499515530763
 21
-52.00656377605384
 97
        0
 75
     0
 76
     0
 98
        1
 10
0.00000000000000
 20
0.00000000000000
  0
HATCH
  5
437
330
39
100
AcDbEntity
  8
Zeichnung 5
 62
     7
100
AcDbHatch
 10
0.00000000000000
 20
0.00000000000000
 30
0.00000000000000
210
0.00000000000000
220
0.00000000000000
230
1.00000000000000
  2
SOLID
 70
     1
 71
     0
 91
        1
 92
        0
 93
        8
 72
     1
 10
-25.49999999999991
 20
-55.49999999999911
 11
-25.49999999999988
 21
-56.29999999999905
 72
     1
 10
-25.49999999999988
 20
-56.29999999999905
 11
-24.21715728752561
 21
-56.29999999999905
 72
     2
 10
-24.21715728752561
 20
-53.49999999999904
 40
2.80000000000000
 50
270.00000000000000
 51
314.99999999999920
 73
     1
 72
     1
 10
-22.23725830020329
 20
-55.47989898732140
 11
-21.53769240936201
 21
-54.78033309648007
 72
     1
 10
-21.53769240936201
 20
-54.78033309648007
 11
-22.10337783431127
 21
-54.21464767153091
 72
     1
 10
-22.10337783431127
 20
-54.21464767153091
 11
-22.74436508139007
 21
-54.85563491860967
 72
     2
 10
-24.30000000000004
 20
-53.29999999999962
 40
2.19999999999945
 50
45.00000000000165
 51
90.00000000000011
 73
     0
 72
     1
 10
-24.30000000000004
 20
-55.49999999999906
 11
-25.49999999999991
 21
-55.49999999999911
 97
        0
 75
     0
 76
     0
 98
        1
 10
0.00000000000000
 20
0.00000000000000
  0
ARC
  5
438
330
39
100
AcDbEntity
  8
Zeichnung 5
  6
CONTINUOUS
 62
     7
370
    18
100
AcDbCircle
 10
-19.02275039028752
 20
-53.96244735225334
 30
0.00000000000000
 40
2.00000000000000
100
AcDbArc
 50
359.99999999999989
 51
134.99999999999946
  0
LINE
  5
439
330
39
100
AcDbEntity
  8
Zeichnung 5
  6
CONTINUOUS
 62
     7
370
    18
100
AcDbLine
 10
-17.02275039028756
 20
-53.96244735225334
 30
0.00000000000000
 11
-17.02275039028759
 21
-59.49999999999962
 31
0.00000000000000
  0
ARC
  5
43A
330
39
100
AcDbEntity
  8
Zeichnung 5
  6
CONTINUOUS
 62
     7
370
    18
100
AcDbCircle
 10
-24.21715728752561
 20
-53.49999999999904
 30
0.00000000000000
 40
2.80000000000000
100
AcDbArc
 50
270.00000000000000
 51
315.00000000000034
  0
LINE
  5
43B
330
39
100
AcDbEntity
  8
Zeichnung 5
  6
CONTINUOUS
 62
     7
370
    18
100
AcDbLine
 10
-25.49999999999991
 20
-56.29999999999897
 30
0.00000000000000
 11
-25.49999999999991
 21
-55.49999999999906
 31
0.00000000000000
  0
INSERT
  5
55
330
39
100
AcDbEntity
  8
Zeichnung 5
 62
     5
370
    25
100
AcDbBlockReference
  2
*U27
 10
0.00000000000000
 20
0.00000000000000
 30
0.00000000000000
  0
ARC
  5
43C
330
39
100
AcDbEntity
  8
Zeichnung 5
  6
CONTINUOUS
 62
     7
370
    18
100
AcDbCircle
 10
-24.30000000000006
 20
-53.29999999999962
 30
0.00000000000000
 40
2.19999999999945
100
AcDbArc
 50
270.00000000000000
 51
314.99999999999869
  0
LINE
  5
43D
330
39
100
AcDbEntity
  8
Zeichnung 5
  6
CONTINUOUS
 62
     7
370
    18
100
AcDbLine
 10
-20.43696395266060
 20
-52.54823378988023
 30
0.00000000000000
 11
-22.74436508139007
 21
-54.85563491860967
 31
0.00000000000000
  0
LINE
  5
43E
330
39
100
AcDbEntity
  8
Zeichnung 5
  6
CONTINUOUS
 62
     7
370
    18
100
AcDbLine
 10
-19.87127852771141
 20
-53.11391921482953
 30
0.00000000000000
 11
-22.23725830020327
 21
-55.47989898732136
 31
0.00000000000000
  0
ARC
  5
43F
330
39
100
AcDbEntity
  8
Zeichnung 5
  6
CONTINUOUS
 62
     7
370
    18
100
AcDbCircle
 10
-19.02275039028756
 20
-53.96244735225336
 30
0.00000000000000
 40
1.20000000000000
100
AcDbArc
 50
0.00000000000020
 51
135.00000000000094
  0
LINE
  5
440
330
39
100
AcDbEntity
  8
Zeichnung 5
  6
CONTINUOUS
 62
     7
370
    18
100
AcDbLine
 10
-17.82275039028756
 20
-53.96244735225336
 30
0.00000000000000
 11
-17.82275039028756
 21
-59.49999999999962
 31
0.00000000000000
  0
LINE
  5
441
330
39
100
AcDbEntity
  8
Zeichnung 5
  6
CONTINUOUS
 62
     7
370
    18
100
AcDbLine
 10
-17.02275039028759
 20
-59.49999999999962
 30
0.00000000000000
 11
-17.82275039028756
 21
-59.49999999999962
 31
0.00000000000000
  0
LINE
  5
442
330
39
100
AcDbEntity
  8
Zeichnung 5
  6
CONTINUOUS
 62
     7
370
    18
100
AcDbLine
 10
-21.53769240936199
 20
-54.78033309648011
 30
0.00000000000000
 11
-22.10337783431127
 21
-54.21464767153088
 31
0.00000000000000
  0
LINE
  5
443
330
39
100
AcDbEntity
  8
Zeichnung 5
  6
CONTINUOUS
 62
     7
370
    18
100
AcDbLine
 10
-18.60499515530765
 20
-52.00656377605387
 30
0.00000000000000
 11
-18.77209724929961
 21
-52.78891720653363
 31
0.00000000000000
  0
LINE
  5
444
330
39
100
AcDbEntity
  8
Zeichnung 5
  6
CONTINUOUS
 62
     7
370
    18
100
AcDbLine
 10
-17.02275039028756
 20
-55.78711484863288
 30
0.00000000000000
 11
-17.82275039028759
 21
-55.78711484863290
 31
0.00000000000000
  0
LINE
  5
445
330
39
100
AcDbEntity
  8
Zeichnung 5
  6
CONTINUOUS
 62
     7
370
    18
100
AcDbLine
 10
-17.99999999999995
 20
-61.59999999999999
 30
0.00000000000000
 11
-19.49999999999978
 21
-61.59999999999999
 31
0.00000000000000
  0
LINE
  5
446
330
39
100
AcDbEntity
  8
Zeichnung 5
  6
CONTINUOUS
 62
     7
370
    18
100
AcDbLine
 10
-16.49999999999999
 20
-61.59999999999999
 30
0.00000000000000
 11
-17.39999999999978
 21
-61.59999999999999
 31
0.00000000000000
  0
INSERT
  5
56
330
39
100
AcDbEntity
  8
Zeichnung 5
 62
     7
370
    25
100
AcDbBlockReference
  2
*U28
 10
0.00000000000000
 20
0.00000000000000
 30
0.00000000000000
  0
MTEXT
  5
447
330
39
100
AcDbEntity
  8
Zeichnung 5
 62
     7
370
    25
100
AcDbMText
 10
-79.99999999999984
 20
68.50000000000047
 30
0.00000000000000
 40
2.50000000000000
 41
0.00000000000000
 71
     7
 72
     1
  1
\fArial|b0|i0;Ausführung entspricht DIN 4108 Beiblatt 2 [2019-06]\PDetail Nr. 170; Kategorie B
 11
1.00000000000000
 21
0.00000000000000
 31
0.00000000000000
 73
     1
 44
1.00000000000000
  0
INSERT
  5
57
330
39
100
AcDbEntity
  8
Zeichnung 5
 62
     5
370
    25
100
AcDbBlockReference
  2
*U29
 10
0.00000000000000
 20
0.00000000000000
 30
0.00000000000000
  0
INSERT
  5
58
330
39
100
AcDbEntity
  8
Zeichnung 5
 62
     7
370
    25
100
AcDbBlockReference
  2
*U30
 10
0.00000000000000
 20
0.00000000000000
 30
0.00000000000000
  0
MTEXT
  5
448
330
39
100
AcDbEntity
  8
Planrahmen
 62
     7
370
    25
100
AcDbMText
 10
-79.99999999999973
 20
-134.49999999999955
 30
0.00000000000000
 40
2.50000000000000
 41
0.00000000000000
 71
     1
 72
     1
  3
\fArial Narrow|b0|i0;Wir übernehmen keine Haftung für die Vollständigkeit und Eignung der abgebildeten Darstellungen an konkreten Objekten. Die projektbezogene\PAusführbarkeit der Details muss in jedem Fall vom jeweiligen Fachplaner/Architekten geprü
  1
ft werden.
 11
1.00000000000000
 21
0.00000000000000
 31
0.00000000000000
 73
     1
 44
1.00000000000000
  0
INSERT
  5
59
330
39
100
AcDbEntity
  8
Planrahmen
 62
     5
370
    25
100
AcDbBlockReference
  2
*U31
 10
0.00000000000000
 20
0.00000000000000
 30
0.00000000000000
  0
INSERT
  5
5A
330
39
100
AcDbEntity
  8
Planrahmen
 62
     5
370
    25
100
AcDbBlockReference
  2
*U32
 10
0.00000000000000
 20
0.00000000000000
 30
0.00000000000000
  0
ENDSEC
  0
SECTION
  2
OBJECTS
  0
DICTIONARY
  5
449
330
0
100
AcDbDictionary
281
     1
  3
ACAD_GROUP
350
44A
  3
ACAD_PLOTSTYLENAME
350
44B
  3
ACAD_MLINESTYLE
350
44C
  3
ACAD_LAYOUT
350
44D
  0
DICTIONARY
  5
44A
102
{ACAD_REACTORS
330
449
102
}
330
449
100
AcDbDictionary
281
     1
  0
ACDBDICTIONARYWDFLT
  5
44B
102
{ACAD_REACTORS
330
449
102
}
330
449
100
AcDbDictionary
281
     1
  3
Normal
350
1
100
AcDbDictionaryWithDefault
340
1
  0
DICTIONARY
  5
44C
102
{ACAD_REACTORS
330
449
102
}
330
449
100
AcDbDictionary
281
     1
  3
STANDARD
350
44E
  0
DICTIONARY
  5
44D
102
{ACAD_REACTORS
330
449
102
}
330
449
100
AcDbDictionary
281
     1
  0
ACDBPLACEHOLDER
  5
1
102
{ACAD_REACTORS
330
44B
102
}
330
44B
  0
MLINESTYLE
  5
44E
102
{ACAD_REACTORS
330
44C
102
}
330
44C
100
AcDbMlineStyle
  2
STANDARD
 70
     0
  3

 62
   256
 51
90.00000000000000
 52
90.00000000000000
 71
     2
 49
0.50000000000000
 62
   256
  6
BYLAYER
 49
-0.50000000000000
 62
   256
  6
BYLAYER
  0
ENDSEC
  0
EOF
