  0
SECTION
  2
HEADER
  9
$ACADVER
  1
AC1015
  9
$INSBASE
 10
114.59353433611987
 20
-149.91199704510089
 30
0.00000000000000
  9
$EXTMIN
 10
23.20812931327757
 20
-293.64488603110379
 30
0.00000000000000
  9
$EXTMAX
 10
205.97893935896218
 20
-6.17910805909800
 30
0.00000000000000
  9
$LTSCALE
 40
1.00000000000000
  9
$CLAYER
  8
Planrahmen
  9
$TDCREATE
 40
2459081.25159722240000
  9
$TDINDWG
 40
0.09537025523264
  9
$HANDSEED
  5
FF0000
  0
ENDSEC
  0
SECTION
  2
CLASSES
  0
CLASS
  1
ACDBDICTIONARYWDFLT
  2
AcDbDictionaryWithDefault
  3
AutoCAD 2000
 90
        0
280
     0
281
     0
  0
CLASS
  1
ACDBPLACEHOLDER
  2
AcDbPlaceHolder
  3
AutoCAD 2000
 90
        0
280
     0
281
     0
  0
ENDSEC
  0
SECTION
  2
TABLES
  0
TABLE
  2
VPORT
  5
2
330
0
100
AcDbSymbolTable
 70
     0
  0
ENDTAB
  0
TABLE
  2
LTYPE
  5
3
330
0
100
AcDbSymbolTable
 70
     8
  0
LTYPE
  5
4
330
3
100
AcDbSymbolTableRecord
100
AcDbLinetypeTableRecord
  2
BYBLOCK
 70
     0
  3

 72
    65
 73
     0
 40
0.00000000000000
  0
LTYPE
  5
5
330
3
100
AcDbSymbolTableRecord
100
AcDbLinetypeTableRecord
  2
BYLAYER
 70
     0
  3

 72
    65
 73
     0
 40
0.00000000000000
  0
LTYPE
  5
6
330
3
100
AcDbSymbolTableRecord
100
AcDbLinetypeTableRecord
  2
CONTINUOUS
 70
     0
  3
Ausgezogene Linie
 72
    65
 73
     0
 40
0.00000000000000
  0
LTYPE
  5
7
330
3
100
AcDbSymbolTableRecord
100
AcDbLinetypeTableRecord
  2
DC_VERDECKT
 70
     0
  3
_ _ _ _ _ _ _ _ _ _
 72
    65
 73
     2
 40
7.00000000000000
 49
4.66900000000000
 74
     0
 49
-2.33100000000000
 74
     0
  0
LTYPE
  5
8
330
3
100
AcDbSymbolTableRecord
100
AcDbLinetypeTableRecord
  2
DC_GEPUNKTET
 70
     0
  3
...................
 72
    65
 73
     2
 40
2.00000000000000
 49
0.50000000000000
 74
     0
 49
-1.50000000000000
 74
     0
  0
LTYPE
  5
9
330
3
100
AcDbSymbolTableRecord
100
AcDbLinetypeTableRecord
  2
DC_MITTELLINIE
 70
     0
  3
____ _ ____ _ ____ 
 72
    65
 73
     4
 40
20.00000000000000
 49
15.00000000000000
 74
     0
 49
-2.00000000000000
 74
     0
 49
1.00000000000000
 74
     0
 49
-2.00000000000000
 74
     0
  0
LTYPE
  5
A
330
3
100
AcDbSymbolTableRecord
100
AcDbLinetypeTableRecord
  2
DC_PHANTOM
 70
     0
  3
_______ _ _ _______
 72
    65
 73
     6
 40
25.00000000000000
 49
17.00000000000000
 74
     0
 49
-2.00000000000000
 74
     0
 49
1.00000000000000
 74
     0
 49
-2.00000000000000
 74
     0
 49
1.00000000000000
 74
     0
 49
-2.00000000000000
 74
     0
  0
LTYPE
  5
B
330
3
100
AcDbSymbolTableRecord
100
AcDbLinetypeTableRecord
  2
DC_STRICHDREIPUNKTIERT
 70
     0
  3
______ _ _ _ ______
 72
    65
 73
     8
 40
28.00000000000000
 49
18.76000000000000
 74
     0
 49
-1.68000000000000
 74
     0
 49
0.84000000000000
 74
     0
 49
-1.68000000000000
 74
     0
 49
0.84000000000000
 74
     0
 49
-1.68000000000000
 74
     0
 49
0.84000000000000
 74
     0
 49
-1.68000000000000
 74
     0
  0
ENDTAB
  0
TABLE
  2
LAYER
  5
C
330
0
100
AcDbSymbolTable
 70
     3
  0
LAYER
  5
D
330
C
100
AcDbSymbolTableRecord
100
AcDbLayerTableRecord
  2
0
 70
     0
 62
     7
  6
CONTINUOUS
370
    25
390
1
  0
LAYER
  5
E
330
C
100
AcDbSymbolTableRecord
100
AcDbLayerTableRecord
  2
Planrahmen
 70
    64
 62
     7
  6
CONTINUOUS
370
    25
390
1
  0
LAYER
  5
F
330
C
100
AcDbSymbolTableRecord
100
AcDbLayerTableRecord
  2
Details 10
 70
    64
 62
     7
  6
CONTINUOUS
370
    25
390
1
  0
ENDTAB
  0
TABLE
  2
STYLE
  5
10
330
0
100
AcDbSymbolTable
 70
     2
  0
STYLE
  5
11
330
10
100
AcDbSymbolTableRecord
100
AcDbTextStyleTableRecord
  2
STANDARD
 70
     0
 40
0.00000000000000
 41
1.00000000000000
 50
0.00000000000000
 71
     0
 42
3.50000000000000
  3
txt
  4

  0
ENDTAB
  0
TABLE
  2
VIEW
  5
12
330
0
100
AcDbSymbolTable
 70
     0
  0
ENDTAB
  0
TABLE
  2
UCS
  5
13
330
0
100
AcDbSymbolTable
 70
     0
  0
ENDTAB
  0
TABLE
  2
APPID
  5
14
330
0
100
AcDbSymbolTable
 70
     2
  0
APPID
  5
15
330
14
100
AcDbSymbolTableRecord
100
AcDbRegAppTableRecord
  2
ACAD
 70
     0
  0
APPID
  5
16
330
14
100
AcDbSymbolTableRecord
100
AcDbRegAppTableRecord
  2
DIG-CAD
 70
     0
  0
ENDTAB
  0
TABLE
  2
DIMSTYLE
  5
17
330
0
100
AcDbSymbolTable
 70
     0
100
AcDbDimStyleTable
 71
     0
  0
ENDTAB
  0
TABLE
  2
BLOCK_RECORD
  5
29
330
0
100
AcDbSymbolTable
 70
    17
  0
BLOCK_RECORD
  5
2A
330
29
100
AcDbSymbolTableRecord
100
AcDbBlockTableRecord
  2
*MODEL_SPACE
340
0
  0
BLOCK_RECORD
  5
2B
330
29
100
AcDbSymbolTableRecord
100
AcDbBlockTableRecord
  2
*PAPER_SPACE
340
0
  0
BLOCK_RECORD
  5
18
330
29
100
AcDbSymbolTableRecord
100
AcDbBlockTableRecord
  2
*U1
340
0
102
{BLKREFS
331
2C
102
}
  0
BLOCK_RECORD
  5
19
330
29
100
AcDbSymbolTableRecord
100
AcDbBlockTableRecord
  2
*D1
340
0
102
{BLKREFS
331
2D
102
}
  0
BLOCK_RECORD
  5
1A
330
29
100
AcDbSymbolTableRecord
100
AcDbBlockTableRecord
  2
*U2
340
0
102
{BLKREFS
331
2E
102
}
  0
BLOCK_RECORD
  5
1B
330
29
100
AcDbSymbolTableRecord
100
AcDbBlockTableRecord
  2
*D2
340
0
102
{BLKREFS
331
2F
102
}
  0
BLOCK_RECORD
  5
1C
330
29
100
AcDbSymbolTableRecord
100
AcDbBlockTableRecord
  2
*U3
340
0
102
{BLKREFS
331
30
102
}
  0
BLOCK_RECORD
  5
1D
330
29
100
AcDbSymbolTableRecord
100
AcDbBlockTableRecord
  2
*U4
340
0
102
{BLKREFS
331
31
102
}
  0
BLOCK_RECORD
  5
1E
330
29
100
AcDbSymbolTableRecord
100
AcDbBlockTableRecord
  2
*U5
340
0
102
{BLKREFS
331
32
102
}
  0
BLOCK_RECORD
  5
1F
330
29
100
AcDbSymbolTableRecord
100
AcDbBlockTableRecord
  2
*U6
340
0
102
{BLKREFS
331
33
102
}
  0
BLOCK_RECORD
  5
20
330
29
100
AcDbSymbolTableRecord
100
AcDbBlockTableRecord
  2
*U7
340
0
102
{BLKREFS
331
34
102
}
  0
BLOCK_RECORD
  5
21
330
29
100
AcDbSymbolTableRecord
100
AcDbBlockTableRecord
  2
*U8
340
0
102
{BLKREFS
331
35
102
}
  0
BLOCK_RECORD
  5
22
330
29
100
AcDbSymbolTableRecord
100
AcDbBlockTableRecord
  2
*U9
340
0
102
{BLKREFS
331
36
102
}
  0
BLOCK_RECORD
  5
23
330
29
100
AcDbSymbolTableRecord
100
AcDbBlockTableRecord
  2
*U10
340
0
102
{BLKREFS
331
37
102
}
  0
BLOCK_RECORD
  5
24
330
29
100
AcDbSymbolTableRecord
100
AcDbBlockTableRecord
  2
*U11
340
0
102
{BLKREFS
331
38
102
}
  0
BLOCK_RECORD
  5
25
330
29
100
AcDbSymbolTableRecord
100
AcDbBlockTableRecord
  2
*U12
340
0
102
{BLKREFS
331
39
102
}
  0
BLOCK_RECORD
  5
26
330
29
100
AcDbSymbolTableRecord
100
AcDbBlockTableRecord
  2
*U13
340
0
102
{BLKREFS
331
3A
102
}
  0
BLOCK_RECORD
  5
27
330
29
100
AcDbSymbolTableRecord
100
AcDbBlockTableRecord
  2
*U14
340
0
102
{BLKREFS
331
3B
102
}
  0
BLOCK_RECORD
  5
28
330
29
100
AcDbSymbolTableRecord
100
AcDbBlockTableRecord
  2
*U15
340
0
102
{BLKREFS
331
3C
102
}
  0
ENDTAB
  0
ENDSEC
  0
SECTION
  2
BLOCKS
  0
BLOCK
  5
3D
330
2A
100
AcDbEntity
  8
0
100
AcDbBlockBegin
  2
*MODEL_SPACE
 70
     0
 10
0.00000000000000
 20
0.00000000000000
 30
0.00000000000000
  3
*MODEL_SPACE
  1

  0
ENDBLK
  5
3E
330
2A
100
AcDbEntity
  8
0
100
AcDbBlockEnd
  0
BLOCK
  5
3F
330
2B
100
AcDbEntity
 67
     1
  8
0
100
AcDbBlockBegin
  2
*PAPER_SPACE
 70
     0
 10
0.00000000000000
 20
0.00000000000000
 30
0.00000000000000
  3
*PAPER_SPACE
  1

  0
ENDBLK
  5
40
330
2B
100
AcDbEntity
 67
     1
  8
0
100
AcDbBlockEnd
  0
BLOCK
  5
41
330
18
100
AcDbEntity
  8
0
100
AcDbBlockBegin
  2
*U1
 70
     1
 10
0.00000000000000
 20
0.00000000000000
 30
0.00000000000000
  3
*U1
  1

  0
MTEXT
  5
42
330
18
100
AcDbEntity
  8
Details 10
 62
     7
370
    30
100
AcDbMText
 10
131.40000000000003
 20
-209.19999999999987
 30
0.00000000000000
 40
2.80000000000000
 41
0.00000000000000
 71
     7
 72
     1
  1
\fArial Narrow|b0|i0;Verfüllung gem. Zulassung mit Normalbeton
 11
1.00000000000000
 21
0.00000000000000
 31
0.00000000000000
 73
     1
 44
1.00000000000000
  0
MTEXT
  5
43
330
18
100
AcDbEntity
  8
Details 10
 62
     7
370
    30
100
AcDbMText
 10
131.40000000000003
 20
-210.79999999999987
 30
0.00000000000000
 40
2.80000000000000
 41
0.00000000000000
 71
     1
 72
     1
  1
\fArial Narrow|b0|i0;(mind. C16/20) nach DIN EN 206-1\Pi.V.m. DIN 1045-2
 11
1.00000000000000
 21
0.00000000000000
 31
0.00000000000000
 73
     1
 44
1.00000000000000
  0
LINE
  5
44
330
18
100
AcDbEntity
  8
Details 10
  6
CONTINUOUS
 62
    12
370
    25
100
AcDbLine
 10
116.08090664781794
 20
-201.96380770624199
 30
0.00000000000000
 11
130.00000000000003
 21
-209.99999999999989
 31
0.00000000000000
  0
HATCH
  5
45
330
18
100
AcDbEntity
  8
Details 10
 62
    12
100
AcDbHatch
 10
0.00000000000000
 20
0.00000000000000
 30
0.00000000000000
210
0.00000000000000
220
0.00000000000000
230
1.00000000000000
  2
SOLID
 70
     1
 71
     0
 91
        1
 92
        0
 93
       16
 72
     1
 10
116.58090664781794
 20
-201.96380770624199
 11
116.54284641407358
 21
-201.77246599005946
 72
     1
 10
116.54284641407358
 20
-201.77246599005946
 11
116.43446003841120
 21
-201.61025431564875
 72
     1
 10
116.43446003841120
 20
-201.61025431564875
 11
116.27224836400048
 21
-201.50186793998637
 72
     1
 10
116.27224836400048
 20
-201.50186793998637
 11
116.08090664781794
 21
-201.46380770624202
 72
     1
 10
116.08090664781794
 20
-201.46380770624202
 11
115.88956493163541
 21
-201.50186793998637
 72
     1
 10
115.88956493163541
 20
-201.50186793998637
 11
115.72735325722468
 21
-201.61025431564875
 72
     1
 10
115.72735325722468
 20
-201.61025431564875
 11
115.61896688156232
 21
-201.77246599005946
 72
     1
 10
115.61896688156232
 20
-201.77246599005946
 11
115.58090664781794
 21
-201.96380770624199
 72
     1
 10
115.58090664781794
 20
-201.96380770624199
 11
115.61896688156232
 21
-202.15514942242456
 72
     1
 10
115.61896688156232
 20
-202.15514942242456
 11
115.72735325722468
 21
-202.31736109683530
 72
     1
 10
115.72735325722468
 20
-202.31736109683530
 11
115.88956493163541
 21
-202.42574747249768
 72
     1
 10
115.88956493163541
 20
-202.42574747249768
 11
116.08090664781794
 21
-202.46380770624199
 72
     1
 10
116.08090664781794
 20
-202.46380770624199
 11
116.27224836400048
 21
-202.42574747249768
 72
     1
 10
116.27224836400048
 20
-202.42574747249768
 11
116.43446003841120
 21
-202.31736109683530
 72
     1
 10
116.43446003841120
 20
-202.31736109683530
 11
116.54284641407358
 21
-202.15514942242456
 72
     1
 10
116.54284641407358
 20
-202.15514942242456
 11
116.58090664781794
 21
-201.96380770624199
 97
        0
 75
     0
 76
     0
 98
        1
 10
0.00000000000000
 20
0.00000000000000
  0
LWPOLYLINE
  5
46
330
18
100
AcDbEntity
  8
Details 10
  6
CONTINUOUS
 62
    12
370
    25
100
AcDbPolyline
 90
       17
 70
   128
 10
116.58090664781794
 20
-201.96380770624199
 10
116.54284641407358
 20
-201.77246599005946
 10
116.43446003841120
 20
-201.61025431564875
 10
116.27224836400048
 20
-201.50186793998637
 10
116.08090664781794
 20
-201.46380770624202
 10
115.88956493163541
 20
-201.50186793998637
 10
115.72735325722468
 20
-201.61025431564875
 10
115.61896688156232
 20
-201.77246599005946
 10
115.58090664781794
 20
-201.96380770624199
 10
115.61896688156232
 20
-202.15514942242456
 10
115.72735325722468
 20
-202.31736109683530
 10
115.88956493163541
 20
-202.42574747249768
 10
116.08090664781794
 20
-202.46380770624199
 10
116.27224836400048
 20
-202.42574747249768
 10
116.43446003841120
 20
-202.31736109683530
 10
116.54284641407358
 20
-202.15514942242456
 10
116.58090664781794
 20
-201.96380770624199
  0
LINE
  5
47
330
18
100
AcDbEntity
  8
Details 10
  6
CONTINUOUS
 62
    12
370
    25
100
AcDbLine
 10
130.00000000000003
 20
-209.99999999999989
 30
0.00000000000000
 11
194.20436673794717
 21
-209.99999999999989
 31
0.00000000000000
  0
ENDBLK
  5
48
330
18
100
AcDbEntity
  8
0
100
AcDbBlockEnd
  0
BLOCK
  5
49
330
19
100
AcDbEntity
  8
0
100
AcDbBlockBegin
  2
*D1
 70
     1
 10
0.00000000000000
 20
0.00000000000000
 30
0.00000000000000
  3
*D1
  1

  0
LINE
  5
4A
330
19
100
AcDbEntity
  8
Details 10
  6
CONTINUOUS
 62
     7
370
    25
100
AcDbLine
 10
97.99999999999992
 20
-236.99999999999986
 30
0.00000000000000
 11
125.99999999999997
 21
-236.99999999999991
 31
0.00000000000000
  0
LINE
  5
4B
330
19
100
AcDbEntity
  8
Details 10
  6
CONTINUOUS
 62
     7
370
    25
100
AcDbLine
 10
99.99999999999992
 20
-239.49999999999983
 30
0.00000000000000
 11
99.99999999999992
 21
-233.14573918052795
 31
0.00000000000000
  0
LINE
  5
4C
330
19
100
AcDbEntity
  8
Details 10
  6
CONTINUOUS
 62
     7
370
    25
100
AcDbLine
 10
101.76776695296628
 20
-235.23223304703347
 30
0.00000000000000
 11
98.23223304703355
 21
-238.76776695296618
 31
0.00000000000000
  0
LINE
  5
4D
330
19
100
AcDbEntity
  8
Details 10
  6
CONTINUOUS
 62
     7
370
    25
100
AcDbLine
 10
123.99999999999999
 20
-239.49999999999994
 30
0.00000000000000
 11
123.99999999999999
 21
-233.14573918052795
 31
0.00000000000000
  0
LINE
  5
4E
330
19
100
AcDbEntity
  8
Details 10
  6
CONTINUOUS
 62
     7
370
    25
100
AcDbLine
 10
125.76776695296634
 20
-235.23223304703356
 30
0.00000000000000
 11
122.23223304703362
 21
-238.76776695296630
 31
0.00000000000000
  0
MTEXT
  5
4F
330
19
100
AcDbEntity
  8
Details 10
 62
     7
370
    30
100
AcDbMText
 10
111.99999999999994
 20
-235.79999999999990
 30
0.00000000000000
 40
2.80000000000000
 41
0.00000000000000
 71
     8
 72
     1
  1
\fArial Narrow|b0|i0;24cm
 11
1.00000000000000
 21
-0.00000000000000
 31
0.00000000000000
 73
     1
 44
1.00000000000000
  0
MTEXT
  5
50
330
19
100
AcDbEntity
  8
Details 10
 62
     7
370
    30
100
AcDbMText
 10
111.99999999999994
 20
-238.19999999999987
 30
0.00000000000000
 40
2.80000000000000
 41
0.00000000000000
 71
     2
 72
     1
  1
\fArial Narrow|b0|i0;(30 cm)
 11
1.00000000000000
 21
-0.00000000000000
 31
0.00000000000000
 73
     1
 44
1.00000000000000
  0
ENDBLK
  5
51
330
19
100
AcDbEntity
  8
0
100
AcDbBlockEnd
  0
BLOCK
  5
52
330
1A
100
AcDbEntity
  8
0
100
AcDbBlockBegin
  2
*U2
 70
     1
 10
0.00000000000000
 20
0.00000000000000
 30
0.00000000000000
  3
*U2
  1

  0
MTEXT
  5
53
330
1A
100
AcDbEntity
  8
Details 10
 62
     7
370
    30
100
AcDbMText
 10
142.56025403784432
 20
-118.19999999999992
 30
0.00000000000000
 40
2.80000000000000
 41
0.00000000000000
 71
     7
 72
     1
  1
\fArial Narrow|b0|i0;Treppenhauswand
 11
1.00000000000000
 21
0.00000000000000
 31
0.00000000000000
 73
     1
 44
1.00000000000000
  0
MTEXT
  5
54
330
1A
100
AcDbEntity
  8
Details 10
 62
     7
370
    30
100
AcDbMText
 10
142.56025403784432
 20
-119.79999999999990
 30
0.00000000000000
 40
2.80000000000000
 41
0.00000000000000
 71
     1
 72
     1
  1
\fArial Narrow|b0|i0;aus Hörl+Hartmann\PUSZ-Schalungsziegeln
 11
1.00000000000000
 21
0.00000000000000
 31
0.00000000000000
 73
     1
 44
1.00000000000000
  0
LINE
  5
55
330
1A
100
AcDbEntity
  8
Details 10
  6
CONTINUOUS
 62
    12
370
    25
100
AcDbLine
 10
128.08012701892210
 20
-132.08012701892210
 30
0.00000000000000
 11
141.16025403784431
 21
-118.99999999999991
 31
0.00000000000000
  0
HATCH
  5
56
330
1A
100
AcDbEntity
  8
Details 10
 62
    12
100
AcDbHatch
 10
0.00000000000000
 20
0.00000000000000
 30
0.00000000000000
210
0.00000000000000
220
0.00000000000000
230
1.00000000000000
  2
SOLID
 70
     1
 71
     0
 91
        1
 92
        0
 93
       16
 72
     1
 10
128.58012701892210
 20
-132.08012701892210
 11
128.54206678517772
 21
-131.88878530273959
 72
     1
 10
128.54206678517772
 20
-131.88878530273959
 11
128.43368040951538
 21
-131.72657362832885
 72
     1
 10
128.43368040951538
 20
-131.72657362832885
 11
128.27146873510463
 21
-131.61818725266647
 72
     1
 10
128.27146873510463
 20
-131.61818725266647
 11
128.08012701892210
 21
-131.58012701892213
 72
     1
 10
128.08012701892210
 20
-131.58012701892213
 11
127.88878530273959
 21
-131.61818725266647
 72
     1
 10
127.88878530273959
 20
-131.61818725266647
 11
127.72657362832884
 21
-131.72657362832885
 72
     1
 10
127.72657362832884
 20
-131.72657362832885
 11
127.61818725266646
 21
-131.88878530273959
 72
     1
 10
127.61818725266646
 20
-131.88878530273959
 11
127.58012701892213
 21
-132.08012701892210
 72
     1
 10
127.58012701892213
 20
-132.08012701892210
 11
127.61818725266646
 21
-132.27146873510463
 72
     1
 10
127.61818725266646
 20
-132.27146873510463
 11
127.72657362832884
 21
-132.43368040951538
 72
     1
 10
127.72657362832884
 20
-132.43368040951538
 11
127.88878530273959
 21
-132.54206678517775
 72
     1
 10
127.88878530273959
 20
-132.54206678517775
 11
128.08012701892210
 21
-132.58012701892210
 72
     1
 10
128.08012701892210
 20
-132.58012701892210
 11
128.27146873510463
 21
-132.54206678517775
 72
     1
 10
128.27146873510463
 20
-132.54206678517775
 11
128.43368040951538
 21
-132.43368040951538
 72
     1
 10
128.43368040951538
 20
-132.43368040951538
 11
128.54206678517772
 21
-132.27146873510463
 72
     1
 10
128.54206678517772
 20
-132.27146873510463
 11
128.58012701892210
 21
-132.08012701892210
 97
        0
 75
     0
 76
     0
 98
        1
 10
0.00000000000000
 20
0.00000000000000
  0
LWPOLYLINE
  5
57
330
1A
100
AcDbEntity
  8
Details 10
  6
CONTINUOUS
 62
    12
370
    25
100
AcDbPolyline
 90
       17
 70
   128
 10
128.58012701892210
 20
-132.08012701892210
 10
128.54206678517772
 20
-131.88878530273959
 10
128.43368040951538
 20
-131.72657362832885
 10
128.27146873510463
 20
-131.61818725266647
 10
128.08012701892210
 20
-131.58012701892213
 10
127.88878530273959
 20
-131.61818725266647
 10
127.72657362832884
 20
-131.72657362832885
 10
127.61818725266646
 20
-131.88878530273959
 10
127.58012701892213
 20
-132.08012701892210
 10
127.61818725266646
 20
-132.27146873510463
 10
127.72657362832884
 20
-132.43368040951538
 10
127.88878530273959
 20
-132.54206678517775
 10
128.08012701892210
 20
-132.58012701892210
 10
128.27146873510463
 20
-132.54206678517775
 10
128.43368040951538
 20
-132.43368040951538
 10
128.54206678517772
 20
-132.27146873510463
 10
128.58012701892210
 20
-132.08012701892210
  0
LINE
  5
58
330
1A
100
AcDbEntity
  8
Details 10
  6
CONTINUOUS
 62
    12
370
    25
100
AcDbLine
 10
141.16025403784431
 20
-118.99999999999991
 30
0.00000000000000
 11
175.96690013037929
 21
-118.99999999999991
 31
0.00000000000000
  0
ENDBLK
  5
59
330
1A
100
AcDbEntity
  8
0
100
AcDbBlockEnd
  0
BLOCK
  5
5A
330
1B
100
AcDbEntity
  8
0
100
AcDbBlockBegin
  2
*D2
 70
     1
 10
0.00000000000000
 20
0.00000000000000
 30
0.00000000000000
  3
*D2
  1

  0
LINE
  5
5B
330
1B
100
AcDbEntity
  8
Details 10
  6
CONTINUOUS
 62
     7
370
    25
100
AcDbLine
 10
43.99999999999990
 20
-157.00000000000000
 30
0.00000000000000
 11
44.00000000000000
 21
-128.99999999999991
 31
0.00000000000000
  0
LINE
  5
5C
330
1B
100
AcDbEntity
  8
Details 10
  6
CONTINUOUS
 62
     7
370
    25
100
AcDbLine
 10
41.49999999999991
 20
-155.00000000000000
 30
0.00000000000000
 11
51.99999999999992
 21
-155.00000000000000
 31
0.00000000000000
  0
LINE
  5
5D
330
1B
100
AcDbEntity
  8
Details 10
  6
CONTINUOUS
 62
     7
370
    25
100
AcDbLine
 10
42.23223304703354
 20
-153.23223304703362
 30
0.00000000000000
 11
45.76776695296628
 21
-156.76776695296635
 31
0.00000000000000
  0
LINE
  5
5E
330
1B
100
AcDbEntity
  8
Details 10
  6
CONTINUOUS
 62
     7
370
    25
100
AcDbLine
 10
41.49999999999999
 20
-130.99999999999991
 30
0.00000000000000
 11
52.00000000000000
 21
-130.99999999999991
 31
0.00000000000000
  0
LINE
  5
5F
330
1B
100
AcDbEntity
  8
Details 10
  6
CONTINUOUS
 62
     7
370
    25
100
AcDbLine
 10
42.23223304703362
 20
-129.23223304703353
 30
0.00000000000000
 11
45.76776695296637
 21
-132.76776695296630
 31
0.00000000000000
  0
MTEXT
  5
60
330
1B
100
AcDbEntity
  8
Details 10
 62
     7
370
    30
100
AcDbMText
 10
42.79999999999995
 20
-142.99999999999997
 30
0.00000000000000
 40
2.80000000000000
 41
0.00000000000000
 71
     8
 72
     1
  1
\fArial Narrow|b0|i0;24cm
 11
0.00000000000000
 21
1.00000000000000
 31
0.00000000000000
 73
     1
 44
1.00000000000000
  0
MTEXT
  5
61
330
1B
100
AcDbEntity
  8
Details 10
 62
     7
370
    30
100
AcDbMText
 10
45.19999999999995
 20
-142.99999999999997
 30
0.00000000000000
 40
2.80000000000000
 41
0.00000000000000
 71
     2
 72
     1
  1
\fArial Narrow|b0|i0;(30 cm)
 11
0.00000000000000
 21
1.00000000000000
 31
0.00000000000000
 73
     1
 44
1.00000000000000
  0
ENDBLK
  5
62
330
1B
100
AcDbEntity
  8
0
100
AcDbBlockEnd
  0
BLOCK
  5
63
330
1C
100
AcDbEntity
  8
0
100
AcDbBlockBegin
  2
*U3
 70
     1
 10
0.00000000000000
 20
0.00000000000000
 30
0.00000000000000
  3
*U3
  1

  0
MTEXT
  5
64
330
1C
100
AcDbEntity
  8
Details 10
 62
     7
370
    30
100
AcDbMText
 10
132.40000000000001
 20
-164.20000000000002
 30
0.00000000000000
 40
2.80000000000000
 41
0.00000000000000
 71
     7
 72
     1
  1
\fArial Narrow|b0|i0;Fugen voll vermörtelt
 11
1.00000000000000
 21
0.00000000000000
 31
0.00000000000000
 73
     1
 44
1.00000000000000
  0
MTEXT
  5
65
330
1C
100
AcDbEntity
  8
Details 10
 62
     7
370
    30
100
AcDbMText
 10
132.40000000000001
 20
-165.80000000000004
 30
0.00000000000000
 40
2.80000000000000
 41
0.00000000000000
 71
     1
 72
     1
  1
\fArial Narrow|b0|i0;mit Normalmauermörtel
 11
1.00000000000000
 21
0.00000000000000
 31
0.00000000000000
 73
     1
 44
1.00000000000000
  0
LINE
  5
66
330
1C
100
AcDbEntity
  8
Details 10
  6
CONTINUOUS
 62
    12
370
    25
100
AcDbLine
 10
121.83699225804351
 20
-155.66369438183497
 30
0.00000000000000
 11
131.00000000000000
 21
-165.00000000000003
 31
0.00000000000000
  0
HATCH
  5
67
330
1C
100
AcDbEntity
  8
Details 10
 62
    12
100
AcDbHatch
 10
0.00000000000000
 20
0.00000000000000
 30
0.00000000000000
210
0.00000000000000
220
0.00000000000000
230
1.00000000000000
  2
SOLID
 70
     1
 71
     0
 91
        1
 92
        0
 93
       16
 72
     1
 10
122.33699225804349
 20
-155.66369438183497
 11
122.29893202429915
 21
-155.47235266565244
 72
     1
 10
122.29893202429915
 20
-155.47235266565244
 11
122.19054564863677
 21
-155.31014099124172
 72
     1
 10
122.19054564863677
 20
-155.31014099124172
 11
122.02833397422603
 21
-155.20175461557932
 72
     1
 10
122.02833397422603
 20
-155.20175461557932
 11
121.83699225804351
 21
-155.16369438183497
 72
     1
 10
121.83699225804351
 20
-155.16369438183497
 11
121.64565054186096
 21
-155.20175461557932
 72
     1
 10
121.64565054186096
 20
-155.20175461557932
 11
121.48343886745023
 21
-155.31014099124172
 72
     1
 10
121.48343886745023
 20
-155.31014099124172
 11
121.37505249178787
 21
-155.47235266565244
 72
     1
 10
121.37505249178787
 20
-155.47235266565244
 11
121.33699225804351
 21
-155.66369438183497
 72
     1
 10
121.33699225804351
 20
-155.66369438183497
 11
121.37505249178787
 21
-155.85503609801751
 72
     1
 10
121.37505249178787
 20
-155.85503609801751
 11
121.48343886745023
 21
-156.01724777242822
 72
     1
 10
121.48343886745023
 20
-156.01724777242822
 11
121.64565054186096
 21
-156.12563414809060
 72
     1
 10
121.64565054186096
 20
-156.12563414809060
 11
121.83699225804351
 21
-156.16369438183497
 72
     1
 10
121.83699225804351
 20
-156.16369438183497
 11
122.02833397422603
 21
-156.12563414809060
 72
     1
 10
122.02833397422603
 20
-156.12563414809060
 11
122.19054564863677
 21
-156.01724777242822
 72
     1
 10
122.19054564863677
 20
-156.01724777242822
 11
122.29893202429915
 21
-155.85503609801751
 72
     1
 10
122.29893202429915
 20
-155.85503609801751
 11
122.33699225804349
 21
-155.66369438183497
 97
        0
 75
     0
 76
     0
 98
        1
 10
0.00000000000000
 20
0.00000000000000
  0
LWPOLYLINE
  5
68
330
1C
100
AcDbEntity
  8
Details 10
  6
CONTINUOUS
 62
    12
370
    25
100
AcDbPolyline
 90
       17
 70
   128
 10
122.33699225804349
 20
-155.66369438183497
 10
122.29893202429915
 20
-155.47235266565244
 10
122.19054564863677
 20
-155.31014099124172
 10
122.02833397422603
 20
-155.20175461557932
 10
121.83699225804351
 20
-155.16369438183497
 10
121.64565054186096
 20
-155.20175461557932
 10
121.48343886745023
 20
-155.31014099124172
 10
121.37505249178787
 20
-155.47235266565244
 10
121.33699225804351
 20
-155.66369438183497
 10
121.37505249178787
 20
-155.85503609801751
 10
121.48343886745023
 20
-156.01724777242822
 10
121.64565054186096
 20
-156.12563414809060
 10
121.83699225804351
 20
-156.16369438183497
 10
122.02833397422603
 20
-156.12563414809060
 10
122.19054564863677
 20
-156.01724777242822
 10
122.29893202429915
 20
-155.85503609801751
 10
122.33699225804349
 20
-155.66369438183497
  0
LINE
  5
69
330
1C
100
AcDbEntity
  8
Details 10
  6
CONTINUOUS
 62
    12
370
    25
100
AcDbLine
 10
131.00000000000000
 20
-165.00000000000003
 30
0.00000000000000
 11
166.67841417185070
 21
-165.00000000000003
 31
0.00000000000000
  0
ENDBLK
  5
6A
330
1C
100
AcDbEntity
  8
0
100
AcDbBlockEnd
  0
BLOCK
  5
6B
330
1D
100
AcDbEntity
  8
0
100
AcDbBlockBegin
  2
*U4
 70
     1
 10
0.00000000000000
 20
0.00000000000000
 30
0.00000000000000
  3
*U4
  1

  0
MTEXT
  5
6C
330
1D
100
AcDbEntity
  8
Details 10
 62
     7
370
    30
100
AcDbMText
 10
132.56025403784426
 20
-182.80178665485136
 30
0.00000000000000
 40
2.80000000000000
 41
0.00000000000000
 71
     7
 72
     1
  1
\fArial Narrow|b0|i0;Wohnungstrennwand
 11
1.00000000000000
 21
0.00000000000000
 31
0.00000000000000
 73
     1
 44
1.00000000000000
  0
MTEXT
  5
6D
330
1D
100
AcDbEntity
  8
Details 10
 62
     7
370
    30
100
AcDbMText
 10
132.56025403784426
 20
-184.40178665485135
 30
0.00000000000000
 40
2.80000000000000
 41
0.00000000000000
 71
     1
 72
     1
  1
\fArial Narrow|b0|i0;aus Hörl+Hartmann\PUSZ-Schalungsziegeln
 11
1.00000000000000
 21
0.00000000000000
 31
0.00000000000000
 73
     1
 44
1.00000000000000
  0
LINE
  5
6E
330
1D
100
AcDbEntity
  8
Details 10
  6
CONTINUOUS
 62
    12
370
    25
100
AcDbLine
 10
122.46039403232322
 20
-176.58593022504431
 30
0.00000000000000
 11
131.16025403784425
 21
-183.60178665485137
 31
0.00000000000000
  0
HATCH
  5
6F
330
1D
100
AcDbEntity
  8
Details 10
 62
    12
100
AcDbHatch
 10
0.00000000000000
 20
0.00000000000000
 30
0.00000000000000
210
0.00000000000000
220
0.00000000000000
230
1.00000000000000
  2
SOLID
 70
     1
 71
     0
 91
        1
 92
        0
 93
       16
 72
     1
 10
122.96039403232322
 20
-176.58593022504431
 11
122.92233379857886
 21
-176.39458850886180
 72
     1
 10
122.92233379857886
 20
-176.39458850886180
 11
122.81394742291650
 21
-176.23237683445106
 72
     1
 10
122.81394742291650
 20
-176.23237683445106
 11
122.65173574850577
 21
-176.12399045878868
 72
     1
 10
122.65173574850577
 20
-176.12399045878868
 11
122.46039403232322
 21
-176.08593022504434
 72
     1
 10
122.46039403232322
 20
-176.08593022504434
 11
122.26905231614070
 21
-176.12399045878868
 72
     1
 10
122.26905231614070
 20
-176.12399045878868
 11
122.10684064172996
 21
-176.23237683445106
 72
     1
 10
122.10684064172996
 20
-176.23237683445106
 11
121.99845426606758
 21
-176.39458850886180
 72
     1
 10
121.99845426606758
 20
-176.39458850886180
 11
121.96039403232324
 21
-176.58593022504431
 72
     1
 10
121.96039403232324
 20
-176.58593022504431
 11
121.99845426606758
 21
-176.77727194122684
 72
     1
 10
121.99845426606758
 20
-176.77727194122684
 11
122.10684064172996
 21
-176.93948361563761
 72
     1
 10
122.10684064172996
 20
-176.93948361563761
 11
122.26905231614070
 21
-177.04786999129996
 72
     1
 10
122.26905231614070
 20
-177.04786999129996
 11
122.46039403232322
 21
-177.08593022504431
 72
     1
 10
122.46039403232322
 20
-177.08593022504431
 11
122.65173574850577
 21
-177.04786999129996
 72
     1
 10
122.65173574850577
 20
-177.04786999129996
 11
122.81394742291650
 21
-176.93948361563761
 72
     1
 10
122.81394742291650
 20
-176.93948361563761
 11
122.92233379857886
 21
-176.77727194122684
 72
     1
 10
122.92233379857886
 20
-176.77727194122684
 11
122.96039403232322
 21
-176.58593022504431
 97
        0
 75
     0
 76
     0
 98
        1
 10
0.00000000000000
 20
0.00000000000000
  0
LWPOLYLINE
  5
70
330
1D
100
AcDbEntity
  8
Details 10
  6
CONTINUOUS
 62
    12
370
    25
100
AcDbPolyline
 90
       17
 70
   128
 10
122.96039403232322
 20
-176.58593022504431
 10
122.92233379857886
 20
-176.39458850886180
 10
122.81394742291650
 20
-176.23237683445106
 10
122.65173574850577
 20
-176.12399045878868
 10
122.46039403232322
 20
-176.08593022504434
 10
122.26905231614070
 20
-176.12399045878868
 10
122.10684064172996
 20
-176.23237683445106
 10
121.99845426606758
 20
-176.39458850886180
 10
121.96039403232324
 20
-176.58593022504431
 10
121.99845426606758
 20
-176.77727194122684
 10
122.10684064172996
 20
-176.93948361563761
 10
122.26905231614070
 20
-177.04786999129996
 10
122.46039403232322
 20
-177.08593022504431
 10
122.65173574850577
 20
-177.04786999129996
 10
122.81394742291650
 20
-176.93948361563761
 10
122.92233379857886
 20
-176.77727194122684
 10
122.96039403232322
 20
-176.58593022504431
  0
LINE
  5
71
330
1D
100
AcDbEntity
  8
Details 10
  6
CONTINUOUS
 62
    12
370
    25
100
AcDbLine
 10
131.16025403784425
 20
-183.60178665485137
 30
0.00000000000000
 11
165.96690013037926
 21
-183.60178665485137
 31
0.00000000000000
  0
ENDBLK
  5
72
330
1D
100
AcDbEntity
  8
0
100
AcDbBlockEnd
  0
BLOCK
  5
73
330
1E
100
AcDbEntity
  8
0
100
AcDbBlockBegin
  2
*U5
 70
     1
 10
0.00000000000000
 20
0.00000000000000
 30
0.00000000000000
  3
*U5
  1

  0
MTEXT
  5
74
330
1E
100
AcDbEntity
  8
Details 10
 62
     7
370
    30
100
AcDbMText
 10
59.92818089035770
 20
-161.20000000000005
 30
0.00000000000000
 40
2.80000000000000
 41
0.00000000000000
 71
     7
 72
     1
  1
\fArial Narrow|b0|i0;Trennschnitt
 11
1.00000000000000
 21
0.00000000000000
 31
0.00000000000000
 73
     1
 44
1.00000000000000
  0
MTEXT
  5
75
330
1E
100
AcDbEntity
  8
Details 10
 62
     7
370
    30
100
AcDbMText
 10
59.92818089035770
 20
-162.80000000000004
 30
0.00000000000000
 40
2.80000000000000
 41
0.00000000000000
 71
     1
 72
     1
  1
\fArial Narrow|b0|i0;(dauerelastisch verfugt)
 11
1.00000000000000
 21
0.00000000000000
 31
0.00000000000000
 73
     1
 44
1.00000000000000
  0
LINE
  5
76
330
1E
100
AcDbEntity
  8
Details 10
  6
CONTINUOUS
 62
    12
370
    25
100
AcDbLine
 10
98.49999999999999
 20
-156.49999999999997
 30
0.00000000000000
 11
92.00000000000000
 21
-162.00000000000003
 31
0.00000000000000
  0
HATCH
  5
77
330
1E
100
AcDbEntity
  8
Details 10
 62
    12
100
AcDbHatch
 10
0.00000000000000
 20
0.00000000000000
 30
0.00000000000000
210
0.00000000000000
220
0.00000000000000
230
1.00000000000000
  2
SOLID
 70
     1
 71
     0
 91
        1
 92
        0
 93
       16
 72
     1
 10
98.99999999999999
 20
-156.49999999999997
 11
98.96193976625564
 21
-156.30865828381746
 72
     1
 10
98.96193976625564
 20
-156.30865828381746
 11
98.85355339059326
 21
-156.14644660940672
 72
     1
 10
98.85355339059326
 20
-156.14644660940672
 11
98.69134171618255
 21
-156.03806023374435
 72
     1
 10
98.69134171618255
 20
-156.03806023374435
 11
98.49999999999999
 21
-156.00000000000000
 72
     1
 10
98.49999999999999
 20
-156.00000000000000
 11
98.30865828381745
 21
-156.03806023374435
 72
     1
 10
98.30865828381745
 20
-156.03806023374435
 11
98.14644660940671
 21
-156.14644660940672
 72
     1
 10
98.14644660940671
 20
-156.14644660940672
 11
98.03806023374433
 21
-156.30865828381746
 72
     1
 10
98.03806023374433
 20
-156.30865828381746
 11
97.99999999999999
 21
-156.49999999999997
 72
     1
 10
97.99999999999999
 20
-156.49999999999997
 11
98.03806023374433
 21
-156.69134171618251
 72
     1
 10
98.03806023374433
 20
-156.69134171618251
 11
98.14644660940671
 21
-156.85355339059325
 72
     1
 10
98.14644660940671
 20
-156.85355339059325
 11
98.30865828381745
 21
-156.96193976625560
 72
     1
 10
98.30865828381745
 20
-156.96193976625560
 11
98.49999999999999
 21
-156.99999999999997
 72
     1
 10
98.49999999999999
 20
-156.99999999999997
 11
98.69134171618255
 21
-156.96193976625560
 72
     1
 10
98.69134171618255
 20
-156.96193976625560
 11
98.85355339059326
 21
-156.85355339059325
 72
     1
 10
98.85355339059326
 20
-156.85355339059325
 11
98.96193976625564
 21
-156.69134171618251
 72
     1
 10
98.96193976625564
 20
-156.69134171618251
 11
98.99999999999999
 21
-156.49999999999997
 97
        0
 75
     0
 76
     0
 98
        1
 10
0.00000000000000
 20
0.00000000000000
  0
LWPOLYLINE
  5
78
330
1E
100
AcDbEntity
  8
Details 10
  6
CONTINUOUS
 62
    12
370
    25
100
AcDbPolyline
 90
       17
 70
   128
 10
98.99999999999999
 20
-156.49999999999997
 10
98.96193976625564
 20
-156.30865828381746
 10
98.85355339059326
 20
-156.14644660940672
 10
98.69134171618255
 20
-156.03806023374435
 10
98.49999999999999
 20
-156.00000000000000
 10
98.30865828381745
 20
-156.03806023374435
 10
98.14644660940671
 20
-156.14644660940672
 10
98.03806023374433
 20
-156.30865828381746
 10
97.99999999999999
 20
-156.49999999999997
 10
98.03806023374433
 20
-156.69134171618251
 10
98.14644660940671
 20
-156.85355339059325
 10
98.30865828381745
 20
-156.96193976625560
 10
98.49999999999999
 20
-156.99999999999997
 10
98.69134171618255
 20
-156.96193976625560
 10
98.85355339059326
 20
-156.85355339059325
 10
98.96193976625564
 20
-156.69134171618251
 10
98.99999999999999
 20
-156.49999999999997
  0
LINE
  5
79
330
1E
100
AcDbEntity
  8
Details 10
  6
CONTINUOUS
 62
    12
370
    25
100
AcDbLine
 10
58.52818089035770
 20
-162.00000000000003
 30
0.00000000000000
 11
92.00000000000000
 21
-162.00000000000003
 31
0.00000000000000
  0
ENDBLK
  5
7A
330
1E
100
AcDbEntity
  8
0
100
AcDbBlockEnd
  0
BLOCK
  5
7B
330
1F
100
AcDbEntity
  8
0
100
AcDbBlockBegin
  2
*U6
 70
     1
 10
0.00000000000000
 20
0.00000000000000
 30
0.00000000000000
  3
*U6
  1

  0
LINE
  5
7C
330
1F
100
AcDbEntity
  8
Details 10
  6
CONTINUOUS
 62
     7
370
    35
100
AcDbLine
 10
123.99999999999955
 20
-229.79999999999961
 30
0.00000000000000
 11
123.99999999999955
 21
-194.09999999999971
 31
0.00000000000000
  0
LINE
  5
7D
330
1F
100
AcDbEntity
  8
Details 10
  6
CONTINUOUS
 62
     7
370
    35
100
AcDbLine
 10
120.99999999999964
 20
-229.79999999999961
 30
0.00000000000000
 11
123.99999999999955
 21
-229.79999999999961
 31
0.00000000000000
  0
LINE
  5
7E
330
1F
100
AcDbEntity
  8
Details 10
  6
CONTINUOUS
 62
     7
370
    35
100
AcDbLine
 10
102.99999999999959
 20
-229.79999999999961
 30
0.00000000000000
 11
106.00000000000006
 21
-229.79999999999961
 31
0.00000000000000
  0
LINE
  5
7F
330
1F
100
AcDbEntity
  8
Details 10
  6
DC_VERDECKT
 62
     7
370
    18
100
AcDbLine
 10
106.00000000000006
 20
-229.79999999999961
 30
0.00000000000000
 11
106.49999999999959
 21
-229.79999999999961
 31
0.00000000000000
  0
LINE
  5
80
330
1F
100
AcDbEntity
  8
Details 10
  6
CONTINUOUS
 62
     7
370
    35
100
AcDbLine
 10
99.99999999999956
 20
-194.09999999999971
 30
0.00000000000000
 11
99.99999999999956
 21
-229.79999999999961
 31
0.00000000000000
  0
LINE
  5
81
330
1F
100
AcDbEntity
  8
Details 10
  6
CONTINUOUS
 62
     7
370
    35
100
AcDbLine
 10
120.99999999999960
 20
-226.79999999999959
 30
0.00000000000000
 11
120.99999999999955
 21
-213.54999999999956
 31
0.00000000000000
  0
LINE
  5
82
330
1F
100
AcDbEntity
  8
Details 10
  6
CONTINUOUS
 62
     7
370
    35
100
AcDbLine
 10
120.99999999999950
 20
-209.54999999999964
 30
0.00000000000000
 11
120.99999999999950
 21
-196.29999999999967
 31
0.00000000000000
  0
LINE
  5
83
330
1F
100
AcDbEntity
  8
Details 10
  6
CONTINUOUS
 62
     7
370
    35
100
AcDbLine
 10
120.99999999999950
 20
-196.29999999999967
 30
0.00000000000000
 11
117.99999999999962
 21
-196.29999999999967
 31
0.00000000000000
  0
LINE
  5
84
330
1F
100
AcDbEntity
  8
Details 10
  6
DC_VERDECKT
 62
     7
370
    18
100
AcDbLine
 10
117.99999999999962
 20
-196.29999999999959
 30
0.00000000000000
 11
106.00000000000006
 21
-196.29999999999967
 31
0.00000000000000
  0
LINE
  5
85
330
1F
100
AcDbEntity
  8
Details 10
  6
CONTINUOUS
 62
     7
370
    35
100
AcDbLine
 10
106.00000000000009
 20
-196.29999999999967
 30
0.00000000000000
 11
102.99999999999953
 21
-196.29999999999967
 31
0.00000000000000
  0
LINE
  5
86
330
1F
100
AcDbEntity
  8
Details 10
  6
CONTINUOUS
 62
     7
370
    35
100
AcDbLine
 10
102.99999999999963
 20
-209.54999999999956
 30
0.00000000000000
 11
102.99999999999953
 21
-196.29999999999967
 31
0.00000000000000
  0
LINE
  5
87
330
1F
100
AcDbEntity
  8
Details 10
  6
CONTINUOUS
 62
     7
370
    35
100
AcDbLine
 10
102.99999999999959
 20
-213.54999999999956
 30
0.00000000000000
 11
102.99999999999953
 21
-226.79999999999959
 31
0.00000000000000
  0
LINE
  5
88
330
1F
100
AcDbEntity
  8
Details 10
  6
CONTINUOUS
 62
     7
370
    35
100
AcDbLine
 10
102.99999999999953
 20
-226.79999999999959
 30
0.00000000000000
 11
106.00000000000001
 21
-226.79999999999959
 31
0.00000000000000
  0
LINE
  5
89
330
1F
100
AcDbEntity
  8
Details 10
  6
DC_VERDECKT
 62
     7
370
    18
100
AcDbLine
 10
106.00000000000001
 20
-226.79999999999959
 30
0.00000000000000
 11
117.99999999999953
 21
-226.79999999999959
 31
0.00000000000000
  0
LINE
  5
8A
330
1F
100
AcDbEntity
  8
Details 10
  6
CONTINUOUS
 62
     7
370
    35
100
AcDbLine
 10
117.99999999999953
 20
-226.79999999999959
 30
0.00000000000000
 11
120.99999999999960
 21
-226.79999999999959
 31
0.00000000000000
  0
LINE
  5
8B
330
1F
100
AcDbEntity
  8
Details 10
  6
CONTINUOUS
 62
     7
370
    35
100
AcDbLine
 10
117.99999999999953
 20
-213.54999999999956
 30
0.00000000000000
 11
117.99999999999953
 21
-209.54999999999956
 31
0.00000000000000
  0
LINE
  5
8C
330
1F
100
AcDbEntity
  8
Details 10
  6
CONTINUOUS
 62
     7
370
    35
100
AcDbLine
 10
105.99999999999960
 20
-209.54999999999956
 30
0.00000000000000
 11
105.99999999999960
 21
-213.54999999999956
 31
0.00000000000000
  0
LINE
  5
8D
330
1F
100
AcDbEntity
  8
Details 10
  6
CONTINUOUS
 62
     7
370
    35
100
AcDbLine
 10
105.99999999999960
 20
-209.54999999999956
 30
0.00000000000000
 11
102.99999999999963
 21
-209.54999999999956
 31
0.00000000000000
  0
LINE
  5
8E
330
1F
100
AcDbEntity
  8
Details 10
  6
CONTINUOUS
 62
     7
370
    35
100
AcDbLine
 10
117.99999999999953
 20
-209.54999999999956
 30
0.00000000000000
 11
120.99999999999950
 21
-209.54999999999964
 31
0.00000000000000
  0
LINE
  5
8F
330
1F
100
AcDbEntity
  8
Details 10
  6
CONTINUOUS
 62
     7
370
    35
100
AcDbLine
 10
105.99999999999960
 20
-213.54999999999956
 30
0.00000000000000
 11
102.99999999999959
 21
-213.54999999999956
 31
0.00000000000000
  0
LINE
  5
90
330
1F
100
AcDbEntity
  8
Details 10
  6
CONTINUOUS
 62
     7
370
    35
100
AcDbLine
 10
120.99999999999955
 20
-213.54999999999956
 30
0.00000000000000
 11
117.99999999999953
 21
-213.54999999999956
 31
0.00000000000000
  0
LINE
  5
91
330
1F
100
AcDbEntity
  8
Details 10
  6
DC_VERDECKT
 62
     7
370
    18
100
AcDbLine
 10
106.00000000000009
 20
-213.54999999999956
 30
0.00000000000000
 11
117.99999999999953
 21
-213.54999999999956
 31
0.00000000000000
  0
LINE
  5
92
330
1F
100
AcDbEntity
  8
Details 10
  6
DC_VERDECKT
 62
     7
370
    18
100
AcDbLine
 10
106.00000000000009
 20
-209.54999999999956
 30
0.00000000000000
 11
117.99999999999953
 21
-209.54999999999956
 31
0.00000000000000
  0
LINE
  5
93
330
1F
100
AcDbEntity
  8
Details 10
  6
CONTINUOUS
 62
     7
370
    35
100
AcDbLine
 10
102.99999999999959
 20
-229.79999999999961
 30
0.00000000000000
 11
102.78564064605469
 21
-230.59999999999968
 31
0.00000000000000
  0
LINE
  5
94
330
1F
100
AcDbEntity
  8
Details 10
  6
CONTINUOUS
 62
     7
370
    35
100
AcDbLine
 10
102.78564064605465
 20
-230.59999999999960
 30
0.00000000000000
 11
100.79999999999951
 21
-230.59999999999960
 31
0.00000000000000
  0
LINE
  5
95
330
1F
100
AcDbEntity
  8
Details 10
  6
CONTINUOUS
 62
     7
370
    35
100
AcDbLine
 10
99.99999999999956
 20
-229.79999999999961
 30
0.00000000000000
 11
100.79999999999956
 21
-230.59999999999960
 31
0.00000000000000
  0
LINE
  5
96
330
1F
100
AcDbEntity
  8
Details 10
  6
DC_VERDECKT
 62
     7
370
    18
100
AcDbLine
 10
106.49999999999959
 20
-229.79999999999961
 30
0.00000000000000
 11
106.71435935394449
 21
-230.59999999999960
 31
0.00000000000000
  0
LINE
  5
97
330
1F
100
AcDbEntity
  8
Details 10
  6
DC_VERDECKT
 62
     7
370
    18
100
AcDbLine
 10
106.71435935394449
 20
-230.59999999999951
 30
0.00000000000000
 11
108.78564064605470
 21
-230.59999999999951
 31
0.00000000000000
  0
LINE
  5
98
330
1F
100
AcDbEntity
  8
Details 10
  6
DC_VERDECKT
 62
     7
370
    18
100
AcDbLine
 10
108.99999999999959
 20
-229.79999999999961
 30
0.00000000000000
 11
108.78564064605470
 21
-230.59999999999960
 31
0.00000000000000
  0
LINE
  5
99
330
1F
100
AcDbEntity
  8
Details 10
  6
DC_VERDECKT
 62
     7
370
    18
100
AcDbLine
 10
108.99999999999959
 20
-229.79999999999961
 30
0.00000000000000
 11
112.49999999999960
 21
-229.79999999999961
 31
0.00000000000000
  0
LINE
  5
9A
330
1F
100
AcDbEntity
  8
Details 10
  6
DC_VERDECKT
 62
     7
370
    18
100
AcDbLine
 10
112.49999999999960
 20
-229.79999999999961
 30
0.00000000000000
 11
112.71435935394450
 21
-230.59999999999960
 31
0.00000000000000
  0
LINE
  5
9B
330
1F
100
AcDbEntity
  8
Details 10
  6
DC_VERDECKT
 62
     7
370
    18
100
AcDbLine
 10
112.71435935394450
 20
-230.59999999999951
 30
0.00000000000000
 11
114.78564064605470
 21
-230.59999999999951
 31
0.00000000000000
  0
LINE
  5
9C
330
1F
100
AcDbEntity
  8
Details 10
  6
DC_VERDECKT
 62
     7
370
    18
100
AcDbLine
 10
114.99999999999960
 20
-229.79999999999961
 30
0.00000000000000
 11
114.78564064605470
 21
-230.59999999999960
 31
0.00000000000000
  0
LINE
  5
9D
330
1F
100
AcDbEntity
  8
Details 10
  6
DC_VERDECKT
 62
     7
370
    18
100
AcDbLine
 10
114.99999999999960
 20
-229.79999999999961
 30
0.00000000000000
 11
117.99999999999953
 21
-229.79999999999970
 31
0.00000000000000
  0
LINE
  5
9E
330
1F
100
AcDbEntity
  8
Details 10
  6
CONTINUOUS
 62
     7
370
    35
100
AcDbLine
 10
117.99999999999953
 20
-229.79999999999961
 30
0.00000000000000
 11
118.49999999999960
 21
-229.79999999999961
 31
0.00000000000000
  0
LINE
  5
9F
330
1F
100
AcDbEntity
  8
Details 10
  6
CONTINUOUS
 62
     7
370
    35
100
AcDbLine
 10
118.49999999999960
 20
-229.79999999999961
 30
0.00000000000000
 11
118.71435935394450
 21
-230.59999999999960
 31
0.00000000000000
  0
LINE
  5
A0
330
1F
100
AcDbEntity
  8
Details 10
  6
CONTINUOUS
 62
     7
370
    35
100
AcDbLine
 10
118.71435935394450
 20
-230.59999999999951
 30
0.00000000000000
 11
120.78564064605474
 21
-230.59999999999951
 31
0.00000000000000
  0
LINE
  5
A1
330
1F
100
AcDbEntity
  8
Details 10
  6
CONTINUOUS
 62
     7
370
    35
100
AcDbLine
 10
120.99999999999964
 20
-229.79999999999961
 30
0.00000000000000
 11
120.78564064605474
 21
-230.59999999999960
 31
0.00000000000000
  0
LINE
  5
A2
330
1F
100
AcDbEntity
  8
Details 10
  6
CONTINUOUS
 62
     7
370
    35
100
AcDbLine
 10
103.49999999999957
 20
-194.09999999999962
 30
0.00000000000000
 11
99.99999999999956
 21
-194.09999999999962
 31
0.00000000000000
  0
LINE
  5
A3
330
1F
100
AcDbEntity
  8
Details 10
  6
CONTINUOUS
 62
     7
370
    35
100
AcDbLine
 10
120.99999999999955
 20
-194.09999999999962
 30
0.00000000000000
 11
117.99999999999962
 21
-194.09999999999971
 31
0.00000000000000
  0
LINE
  5
A4
330
1F
100
AcDbEntity
  8
Details 10
  6
CONTINUOUS
 62
     7
370
    35
100
AcDbLine
 10
120.99999999999955
 20
-194.09999999999962
 30
0.00000000000000
 11
121.21435935394445
 21
-193.29999999999956
 31
0.00000000000000
  0
LINE
  5
A5
330
1F
100
AcDbEntity
  8
Details 10
  6
CONTINUOUS
 62
     7
370
    35
100
AcDbLine
 10
121.21435935394445
 20
-193.29999999999964
 30
0.00000000000000
 11
123.19999999999963
 21
-193.29999999999964
 31
0.00000000000000
  0
LINE
  5
A6
330
1F
100
AcDbEntity
  8
Details 10
  6
CONTINUOUS
 62
     7
370
    35
100
AcDbLine
 10
123.99999999999955
 20
-194.09999999999962
 30
0.00000000000000
 11
123.19999999999959
 21
-193.29999999999964
 31
0.00000000000000
  0
LINE
  5
A7
330
1F
100
AcDbEntity
  8
Details 10
  6
DC_VERDECKT
 62
     7
370
    18
100
AcDbLine
 10
117.99999999999962
 20
-194.09999999999962
 30
0.00000000000000
 11
117.78564064605473
 21
-193.29999999999964
 31
0.00000000000000
  0
LINE
  5
A8
330
1F
100
AcDbEntity
  8
Details 10
  6
DC_VERDECKT
 62
     7
370
    18
100
AcDbLine
 10
117.78564064605473
 20
-193.29999999999973
 30
0.00000000000000
 11
115.71435935394453
 21
-193.29999999999973
 31
0.00000000000000
  0
LINE
  5
A9
330
1F
100
AcDbEntity
  8
Details 10
  6
DC_VERDECKT
 62
     7
370
    18
100
AcDbLine
 10
115.49999999999963
 20
-194.09999999999962
 30
0.00000000000000
 11
115.71435935394453
 21
-193.29999999999964
 31
0.00000000000000
  0
LINE
  5
AA
330
1F
100
AcDbEntity
  8
Details 10
  6
DC_VERDECKT
 62
     7
370
    18
100
AcDbLine
 10
115.49999999999963
 20
-194.09999999999962
 30
0.00000000000000
 11
111.99999999999962
 21
-194.09999999999962
 31
0.00000000000000
  0
LINE
  5
AB
330
1F
100
AcDbEntity
  8
Details 10
  6
DC_VERDECKT
 62
     7
370
    18
100
AcDbLine
 10
111.99999999999962
 20
-194.09999999999962
 30
0.00000000000000
 11
111.78564064605473
 21
-193.29999999999964
 31
0.00000000000000
  0
LINE
  5
AC
330
1F
100
AcDbEntity
  8
Details 10
  6
DC_VERDECKT
 62
     7
370
    18
100
AcDbLine
 10
111.78564064605473
 20
-193.29999999999973
 30
0.00000000000000
 11
109.71435935394452
 21
-193.29999999999973
 31
0.00000000000000
  0
LINE
  5
AD
330
1F
100
AcDbEntity
  8
Details 10
  6
DC_VERDECKT
 62
     7
370
    18
100
AcDbLine
 10
109.49999999999962
 20
-194.09999999999962
 30
0.00000000000000
 11
109.71435935394452
 21
-193.29999999999964
 31
0.00000000000000
  0
LINE
  5
AE
330
1F
100
AcDbEntity
  8
Details 10
  6
DC_VERDECKT
 62
     7
370
    18
100
AcDbLine
 10
109.49999999999962
 20
-194.09999999999962
 30
0.00000000000000
 11
105.99999999999960
 21
-194.09999999999971
 31
0.00000000000000
  0
LINE
  5
AF
330
1F
100
AcDbEntity
  8
Details 10
  6
CONTINUOUS
 62
     7
370
    35
100
AcDbLine
 10
105.99999999999960
 20
-194.09999999999962
 30
0.00000000000000
 11
105.78564064605472
 21
-193.29999999999964
 31
0.00000000000000
  0
LINE
  5
B0
330
1F
100
AcDbEntity
  8
Details 10
  6
CONTINUOUS
 62
     7
370
    35
100
AcDbLine
 10
105.78564064605472
 20
-193.29999999999973
 30
0.00000000000000
 11
103.71435935394446
 21
-193.29999999999973
 31
0.00000000000000
  0
LINE
  5
B1
330
1F
100
AcDbEntity
  8
Details 10
  6
CONTINUOUS
 62
     7
370
    35
100
AcDbLine
 10
103.49999999999957
 20
-194.09999999999962
 30
0.00000000000000
 11
103.71435935394446
 21
-193.29999999999964
 31
0.00000000000000
  0
LWPOLYLINE
  5
B2
330
1F
100
AcDbEntity
  8
Details 10
  6
DC_VERDECKT
 62
     7
 48
0.14285714285714
370
    18
100
AcDbPolyline
 90
        4
 70
   129
 10
102.99999999999959
 20
-212.14999999999961
 10
106.59999999999958
 20
-212.14999999999961
 10
106.59999999999958
 20
-210.94999999999959
 10
102.99999999999959
 20
-210.94999999999959
  0
LINE
  5
B3
330
1F
100
AcDbEntity
  8
Details 10
  6
CONTINUOUS
 62
     7
370
    35
100
AcDbLine
 10
117.99999999999962
 20
-196.29999999999959
 30
0.00000000000000
 11
117.99999999999966
 21
-194.09999999999971
 31
0.00000000000000
  0
LINE
  5
B4
330
1F
100
AcDbEntity
  8
Details 10
  6
CONTINUOUS
 62
     7
370
    35
100
AcDbLine
 10
117.99999999999953
 20
-226.79999999999959
 30
0.00000000000000
 11
117.99999999999953
 21
-229.79999999999961
 31
0.00000000000000
  0
LINE
  5
B5
330
1F
100
AcDbEntity
  8
Details 10
  6
CONTINUOUS
 62
     7
370
    35
100
AcDbLine
 10
105.99999999999997
 20
-226.79999999999995
 30
0.00000000000000
 11
106.00000000000006
 21
-229.79999999999953
 31
0.00000000000000
  0
LWPOLYLINE
  5
B6
330
1F
100
AcDbEntity
  8
Details 10
  6
DC_VERDECKT
 62
     7
 48
0.14285714285714
370
    18
100
AcDbPolyline
 90
        4
 70
   129
 10
117.39999999999951
 20
-212.14999999999961
 10
120.99999999999950
 20
-212.14999999999961
 10
120.99999999999950
 20
-210.94999999999959
 10
117.39999999999951
 20
-210.94999999999959
  0
LWPOLYLINE
  5
B7
330
1F
100
AcDbEntity
  8
Details 10
  6
DC_VERDECKT
 62
     7
 48
0.14285714285714
370
    18
100
AcDbPolyline
 90
        4
 70
   129
 10
107.79999999999959
 20
-212.14999999999961
 10
111.39999999999959
 20
-212.14999999999961
 10
111.39999999999959
 20
-210.94999999999959
 10
107.79999999999959
 20
-210.94999999999959
  0
LWPOLYLINE
  5
B8
330
1F
100
AcDbEntity
  8
Details 10
  6
DC_VERDECKT
 62
     7
 48
0.14285714285714
370
    18
100
AcDbPolyline
 90
        4
 70
   129
 10
112.59999999999950
 20
-212.14999999999961
 10
116.19999999999951
 20
-212.14999999999961
 10
116.19999999999951
 20
-210.94999999999959
 10
112.59999999999950
 20
-210.94999999999959
  0
LINE
  5
B9
330
1F
100
AcDbEntity
  8
Details 10
  6
CONTINUOUS
 62
     7
370
    35
100
AcDbLine
 10
106.00000000000009
 20
-196.29999999999967
 30
0.00000000000000
 11
106.00000000000009
 21
-194.09999999999971
 31
0.00000000000000
  0
ENDBLK
  5
BA
330
1F
100
AcDbEntity
  8
0
100
AcDbBlockEnd
  0
BLOCK
  5
BB
330
20
100
AcDbEntity
  8
0
100
AcDbBlockBegin
  2
*U7
 70
     1
 10
0.00000000000000
 20
0.00000000000000
 30
0.00000000000000
  3
*U7
  1

  0
LINE
  5
BC
330
20
100
AcDbEntity
  8
Details 10
  6
CONTINUOUS
 62
     7
370
    35
100
AcDbLine
 10
129.84999999999999
 20
-130.99999999999991
 30
0.00000000000000
 11
94.15000000000012
 21
-130.99999999999991
 31
0.00000000000000
  0
LINE
  5
BD
330
20
100
AcDbEntity
  8
Details 10
  6
CONTINUOUS
 62
     7
370
    35
100
AcDbLine
 10
129.84999999999999
 20
-133.99999999999980
 30
0.00000000000000
 11
129.84999999999999
 21
-130.99999999999991
 31
0.00000000000000
  0
LINE
  5
BE
330
20
100
AcDbEntity
  8
Details 10
  6
CONTINUOUS
 62
     7
370
    35
100
AcDbLine
 10
129.84999999999999
 20
-151.99999999999989
 30
0.00000000000000
 11
129.84999999999999
 21
-148.99999999999940
 31
0.00000000000000
  0
LINE
  5
BF
330
20
100
AcDbEntity
  8
Details 10
  6
DC_VERDECKT
 62
     7
370
    18
100
AcDbLine
 10
129.84999999999999
 20
-148.99999999999940
 30
0.00000000000000
 11
129.84999999999999
 21
-148.49999999999986
 31
0.00000000000000
  0
LINE
  5
C0
330
20
100
AcDbEntity
  8
Details 10
  6
CONTINUOUS
 62
     7
370
    35
100
AcDbLine
 10
94.15000000000012
 20
-154.99999999999991
 30
0.00000000000000
 11
129.84999999999999
 21
-154.99999999999991
 31
0.00000000000000
  0
LINE
  5
C1
330
20
100
AcDbEntity
  8
Details 10
  6
CONTINUOUS
 62
     7
370
    35
100
AcDbLine
 10
126.84999999999999
 20
-133.99999999999986
 30
0.00000000000000
 11
113.59999999999995
 21
-133.99999999999989
 31
0.00000000000000
  0
LINE
  5
C2
330
20
100
AcDbEntity
  8
Details 10
  6
CONTINUOUS
 62
     7
370
    35
100
AcDbLine
 10
109.60000000000002
 20
-133.99999999999994
 30
0.00000000000000
 11
96.35000000000005
 21
-133.99999999999994
 31
0.00000000000000
  0
LINE
  5
C3
330
20
100
AcDbEntity
  8
Details 10
  6
CONTINUOUS
 62
     7
370
    35
100
AcDbLine
 10
96.35000000000005
 20
-133.99999999999994
 30
0.00000000000000
 11
96.35000000000005
 21
-136.99999999999983
 31
0.00000000000000
  0
LINE
  5
C4
330
20
100
AcDbEntity
  8
Details 10
  6
DC_VERDECKT
 62
     7
370
    18
100
AcDbLine
 10
96.34999999999997
 20
-136.99999999999983
 30
0.00000000000000
 11
96.35000000000005
 21
-148.99999999999940
 31
0.00000000000000
  0
LINE
  5
C5
330
20
100
AcDbEntity
  8
Details 10
  6
CONTINUOUS
 62
     7
370
    35
100
AcDbLine
 10
96.35000000000005
 20
-148.99999999999935
 30
0.00000000000000
 11
96.35000000000005
 21
-151.99999999999991
 31
0.00000000000000
  0
LINE
  5
C6
330
20
100
AcDbEntity
  8
Details 10
  6
CONTINUOUS
 62
     7
370
    35
100
AcDbLine
 10
109.59999999999995
 20
-151.99999999999983
 30
0.00000000000000
 11
96.35000000000005
 21
-151.99999999999991
 31
0.00000000000000
  0
LINE
  5
C7
330
20
100
AcDbEntity
  8
Details 10
  6
CONTINUOUS
 62
     7
370
    35
100
AcDbLine
 10
113.59999999999995
 20
-151.99999999999989
 30
0.00000000000000
 11
126.84999999999999
 21
-151.99999999999991
 31
0.00000000000000
  0
LINE
  5
C8
330
20
100
AcDbEntity
  8
Details 10
  6
CONTINUOUS
 62
     7
370
    35
100
AcDbLine
 10
126.84999999999999
 20
-151.99999999999991
 30
0.00000000000000
 11
126.84999999999999
 21
-148.99999999999943
 31
0.00000000000000
  0
LINE
  5
C9
330
20
100
AcDbEntity
  8
Details 10
  6
DC_VERDECKT
 62
     7
370
    18
100
AcDbLine
 10
126.84999999999999
 20
-148.99999999999943
 30
0.00000000000000
 11
126.84999999999999
 21
-136.99999999999991
 31
0.00000000000000
  0
LINE
  5
CA
330
20
100
AcDbEntity
  8
Details 10
  6
CONTINUOUS
 62
     7
370
    35
100
AcDbLine
 10
126.84999999999999
 20
-136.99999999999991
 30
0.00000000000000
 11
126.84999999999999
 21
-133.99999999999986
 31
0.00000000000000
  0
LINE
  5
CB
330
20
100
AcDbEntity
  8
Details 10
  6
CONTINUOUS
 62
     7
370
    35
100
AcDbLine
 10
113.59999999999995
 20
-136.99999999999991
 30
0.00000000000000
 11
109.59999999999995
 21
-136.99999999999991
 31
0.00000000000000
  0
LINE
  5
CC
330
20
100
AcDbEntity
  8
Details 10
  6
CONTINUOUS
 62
     7
370
    35
100
AcDbLine
 10
109.59999999999995
 20
-148.99999999999986
 30
0.00000000000000
 11
113.59999999999995
 21
-148.99999999999986
 31
0.00000000000000
  0
LINE
  5
CD
330
20
100
AcDbEntity
  8
Details 10
  6
CONTINUOUS
 62
     7
370
    35
100
AcDbLine
 10
109.59999999999995
 20
-148.99999999999986
 30
0.00000000000000
 11
109.59999999999995
 21
-151.99999999999983
 31
0.00000000000000
  0
LINE
  5
CE
330
20
100
AcDbEntity
  8
Details 10
  6
CONTINUOUS
 62
     7
370
    35
100
AcDbLine
 10
109.59999999999995
 20
-136.99999999999991
 30
0.00000000000000
 11
109.60000000000002
 21
-133.99999999999994
 31
0.00000000000000
  0
LINE
  5
CF
330
20
100
AcDbEntity
  8
Details 10
  6
CONTINUOUS
 62
     7
370
    35
100
AcDbLine
 10
113.59999999999995
 20
-148.99999999999986
 30
0.00000000000000
 11
113.59999999999995
 21
-151.99999999999989
 31
0.00000000000000
  0
LINE
  5
D0
330
20
100
AcDbEntity
  8
Details 10
  6
CONTINUOUS
 62
     7
370
    35
100
AcDbLine
 10
113.59999999999995
 20
-133.99999999999989
 30
0.00000000000000
 11
113.59999999999995
 21
-136.99999999999991
 31
0.00000000000000
  0
LINE
  5
D1
330
20
100
AcDbEntity
  8
Details 10
  6
DC_VERDECKT
 62
     7
370
    18
100
AcDbLine
 10
113.59999999999995
 20
-148.99999999999935
 30
0.00000000000000
 11
113.59999999999995
 21
-136.99999999999991
 31
0.00000000000000
  0
LINE
  5
D2
330
20
100
AcDbEntity
  8
Details 10
  6
DC_VERDECKT
 62
     7
370
    18
100
AcDbLine
 10
109.59999999999995
 20
-148.99999999999935
 30
0.00000000000000
 11
109.59999999999995
 21
-136.99999999999991
 31
0.00000000000000
  0
LINE
  5
D3
330
20
100
AcDbEntity
  8
Details 10
  6
CONTINUOUS
 62
     7
370
    35
100
AcDbLine
 10
129.84999999999999
 20
-151.99999999999989
 30
0.00000000000000
 11
130.65000000000009
 21
-152.21435935394479
 31
0.00000000000000
  0
LINE
  5
D4
330
20
100
AcDbEntity
  8
Details 10
  6
CONTINUOUS
 62
     7
370
    35
100
AcDbLine
 10
130.65000000000001
 20
-152.21435935394481
 30
0.00000000000000
 11
130.65000000000001
 21
-154.19999999999993
 31
0.00000000000000
  0
LINE
  5
D5
330
20
100
AcDbEntity
  8
Details 10
  6
CONTINUOUS
 62
     7
370
    35
100
AcDbLine
 10
129.84999999999999
 20
-154.99999999999991
 30
0.00000000000000
 11
130.65000000000001
 21
-154.19999999999990
 31
0.00000000000000
  0
LINE
  5
D6
330
20
100
AcDbEntity
  8
Details 10
  6
DC_VERDECKT
 62
     7
370
    18
100
AcDbLine
 10
129.84999999999999
 20
-148.49999999999986
 30
0.00000000000000
 11
130.65000000000001
 21
-148.28564064605496
 31
0.00000000000000
  0
LINE
  5
D7
330
20
100
AcDbEntity
  8
Details 10
  6
DC_VERDECKT
 62
     7
370
    18
100
AcDbLine
 10
130.64999999999989
 20
-148.28564064605496
 30
0.00000000000000
 11
130.64999999999989
 21
-146.21435935394476
 31
0.00000000000000
  0
LINE
  5
D8
330
20
100
AcDbEntity
  8
Details 10
  6
DC_VERDECKT
 62
     7
370
    18
100
AcDbLine
 10
129.84999999999999
 20
-145.99999999999989
 30
0.00000000000000
 11
130.65000000000001
 21
-146.21435935394476
 31
0.00000000000000
  0
LINE
  5
D9
330
20
100
AcDbEntity
  8
Details 10
  6
DC_VERDECKT
 62
     7
370
    18
100
AcDbLine
 10
129.84999999999999
 20
-145.99999999999989
 30
0.00000000000000
 11
129.84999999999999
 21
-142.49999999999986
 31
0.00000000000000
  0
LINE
  5
DA
330
20
100
AcDbEntity
  8
Details 10
  6
DC_VERDECKT
 62
     7
370
    18
100
AcDbLine
 10
129.84999999999999
 20
-142.49999999999986
 30
0.00000000000000
 11
130.65000000000001
 21
-142.28564064605496
 31
0.00000000000000
  0
LINE
  5
DB
330
20
100
AcDbEntity
  8
Details 10
  6
DC_VERDECKT
 62
     7
370
    18
100
AcDbLine
 10
130.64999999999989
 20
-142.28564064605496
 30
0.00000000000000
 11
130.64999999999989
 21
-140.21435935394473
 31
0.00000000000000
  0
LINE
  5
DC
330
20
100
AcDbEntity
  8
Details 10
  6
DC_VERDECKT
 62
     7
370
    18
100
AcDbLine
 10
129.84999999999999
 20
-139.99999999999986
 30
0.00000000000000
 11
130.65000000000001
 21
-140.21435935394473
 31
0.00000000000000
  0
LINE
  5
DD
330
20
100
AcDbEntity
  8
Details 10
  6
DC_VERDECKT
 62
     7
370
    18
100
AcDbLine
 10
129.84999999999999
 20
-139.99999999999986
 30
0.00000000000000
 11
129.85000000000011
 21
-136.99999999999991
 31
0.00000000000000
  0
LINE
  5
DE
330
20
100
AcDbEntity
  8
Details 10
  6
CONTINUOUS
 62
     7
370
    35
100
AcDbLine
 10
129.84999999999999
 20
-136.99999999999991
 30
0.00000000000000
 11
129.84999999999999
 21
-136.49999999999983
 31
0.00000000000000
  0
LINE
  5
DF
330
20
100
AcDbEntity
  8
Details 10
  6
CONTINUOUS
 62
     7
370
    35
100
AcDbLine
 10
129.84999999999999
 20
-136.49999999999983
 30
0.00000000000000
 11
130.65000000000001
 21
-136.28564064605493
 31
0.00000000000000
  0
LINE
  5
E0
330
20
100
AcDbEntity
  8
Details 10
  6
CONTINUOUS
 62
     7
370
    35
100
AcDbLine
 10
130.64999999999989
 20
-136.28564064605493
 30
0.00000000000000
 11
130.64999999999989
 21
-134.21435935394470
 31
0.00000000000000
  0
LINE
  5
E1
330
20
100
AcDbEntity
  8
Details 10
  6
CONTINUOUS
 62
     7
370
    35
100
AcDbLine
 10
129.84999999999999
 20
-133.99999999999980
 30
0.00000000000000
 11
130.65000000000001
 21
-134.21435935394470
 31
0.00000000000000
  0
LINE
  5
E2
330
20
100
AcDbEntity
  8
Details 10
  6
CONTINUOUS
 62
     7
370
    35
100
AcDbLine
 10
94.15000000000002
 20
-151.49999999999989
 30
0.00000000000000
 11
94.15000000000002
 21
-154.99999999999991
 31
0.00000000000000
  0
LINE
  5
E3
330
20
100
AcDbEntity
  8
Details 10
  6
CONTINUOUS
 62
     7
370
    35
100
AcDbLine
 10
94.15000000000002
 20
-133.99999999999989
 30
0.00000000000000
 11
94.15000000000012
 21
-136.99999999999983
 31
0.00000000000000
  0
LINE
  5
E4
330
20
100
AcDbEntity
  8
Details 10
  6
CONTINUOUS
 62
     7
370
    35
100
AcDbLine
 10
94.15000000000002
 20
-133.99999999999989
 30
0.00000000000000
 11
93.34999999999994
 21
-133.78564064605499
 31
0.00000000000000
  0
LINE
  5
E5
330
20
100
AcDbEntity
  8
Details 10
  6
CONTINUOUS
 62
     7
370
    35
100
AcDbLine
 10
93.35000000000002
 20
-133.78564064605499
 30
0.00000000000000
 11
93.35000000000002
 21
-131.79999999999984
 31
0.00000000000000
  0
LINE
  5
E6
330
20
100
AcDbEntity
  8
Details 10
  6
CONTINUOUS
 62
     7
370
    35
100
AcDbLine
 10
94.15000000000002
 20
-130.99999999999991
 30
0.00000000000000
 11
93.35000000000002
 21
-131.79999999999990
 31
0.00000000000000
  0
LINE
  5
E7
330
20
100
AcDbEntity
  8
Details 10
  6
DC_VERDECKT
 62
     7
370
    18
100
AcDbLine
 10
94.15000000000002
 20
-136.99999999999983
 30
0.00000000000000
 11
93.35000000000002
 21
-137.21435935394473
 31
0.00000000000000
  0
LINE
  5
E8
330
20
100
AcDbEntity
  8
Details 10
  6
DC_VERDECKT
 62
     7
370
    18
100
AcDbLine
 10
93.35000000000011
 20
-137.21435935394473
 30
0.00000000000000
 11
93.35000000000011
 21
-139.28564064605496
 31
0.00000000000000
  0
LINE
  5
E9
330
20
100
AcDbEntity
  8
Details 10
  6
DC_VERDECKT
 62
     7
370
    18
100
AcDbLine
 10
94.15000000000002
 20
-139.49999999999983
 30
0.00000000000000
 11
93.35000000000002
 21
-139.28564064605496
 31
0.00000000000000
  0
LINE
  5
EA
330
20
100
AcDbEntity
  8
Details 10
  6
DC_VERDECKT
 62
     7
370
    18
100
AcDbLine
 10
94.15000000000002
 20
-139.49999999999983
 30
0.00000000000000
 11
94.15000000000002
 21
-142.99999999999986
 31
0.00000000000000
  0
LINE
  5
EB
330
20
100
AcDbEntity
  8
Details 10
  6
DC_VERDECKT
 62
     7
370
    18
100
AcDbLine
 10
94.15000000000002
 20
-142.99999999999986
 30
0.00000000000000
 11
93.35000000000002
 21
-143.21435935394476
 31
0.00000000000000
  0
LINE
  5
EC
330
20
100
AcDbEntity
  8
Details 10
  6
DC_VERDECKT
 62
     7
370
    18
100
AcDbLine
 10
93.35000000000011
 20
-143.21435935394476
 30
0.00000000000000
 11
93.35000000000011
 21
-145.28564064605496
 31
0.00000000000000
  0
LINE
  5
ED
330
20
100
AcDbEntity
  8
Details 10
  6
DC_VERDECKT
 62
     7
370
    18
100
AcDbLine
 10
94.15000000000002
 20
-145.49999999999983
 30
0.00000000000000
 11
93.35000000000002
 21
-145.28564064605496
 31
0.00000000000000
  0
LINE
  5
EE
330
20
100
AcDbEntity
  8
Details 10
  6
DC_VERDECKT
 62
     7
370
    18
100
AcDbLine
 10
94.15000000000002
 20
-145.49999999999983
 30
0.00000000000000
 11
94.15000000000012
 21
-148.99999999999986
 31
0.00000000000000
  0
LINE
  5
EF
330
20
100
AcDbEntity
  8
Details 10
  6
CONTINUOUS
 62
     7
370
    35
100
AcDbLine
 10
94.15000000000002
 20
-148.99999999999986
 30
0.00000000000000
 11
93.35000000000002
 21
-149.21435935394476
 31
0.00000000000000
  0
LINE
  5
F0
330
20
100
AcDbEntity
  8
Details 10
  6
CONTINUOUS
 62
     7
370
    35
100
AcDbLine
 10
93.35000000000011
 20
-149.21435935394476
 30
0.00000000000000
 11
93.35000000000011
 21
-151.28564064605499
 31
0.00000000000000
  0
LINE
  5
F1
330
20
100
AcDbEntity
  8
Details 10
  6
CONTINUOUS
 62
     7
370
    35
100
AcDbLine
 10
94.15000000000002
 20
-151.49999999999989
 30
0.00000000000000
 11
93.35000000000002
 21
-151.28564064605499
 31
0.00000000000000
  0
LWPOLYLINE
  5
F2
330
20
100
AcDbEntity
  8
Details 10
  6
DC_VERDECKT
 62
     7
 48
0.14285714285714
370
    18
100
AcDbPolyline
 90
        4
 70
   129
 10
112.20000000000002
 20
-151.99999999999989
 10
112.20000000000002
 20
-148.39999999999986
 10
110.99999999999997
 20
-148.39999999999986
 10
110.99999999999997
 20
-151.99999999999989
  0
LINE
  5
F3
330
20
100
AcDbEntity
  8
Details 10
  6
CONTINUOUS
 62
     7
370
    35
100
AcDbLine
 10
96.34999999999997
 20
-136.99999999999983
 30
0.00000000000000
 11
94.15000000000012
 21
-136.99999999999977
 31
0.00000000000000
  0
LINE
  5
F4
330
20
100
AcDbEntity
  8
Details 10
  6
CONTINUOUS
 62
     7
370
    35
100
AcDbLine
 10
126.84999999999999
 20
-136.99999999999991
 30
0.00000000000000
 11
129.84999999999999
 21
-136.99999999999991
 31
0.00000000000000
  0
LINE
  5
F5
330
20
100
AcDbEntity
  8
Details 10
  6
CONTINUOUS
 62
     7
370
    35
100
AcDbLine
 10
126.85000000000032
 20
-148.99999999999949
 30
0.00000000000000
 11
129.84999999999991
 21
-148.99999999999940
 31
0.00000000000000
  0
LWPOLYLINE
  5
F6
330
20
100
AcDbEntity
  8
Details 10
  6
DC_VERDECKT
 62
     7
 48
0.14285714285714
370
    18
100
AcDbPolyline
 90
        4
 70
   129
 10
112.20000000000002
 20
-137.59999999999994
 10
112.20000000000002
 20
-133.99999999999994
 10
110.99999999999997
 20
-133.99999999999994
 10
110.99999999999997
 20
-137.59999999999994
  0
LWPOLYLINE
  5
F7
330
20
100
AcDbEntity
  8
Details 10
  6
DC_VERDECKT
 62
     7
 48
0.14285714285714
370
    18
100
AcDbPolyline
 90
        4
 70
   129
 10
112.20000000000002
 20
-147.19999999999985
 10
112.20000000000002
 20
-143.59999999999985
 10
110.99999999999997
 20
-143.59999999999985
 10
110.99999999999997
 20
-147.19999999999985
  0
LWPOLYLINE
  5
F8
330
20
100
AcDbEntity
  8
Details 10
  6
DC_VERDECKT
 62
     7
 48
0.14285714285714
370
    18
100
AcDbPolyline
 90
        4
 70
   129
 10
112.20000000000002
 20
-142.39999999999995
 10
112.20000000000002
 20
-138.79999999999995
 10
110.99999999999997
 20
-138.79999999999995
 10
110.99999999999997
 20
-142.39999999999995
  0
LINE
  5
F9
330
20
100
AcDbEntity
  8
Details 10
  6
CONTINUOUS
 62
     7
370
    35
100
AcDbLine
 10
96.35000000000005
 20
-148.99999999999935
 30
0.00000000000000
 11
94.15000000000012
 21
-148.99999999999935
 31
0.00000000000000
  0
ENDBLK
  5
FA
330
20
100
AcDbEntity
  8
0
100
AcDbBlockEnd
  0
BLOCK
  5
FB
330
21
100
AcDbEntity
  8
0
100
AcDbBlockBegin
  2
*U8
 70
     1
 10
0.00000000000000
 20
0.00000000000000
 30
0.00000000000000
  3
*U8
  1

  0
LINE
  5
FC
330
21
100
AcDbEntity
  8
Details 10
  6
CONTINUOUS
 62
     7
370
    35
100
AcDbLine
 10
166.65000000000001
 20
-130.99999999999991
 30
0.00000000000000
 11
130.95000000000013
 21
-130.99999999999991
 31
0.00000000000000
  0
LINE
  5
FD
330
21
100
AcDbEntity
  8
Details 10
  6
CONTINUOUS
 62
     7
370
    35
100
AcDbLine
 10
166.65000000000001
 20
-133.99999999999980
 30
0.00000000000000
 11
166.65000000000001
 21
-130.99999999999991
 31
0.00000000000000
  0
LINE
  5
FE
330
21
100
AcDbEntity
  8
Details 10
  6
CONTINUOUS
 62
     7
370
    35
100
AcDbLine
 10
166.65000000000001
 20
-151.99999999999989
 30
0.00000000000000
 11
166.65000000000001
 21
-148.99999999999940
 31
0.00000000000000
  0
LINE
  5
FF
330
21
100
AcDbEntity
  8
Details 10
  6
DC_VERDECKT
 62
     7
370
    18
100
AcDbLine
 10
166.65000000000001
 20
-148.99999999999940
 30
0.00000000000000
 11
166.65000000000001
 21
-148.49999999999986
 31
0.00000000000000
  0
LINE
  5
100
330
21
100
AcDbEntity
  8
Details 10
  6
CONTINUOUS
 62
     7
370
    35
100
AcDbLine
 10
130.95000000000013
 20
-154.99999999999991
 30
0.00000000000000
 11
166.65000000000001
 21
-154.99999999999991
 31
0.00000000000000
  0
LINE
  5
101
330
21
100
AcDbEntity
  8
Details 10
  6
CONTINUOUS
 62
     7
370
    35
100
AcDbLine
 10
163.64999999999998
 20
-133.99999999999986
 30
0.00000000000000
 11
150.39999999999998
 21
-133.99999999999989
 31
0.00000000000000
  0
LINE
  5
102
330
21
100
AcDbEntity
  8
Details 10
  6
CONTINUOUS
 62
     7
370
    35
100
AcDbLine
 10
146.40000000000006
 20
-133.99999999999994
 30
0.00000000000000
 11
133.15000000000006
 21
-133.99999999999994
 31
0.00000000000000
  0
LINE
  5
103
330
21
100
AcDbEntity
  8
Details 10
  6
CONTINUOUS
 62
     7
370
    35
100
AcDbLine
 10
133.15000000000006
 20
-133.99999999999994
 30
0.00000000000000
 11
133.15000000000006
 21
-136.99999999999983
 31
0.00000000000000
  0
LINE
  5
104
330
21
100
AcDbEntity
  8
Details 10
  6
DC_VERDECKT
 62
     7
370
    18
100
AcDbLine
 10
133.14999999999995
 20
-136.99999999999983
 30
0.00000000000000
 11
133.15000000000006
 21
-148.99999999999940
 31
0.00000000000000
  0
LINE
  5
105
330
21
100
AcDbEntity
  8
Details 10
  6
CONTINUOUS
 62
     7
370
    35
100
AcDbLine
 10
133.15000000000006
 20
-148.99999999999935
 30
0.00000000000000
 11
133.15000000000006
 21
-151.99999999999991
 31
0.00000000000000
  0
LINE
  5
106
330
21
100
AcDbEntity
  8
Details 10
  6
CONTINUOUS
 62
     7
370
    35
100
AcDbLine
 10
146.39999999999995
 20
-151.99999999999983
 30
0.00000000000000
 11
133.15000000000006
 21
-151.99999999999991
 31
0.00000000000000
  0
LINE
  5
107
330
21
100
AcDbEntity
  8
Details 10
  6
CONTINUOUS
 62
     7
370
    35
100
AcDbLine
 10
150.39999999999998
 20
-151.99999999999989
 30
0.00000000000000
 11
163.64999999999998
 21
-151.99999999999991
 31
0.00000000000000
  0
LINE
  5
108
330
21
100
AcDbEntity
  8
Details 10
  6
CONTINUOUS
 62
     7
370
    35
100
AcDbLine
 10
163.64999999999998
 20
-151.99999999999991
 30
0.00000000000000
 11
163.64999999999998
 21
-148.99999999999943
 31
0.00000000000000
  0
LINE
  5
109
330
21
100
AcDbEntity
  8
Details 10
  6
DC_VERDECKT
 62
     7
370
    18
100
AcDbLine
 10
163.64999999999998
 20
-148.99999999999943
 30
0.00000000000000
 11
163.64999999999998
 21
-136.99999999999991
 31
0.00000000000000
  0
LINE
  5
10A
330
21
100
AcDbEntity
  8
Details 10
  6
CONTINUOUS
 62
     7
370
    35
100
AcDbLine
 10
163.64999999999998
 20
-136.99999999999991
 30
0.00000000000000
 11
163.64999999999998
 21
-133.99999999999986
 31
0.00000000000000
  0
LINE
  5
10B
330
21
100
AcDbEntity
  8
Details 10
  6
CONTINUOUS
 62
     7
370
    35
100
AcDbLine
 10
150.39999999999998
 20
-136.99999999999991
 30
0.00000000000000
 11
146.39999999999995
 21
-136.99999999999991
 31
0.00000000000000
  0
LINE
  5
10C
330
21
100
AcDbEntity
  8
Details 10
  6
CONTINUOUS
 62
     7
370
    35
100
AcDbLine
 10
146.39999999999995
 20
-148.99999999999986
 30
0.00000000000000
 11
150.39999999999998
 21
-148.99999999999986
 31
0.00000000000000
  0
LINE
  5
10D
330
21
100
AcDbEntity
  8
Details 10
  6
CONTINUOUS
 62
     7
370
    35
100
AcDbLine
 10
146.39999999999995
 20
-148.99999999999986
 30
0.00000000000000
 11
146.39999999999995
 21
-151.99999999999983
 31
0.00000000000000
  0
LINE
  5
10E
330
21
100
AcDbEntity
  8
Details 10
  6
CONTINUOUS
 62
     7
370
    35
100
AcDbLine
 10
146.39999999999995
 20
-136.99999999999991
 30
0.00000000000000
 11
146.40000000000006
 21
-133.99999999999994
 31
0.00000000000000
  0
LINE
  5
10F
330
21
100
AcDbEntity
  8
Details 10
  6
CONTINUOUS
 62
     7
370
    35
100
AcDbLine
 10
150.39999999999998
 20
-148.99999999999986
 30
0.00000000000000
 11
150.39999999999998
 21
-151.99999999999989
 31
0.00000000000000
  0
LINE
  5
110
330
21
100
AcDbEntity
  8
Details 10
  6
CONTINUOUS
 62
     7
370
    35
100
AcDbLine
 10
150.39999999999998
 20
-133.99999999999989
 30
0.00000000000000
 11
150.39999999999998
 21
-136.99999999999991
 31
0.00000000000000
  0
LINE
  5
111
330
21
100
AcDbEntity
  8
Details 10
  6
DC_VERDECKT
 62
     7
370
    18
100
AcDbLine
 10
150.39999999999998
 20
-148.99999999999935
 30
0.00000000000000
 11
150.39999999999998
 21
-136.99999999999991
 31
0.00000000000000
  0
LINE
  5
112
330
21
100
AcDbEntity
  8
Details 10
  6
DC_VERDECKT
 62
     7
370
    18
100
AcDbLine
 10
146.39999999999995
 20
-148.99999999999935
 30
0.00000000000000
 11
146.39999999999995
 21
-136.99999999999991
 31
0.00000000000000
  0
LINE
  5
113
330
21
100
AcDbEntity
  8
Details 10
  6
CONTINUOUS
 62
     7
370
    35
100
AcDbLine
 10
166.65000000000001
 20
-151.99999999999989
 30
0.00000000000000
 11
167.45000000000010
 21
-152.21435935394479
 31
0.00000000000000
  0
LINE
  5
114
330
21
100
AcDbEntity
  8
Details 10
  6
CONTINUOUS
 62
     7
370
    35
100
AcDbLine
 10
167.45000000000002
 20
-152.21435935394481
 30
0.00000000000000
 11
167.45000000000002
 21
-154.19999999999993
 31
0.00000000000000
  0
LINE
  5
115
330
21
100
AcDbEntity
  8
Details 10
  6
CONTINUOUS
 62
     7
370
    35
100
AcDbLine
 10
166.65000000000001
 20
-154.99999999999991
 30
0.00000000000000
 11
167.45000000000002
 21
-154.19999999999990
 31
0.00000000000000
  0
LINE
  5
116
330
21
100
AcDbEntity
  8
Details 10
  6
DC_VERDECKT
 62
     7
370
    18
100
AcDbLine
 10
166.65000000000001
 20
-148.49999999999986
 30
0.00000000000000
 11
167.45000000000002
 21
-148.28564064605496
 31
0.00000000000000
  0
LINE
  5
117
330
21
100
AcDbEntity
  8
Details 10
  6
DC_VERDECKT
 62
     7
370
    18
100
AcDbLine
 10
167.44999999999993
 20
-148.28564064605496
 30
0.00000000000000
 11
167.44999999999993
 21
-146.21435935394476
 31
0.00000000000000
  0
LINE
  5
118
330
21
100
AcDbEntity
  8
Details 10
  6
DC_VERDECKT
 62
     7
370
    18
100
AcDbLine
 10
166.65000000000001
 20
-145.99999999999989
 30
0.00000000000000
 11
167.45000000000002
 21
-146.21435935394476
 31
0.00000000000000
  0
LINE
  5
119
330
21
100
AcDbEntity
  8
Details 10
  6
DC_VERDECKT
 62
     7
370
    18
100
AcDbLine
 10
166.65000000000001
 20
-145.99999999999989
 30
0.00000000000000
 11
166.65000000000001
 21
-142.49999999999986
 31
0.00000000000000
  0
LINE
  5
11A
330
21
100
AcDbEntity
  8
Details 10
  6
DC_VERDECKT
 62
     7
370
    18
100
AcDbLine
 10
166.65000000000001
 20
-142.49999999999986
 30
0.00000000000000
 11
167.45000000000002
 21
-142.28564064605496
 31
0.00000000000000
  0
LINE
  5
11B
330
21
100
AcDbEntity
  8
Details 10
  6
DC_VERDECKT
 62
     7
370
    18
100
AcDbLine
 10
167.44999999999993
 20
-142.28564064605496
 30
0.00000000000000
 11
167.44999999999993
 21
-140.21435935394473
 31
0.00000000000000
  0
LINE
  5
11C
330
21
100
AcDbEntity
  8
Details 10
  6
DC_VERDECKT
 62
     7
370
    18
100
AcDbLine
 10
166.65000000000001
 20
-139.99999999999986
 30
0.00000000000000
 11
167.45000000000002
 21
-140.21435935394473
 31
0.00000000000000
  0
LINE
  5
11D
330
21
100
AcDbEntity
  8
Details 10
  6
DC_VERDECKT
 62
     7
370
    18
100
AcDbLine
 10
166.65000000000001
 20
-139.99999999999986
 30
0.00000000000000
 11
166.65000000000009
 21
-136.99999999999991
 31
0.00000000000000
  0
LINE
  5
11E
330
21
100
AcDbEntity
  8
Details 10
  6
CONTINUOUS
 62
     7
370
    35
100
AcDbLine
 10
166.65000000000001
 20
-136.99999999999991
 30
0.00000000000000
 11
166.65000000000001
 21
-136.49999999999983
 31
0.00000000000000
  0
LINE
  5
11F
330
21
100
AcDbEntity
  8
Details 10
  6
CONTINUOUS
 62
     7
370
    35
100
AcDbLine
 10
166.65000000000001
 20
-136.49999999999983
 30
0.00000000000000
 11
167.45000000000002
 21
-136.28564064605493
 31
0.00000000000000
  0
LINE
  5
120
330
21
100
AcDbEntity
  8
Details 10
  6
CONTINUOUS
 62
     7
370
    35
100
AcDbLine
 10
167.44999999999993
 20
-136.28564064605493
 30
0.00000000000000
 11
167.44999999999993
 21
-134.21435935394470
 31
0.00000000000000
  0
LINE
  5
121
330
21
100
AcDbEntity
  8
Details 10
  6
CONTINUOUS
 62
     7
370
    35
100
AcDbLine
 10
166.65000000000001
 20
-133.99999999999980
 30
0.00000000000000
 11
167.45000000000002
 21
-134.21435935394470
 31
0.00000000000000
  0
LINE
  5
122
330
21
100
AcDbEntity
  8
Details 10
  6
CONTINUOUS
 62
     7
370
    35
100
AcDbLine
 10
130.95000000000005
 20
-151.49999999999989
 30
0.00000000000000
 11
130.95000000000005
 21
-154.99999999999991
 31
0.00000000000000
  0
LINE
  5
123
330
21
100
AcDbEntity
  8
Details 10
  6
CONTINUOUS
 62
     7
370
    35
100
AcDbLine
 10
130.95000000000005
 20
-133.99999999999989
 30
0.00000000000000
 11
130.95000000000013
 21
-136.99999999999983
 31
0.00000000000000
  0
LINE
  5
124
330
21
100
AcDbEntity
  8
Details 10
  6
CONTINUOUS
 62
     7
370
    35
100
AcDbLine
 10
130.95000000000005
 20
-133.99999999999989
 30
0.00000000000000
 11
130.14999999999995
 21
-133.78564064605499
 31
0.00000000000000
  0
LINE
  5
125
330
21
100
AcDbEntity
  8
Details 10
  6
CONTINUOUS
 62
     7
370
    35
100
AcDbLine
 10
130.15000000000003
 20
-133.78564064605499
 30
0.00000000000000
 11
130.15000000000003
 21
-131.79999999999984
 31
0.00000000000000
  0
LINE
  5
126
330
21
100
AcDbEntity
  8
Details 10
  6
CONTINUOUS
 62
     7
370
    35
100
AcDbLine
 10
130.95000000000005
 20
-130.99999999999991
 30
0.00000000000000
 11
130.15000000000003
 21
-131.79999999999990
 31
0.00000000000000
  0
LINE
  5
127
330
21
100
AcDbEntity
  8
Details 10
  6
DC_VERDECKT
 62
     7
370
    18
100
AcDbLine
 10
130.95000000000005
 20
-136.99999999999983
 30
0.00000000000000
 11
130.15000000000003
 21
-137.21435935394473
 31
0.00000000000000
  0
LINE
  5
128
330
21
100
AcDbEntity
  8
Details 10
  6
DC_VERDECKT
 62
     7
370
    18
100
AcDbLine
 10
130.15000000000012
 20
-137.21435935394473
 30
0.00000000000000
 11
130.15000000000012
 21
-139.28564064605496
 31
0.00000000000000
  0
LINE
  5
129
330
21
100
AcDbEntity
  8
Details 10
  6
DC_VERDECKT
 62
     7
370
    18
100
AcDbLine
 10
130.95000000000005
 20
-139.49999999999983
 30
0.00000000000000
 11
130.15000000000003
 21
-139.28564064605496
 31
0.00000000000000
  0
LINE
  5
12A
330
21
100
AcDbEntity
  8
Details 10
  6
DC_VERDECKT
 62
     7
370
    18
100
AcDbLine
 10
130.95000000000005
 20
-139.49999999999983
 30
0.00000000000000
 11
130.95000000000005
 21
-142.99999999999986
 31
0.00000000000000
  0
LINE
  5
12B
330
21
100
AcDbEntity
  8
Details 10
  6
DC_VERDECKT
 62
     7
370
    18
100
AcDbLine
 10
130.95000000000005
 20
-142.99999999999986
 30
0.00000000000000
 11
130.15000000000003
 21
-143.21435935394476
 31
0.00000000000000
  0
LINE
  5
12C
330
21
100
AcDbEntity
  8
Details 10
  6
DC_VERDECKT
 62
     7
370
    18
100
AcDbLine
 10
130.15000000000012
 20
-143.21435935394476
 30
0.00000000000000
 11
130.15000000000012
 21
-145.28564064605496
 31
0.00000000000000
  0
LINE
  5
12D
330
21
100
AcDbEntity
  8
Details 10
  6
DC_VERDECKT
 62
     7
370
    18
100
AcDbLine
 10
130.95000000000005
 20
-145.49999999999983
 30
0.00000000000000
 11
130.15000000000003
 21
-145.28564064605496
 31
0.00000000000000
  0
LINE
  5
12E
330
21
100
AcDbEntity
  8
Details 10
  6
DC_VERDECKT
 62
     7
370
    18
100
AcDbLine
 10
130.95000000000005
 20
-145.49999999999983
 30
0.00000000000000
 11
130.95000000000013
 21
-148.99999999999986
 31
0.00000000000000
  0
LINE
  5
12F
330
21
100
AcDbEntity
  8
Details 10
  6
CONTINUOUS
 62
     7
370
    35
100
AcDbLine
 10
130.95000000000005
 20
-148.99999999999986
 30
0.00000000000000
 11
130.15000000000003
 21
-149.21435935394476
 31
0.00000000000000
  0
LINE
  5
130
330
21
100
AcDbEntity
  8
Details 10
  6
CONTINUOUS
 62
     7
370
    35
100
AcDbLine
 10
130.15000000000012
 20
-149.21435935394476
 30
0.00000000000000
 11
130.15000000000012
 21
-151.28564064605499
 31
0.00000000000000
  0
LINE
  5
131
330
21
100
AcDbEntity
  8
Details 10
  6
CONTINUOUS
 62
     7
370
    35
100
AcDbLine
 10
130.95000000000005
 20
-151.49999999999989
 30
0.00000000000000
 11
130.15000000000003
 21
-151.28564064605499
 31
0.00000000000000
  0
LWPOLYLINE
  5
132
330
21
100
AcDbEntity
  8
Details 10
  6
DC_VERDECKT
 62
     7
 48
0.14285714285714
370
    18
100
AcDbPolyline
 90
        4
 70
   129
 10
149.00000000000003
 20
-151.99999999999989
 10
149.00000000000003
 20
-148.39999999999986
 10
147.79999999999998
 20
-148.39999999999986
 10
147.79999999999998
 20
-151.99999999999989
  0
LINE
  5
133
330
21
100
AcDbEntity
  8
Details 10
  6
CONTINUOUS
 62
     7
370
    35
100
AcDbLine
 10
133.14999999999995
 20
-136.99999999999983
 30
0.00000000000000
 11
130.95000000000013
 21
-136.99999999999977
 31
0.00000000000000
  0
LINE
  5
134
330
21
100
AcDbEntity
  8
Details 10
  6
CONTINUOUS
 62
     7
370
    35
100
AcDbLine
 10
163.64999999999998
 20
-136.99999999999991
 30
0.00000000000000
 11
166.65000000000001
 21
-136.99999999999991
 31
0.00000000000000
  0
LINE
  5
135
330
21
100
AcDbEntity
  8
Details 10
  6
CONTINUOUS
 62
     7
370
    35
100
AcDbLine
 10
163.65000000000035
 20
-148.99999999999949
 30
0.00000000000000
 11
166.64999999999992
 21
-148.99999999999940
 31
0.00000000000000
  0
LWPOLYLINE
  5
136
330
21
100
AcDbEntity
  8
Details 10
  6
DC_VERDECKT
 62
     7
 48
0.14285714285714
370
    18
100
AcDbPolyline
 90
        4
 70
   129
 10
149.00000000000003
 20
-137.59999999999994
 10
149.00000000000003
 20
-133.99999999999994
 10
147.79999999999998
 20
-133.99999999999994
 10
147.79999999999998
 20
-137.59999999999994
  0
LWPOLYLINE
  5
137
330
21
100
AcDbEntity
  8
Details 10
  6
DC_VERDECKT
 62
     7
 48
0.14285714285714
370
    18
100
AcDbPolyline
 90
        4
 70
   129
 10
149.00000000000003
 20
-147.19999999999985
 10
149.00000000000003
 20
-143.59999999999985
 10
147.79999999999998
 20
-143.59999999999985
 10
147.79999999999998
 20
-147.19999999999985
  0
LWPOLYLINE
  5
138
330
21
100
AcDbEntity
  8
Details 10
  6
DC_VERDECKT
 62
     7
 48
0.14285714285714
370
    18
100
AcDbPolyline
 90
        4
 70
   129
 10
149.00000000000003
 20
-142.39999999999995
 10
149.00000000000003
 20
-138.79999999999995
 10
147.79999999999998
 20
-138.79999999999995
 10
147.79999999999998
 20
-142.39999999999995
  0
LINE
  5
139
330
21
100
AcDbEntity
  8
Details 10
  6
CONTINUOUS
 62
     7
370
    35
100
AcDbLine
 10
133.15000000000006
 20
-148.99999999999935
 30
0.00000000000000
 11
130.95000000000013
 21
-148.99999999999935
 31
0.00000000000000
  0
ENDBLK
  5
13A
330
21
100
AcDbEntity
  8
0
100
AcDbBlockEnd
  0
BLOCK
  5
13B
330
22
100
AcDbEntity
  8
0
100
AcDbBlockBegin
  2
*U9
 70
     1
 10
0.00000000000000
 20
0.00000000000000
 30
0.00000000000000
  3
*U9
  1

  0
LINE
  5
13C
330
22
100
AcDbEntity
  8
Details 10
  6
CONTINUOUS
 62
     7
370
    35
100
AcDbLine
 10
93.05000000000001
 20
-130.99999999999991
 30
0.00000000000000
 11
57.35000000000012
 21
-130.99999999999991
 31
0.00000000000000
  0
LINE
  5
13D
330
22
100
AcDbEntity
  8
Details 10
  6
CONTINUOUS
 62
     7
370
    35
100
AcDbLine
 10
93.05000000000001
 20
-133.99999999999980
 30
0.00000000000000
 11
93.05000000000001
 21
-130.99999999999991
 31
0.00000000000000
  0
LINE
  5
13E
330
22
100
AcDbEntity
  8
Details 10
  6
CONTINUOUS
 62
     7
370
    35
100
AcDbLine
 10
93.05000000000001
 20
-151.99999999999989
 30
0.00000000000000
 11
93.05000000000001
 21
-148.99999999999940
 31
0.00000000000000
  0
LINE
  5
13F
330
22
100
AcDbEntity
  8
Details 10
  6
DC_VERDECKT
 62
     7
370
    18
100
AcDbLine
 10
93.05000000000001
 20
-148.99999999999940
 30
0.00000000000000
 11
93.05000000000001
 21
-148.49999999999986
 31
0.00000000000000
  0
LINE
  5
140
330
22
100
AcDbEntity
  8
Details 10
  6
CONTINUOUS
 62
     7
370
    35
100
AcDbLine
 10
57.35000000000012
 20
-154.99999999999991
 30
0.00000000000000
 11
93.05000000000001
 21
-154.99999999999991
 31
0.00000000000000
  0
LINE
  5
141
330
22
100
AcDbEntity
  8
Details 10
  6
CONTINUOUS
 62
     7
370
    35
100
AcDbLine
 10
90.04999999999997
 20
-133.99999999999986
 30
0.00000000000000
 11
76.79999999999996
 21
-133.99999999999989
 31
0.00000000000000
  0
LINE
  5
142
330
22
100
AcDbEntity
  8
Details 10
  6
CONTINUOUS
 62
     7
370
    35
100
AcDbLine
 10
72.80000000000003
 20
-133.99999999999994
 30
0.00000000000000
 11
59.55000000000005
 21
-133.99999999999994
 31
0.00000000000000
  0
LINE
  5
143
330
22
100
AcDbEntity
  8
Details 10
  6
CONTINUOUS
 62
     7
370
    35
100
AcDbLine
 10
59.55000000000005
 20
-133.99999999999994
 30
0.00000000000000
 11
59.55000000000005
 21
-136.99999999999983
 31
0.00000000000000
  0
LINE
  5
144
330
22
100
AcDbEntity
  8
Details 10
  6
DC_VERDECKT
 62
     7
370
    18
100
AcDbLine
 10
59.54999999999996
 20
-136.99999999999983
 30
0.00000000000000
 11
59.55000000000005
 21
-148.99999999999940
 31
0.00000000000000
  0
LINE
  5
145
330
22
100
AcDbEntity
  8
Details 10
  6
CONTINUOUS
 62
     7
370
    35
100
AcDbLine
 10
59.55000000000005
 20
-148.99999999999935
 30
0.00000000000000
 11
59.55000000000005
 21
-151.99999999999991
 31
0.00000000000000
  0
LINE
  5
146
330
22
100
AcDbEntity
  8
Details 10
  6
CONTINUOUS
 62
     7
370
    35
100
AcDbLine
 10
72.79999999999994
 20
-151.99999999999983
 30
0.00000000000000
 11
59.55000000000005
 21
-151.99999999999991
 31
0.00000000000000
  0
LINE
  5
147
330
22
100
AcDbEntity
  8
Details 10
  6
CONTINUOUS
 62
     7
370
    35
100
AcDbLine
 10
76.79999999999996
 20
-151.99999999999989
 30
0.00000000000000
 11
90.04999999999997
 21
-151.99999999999991
 31
0.00000000000000
  0
LINE
  5
148
330
22
100
AcDbEntity
  8
Details 10
  6
CONTINUOUS
 62
     7
370
    35
100
AcDbLine
 10
90.04999999999997
 20
-151.99999999999991
 30
0.00000000000000
 11
90.04999999999997
 21
-148.99999999999943
 31
0.00000000000000
  0
LINE
  5
149
330
22
100
AcDbEntity
  8
Details 10
  6
DC_VERDECKT
 62
     7
370
    18
100
AcDbLine
 10
90.04999999999997
 20
-148.99999999999943
 30
0.00000000000000
 11
90.04999999999997
 21
-136.99999999999991
 31
0.00000000000000
  0
LINE
  5
14A
330
22
100
AcDbEntity
  8
Details 10
  6
CONTINUOUS
 62
     7
370
    35
100
AcDbLine
 10
90.04999999999997
 20
-136.99999999999991
 30
0.00000000000000
 11
90.04999999999997
 21
-133.99999999999986
 31
0.00000000000000
  0
LINE
  5
14B
330
22
100
AcDbEntity
  8
Details 10
  6
CONTINUOUS
 62
     7
370
    35
100
AcDbLine
 10
76.79999999999996
 20
-136.99999999999991
 30
0.00000000000000
 11
72.79999999999994
 21
-136.99999999999991
 31
0.00000000000000
  0
LINE
  5
14C
330
22
100
AcDbEntity
  8
Details 10
  6
CONTINUOUS
 62
     7
370
    35
100
AcDbLine
 10
72.79999999999994
 20
-148.99999999999986
 30
0.00000000000000
 11
76.79999999999996
 21
-148.99999999999986
 31
0.00000000000000
  0
LINE
  5
14D
330
22
100
AcDbEntity
  8
Details 10
  6
CONTINUOUS
 62
     7
370
    35
100
AcDbLine
 10
72.79999999999994
 20
-148.99999999999986
 30
0.00000000000000
 11
72.79999999999994
 21
-151.99999999999983
 31
0.00000000000000
  0
LINE
  5
14E
330
22
100
AcDbEntity
  8
Details 10
  6
CONTINUOUS
 62
     7
370
    35
100
AcDbLine
 10
72.79999999999994
 20
-136.99999999999991
 30
0.00000000000000
 11
72.80000000000003
 21
-133.99999999999994
 31
0.00000000000000
  0
LINE
  5
14F
330
22
100
AcDbEntity
  8
Details 10
  6
CONTINUOUS
 62
     7
370
    35
100
AcDbLine
 10
76.79999999999996
 20
-148.99999999999986
 30
0.00000000000000
 11
76.79999999999996
 21
-151.99999999999989
 31
0.00000000000000
  0
LINE
  5
150
330
22
100
AcDbEntity
  8
Details 10
  6
CONTINUOUS
 62
     7
370
    35
100
AcDbLine
 10
76.79999999999996
 20
-133.99999999999989
 30
0.00000000000000
 11
76.79999999999996
 21
-136.99999999999991
 31
0.00000000000000
  0
LINE
  5
151
330
22
100
AcDbEntity
  8
Details 10
  6
DC_VERDECKT
 62
     7
370
    18
100
AcDbLine
 10
76.79999999999996
 20
-148.99999999999935
 30
0.00000000000000
 11
76.79999999999996
 21
-136.99999999999991
 31
0.00000000000000
  0
LINE
  5
152
330
22
100
AcDbEntity
  8
Details 10
  6
DC_VERDECKT
 62
     7
370
    18
100
AcDbLine
 10
72.79999999999994
 20
-148.99999999999935
 30
0.00000000000000
 11
72.79999999999994
 21
-136.99999999999991
 31
0.00000000000000
  0
LINE
  5
153
330
22
100
AcDbEntity
  8
Details 10
  6
CONTINUOUS
 62
     7
370
    35
100
AcDbLine
 10
93.05000000000001
 20
-151.99999999999989
 30
0.00000000000000
 11
93.85000000000009
 21
-152.21435935394479
 31
0.00000000000000
  0
LINE
  5
154
330
22
100
AcDbEntity
  8
Details 10
  6
CONTINUOUS
 62
     7
370
    35
100
AcDbLine
 10
93.84999999999999
 20
-152.21435935394481
 30
0.00000000000000
 11
93.84999999999999
 21
-154.19999999999993
 31
0.00000000000000
  0
LINE
  5
155
330
22
100
AcDbEntity
  8
Details 10
  6
CONTINUOUS
 62
     7
370
    35
100
AcDbLine
 10
93.05000000000001
 20
-154.99999999999991
 30
0.00000000000000
 11
93.84999999999999
 21
-154.19999999999990
 31
0.00000000000000
  0
LINE
  5
156
330
22
100
AcDbEntity
  8
Details 10
  6
DC_VERDECKT
 62
     7
370
    18
100
AcDbLine
 10
93.05000000000001
 20
-148.49999999999986
 30
0.00000000000000
 11
93.84999999999999
 21
-148.28564064605496
 31
0.00000000000000
  0
LINE
  5
157
330
22
100
AcDbEntity
  8
Details 10
  6
DC_VERDECKT
 62
     7
370
    18
100
AcDbLine
 10
93.84999999999992
 20
-148.28564064605496
 30
0.00000000000000
 11
93.84999999999992
 21
-146.21435935394476
 31
0.00000000000000
  0
LINE
  5
158
330
22
100
AcDbEntity
  8
Details 10
  6
DC_VERDECKT
 62
     7
370
    18
100
AcDbLine
 10
93.05000000000001
 20
-145.99999999999989
 30
0.00000000000000
 11
93.84999999999999
 21
-146.21435935394476
 31
0.00000000000000
  0
LINE
  5
159
330
22
100
AcDbEntity
  8
Details 10
  6
DC_VERDECKT
 62
     7
370
    18
100
AcDbLine
 10
93.05000000000001
 20
-145.99999999999989
 30
0.00000000000000
 11
93.05000000000001
 21
-142.49999999999986
 31
0.00000000000000
  0
LINE
  5
15A
330
22
100
AcDbEntity
  8
Details 10
  6
DC_VERDECKT
 62
     7
370
    18
100
AcDbLine
 10
93.05000000000001
 20
-142.49999999999986
 30
0.00000000000000
 11
93.84999999999999
 21
-142.28564064605496
 31
0.00000000000000
  0
LINE
  5
15B
330
22
100
AcDbEntity
  8
Details 10
  6
DC_VERDECKT
 62
     7
370
    18
100
AcDbLine
 10
93.84999999999992
 20
-142.28564064605496
 30
0.00000000000000
 11
93.84999999999992
 21
-140.21435935394473
 31
0.00000000000000
  0
LINE
  5
15C
330
22
100
AcDbEntity
  8
Details 10
  6
DC_VERDECKT
 62
     7
370
    18
100
AcDbLine
 10
93.05000000000001
 20
-139.99999999999986
 30
0.00000000000000
 11
93.84999999999999
 21
-140.21435935394473
 31
0.00000000000000
  0
LINE
  5
15D
330
22
100
AcDbEntity
  8
Details 10
  6
DC_VERDECKT
 62
     7
370
    18
100
AcDbLine
 10
93.05000000000001
 20
-139.99999999999986
 30
0.00000000000000
 11
93.05000000000008
 21
-136.99999999999991
 31
0.00000000000000
  0
LINE
  5
15E
330
22
100
AcDbEntity
  8
Details 10
  6
CONTINUOUS
 62
     7
370
    35
100
AcDbLine
 10
93.05000000000001
 20
-136.99999999999991
 30
0.00000000000000
 11
93.05000000000001
 21
-136.49999999999983
 31
0.00000000000000
  0
LINE
  5
15F
330
22
100
AcDbEntity
  8
Details 10
  6
CONTINUOUS
 62
     7
370
    35
100
AcDbLine
 10
93.05000000000001
 20
-136.49999999999983
 30
0.00000000000000
 11
93.84999999999999
 21
-136.28564064605493
 31
0.00000000000000
  0
LINE
  5
160
330
22
100
AcDbEntity
  8
Details 10
  6
CONTINUOUS
 62
     7
370
    35
100
AcDbLine
 10
93.84999999999992
 20
-136.28564064605493
 30
0.00000000000000
 11
93.84999999999992
 21
-134.21435935394470
 31
0.00000000000000
  0
LINE
  5
161
330
22
100
AcDbEntity
  8
Details 10
  6
CONTINUOUS
 62
     7
370
    35
100
AcDbLine
 10
93.05000000000001
 20
-133.99999999999980
 30
0.00000000000000
 11
93.84999999999999
 21
-134.21435935394470
 31
0.00000000000000
  0
LINE
  5
162
330
22
100
AcDbEntity
  8
Details 10
  6
CONTINUOUS
 62
     7
370
    35
100
AcDbLine
 10
57.35000000000002
 20
-151.49999999999989
 30
0.00000000000000
 11
57.35000000000002
 21
-154.99999999999991
 31
0.00000000000000
  0
LINE
  5
163
330
22
100
AcDbEntity
  8
Details 10
  6
CONTINUOUS
 62
     7
370
    35
100
AcDbLine
 10
57.35000000000002
 20
-133.99999999999989
 30
0.00000000000000
 11
57.35000000000012
 21
-136.99999999999983
 31
0.00000000000000
  0
LINE
  5
164
330
22
100
AcDbEntity
  8
Details 10
  6
CONTINUOUS
 62
     7
370
    35
100
AcDbLine
 10
57.35000000000002
 20
-133.99999999999989
 30
0.00000000000000
 11
56.54999999999993
 21
-133.78564064605499
 31
0.00000000000000
  0
LINE
  5
165
330
22
100
AcDbEntity
  8
Details 10
  6
CONTINUOUS
 62
     7
370
    35
100
AcDbLine
 10
56.55000000000003
 20
-133.78564064605499
 30
0.00000000000000
 11
56.55000000000003
 21
-131.79999999999984
 31
0.00000000000000
  0
LINE
  5
166
330
22
100
AcDbEntity
  8
Details 10
  6
CONTINUOUS
 62
     7
370
    35
100
AcDbLine
 10
57.35000000000002
 20
-130.99999999999991
 30
0.00000000000000
 11
56.55000000000003
 21
-131.79999999999990
 31
0.00000000000000
  0
LINE
  5
167
330
22
100
AcDbEntity
  8
Details 10
  6
DC_VERDECKT
 62
     7
370
    18
100
AcDbLine
 10
57.35000000000002
 20
-136.99999999999983
 30
0.00000000000000
 11
56.55000000000003
 21
-137.21435935394473
 31
0.00000000000000
  0
LINE
  5
168
330
22
100
AcDbEntity
  8
Details 10
  6
DC_VERDECKT
 62
     7
370
    18
100
AcDbLine
 10
56.55000000000011
 20
-137.21435935394473
 30
0.00000000000000
 11
56.55000000000011
 21
-139.28564064605496
 31
0.00000000000000
  0
LINE
  5
169
330
22
100
AcDbEntity
  8
Details 10
  6
DC_VERDECKT
 62
     7
370
    18
100
AcDbLine
 10
57.35000000000002
 20
-139.49999999999983
 30
0.00000000000000
 11
56.55000000000003
 21
-139.28564064605496
 31
0.00000000000000
  0
LINE
  5
16A
330
22
100
AcDbEntity
  8
Details 10
  6
DC_VERDECKT
 62
     7
370
    18
100
AcDbLine
 10
57.35000000000002
 20
-139.49999999999983
 30
0.00000000000000
 11
57.35000000000002
 21
-142.99999999999986
 31
0.00000000000000
  0
LINE
  5
16B
330
22
100
AcDbEntity
  8
Details 10
  6
DC_VERDECKT
 62
     7
370
    18
100
AcDbLine
 10
57.35000000000002
 20
-142.99999999999986
 30
0.00000000000000
 11
56.55000000000003
 21
-143.21435935394476
 31
0.00000000000000
  0
LINE
  5
16C
330
22
100
AcDbEntity
  8
Details 10
  6
DC_VERDECKT
 62
     7
370
    18
100
AcDbLine
 10
56.55000000000011
 20
-143.21435935394476
 30
0.00000000000000
 11
56.55000000000011
 21
-145.28564064605496
 31
0.00000000000000
  0
LINE
  5
16D
330
22
100
AcDbEntity
  8
Details 10
  6
DC_VERDECKT
 62
     7
370
    18
100
AcDbLine
 10
57.35000000000002
 20
-145.49999999999983
 30
0.00000000000000
 11
56.55000000000003
 21
-145.28564064605496
 31
0.00000000000000
  0
LINE
  5
16E
330
22
100
AcDbEntity
  8
Details 10
  6
DC_VERDECKT
 62
     7
370
    18
100
AcDbLine
 10
57.35000000000002
 20
-145.49999999999983
 30
0.00000000000000
 11
57.35000000000012
 21
-148.99999999999986
 31
0.00000000000000
  0
LINE
  5
16F
330
22
100
AcDbEntity
  8
Details 10
  6
CONTINUOUS
 62
     7
370
    35
100
AcDbLine
 10
57.35000000000002
 20
-148.99999999999986
 30
0.00000000000000
 11
56.55000000000003
 21
-149.21435935394476
 31
0.00000000000000
  0
LINE
  5
170
330
22
100
AcDbEntity
  8
Details 10
  6
CONTINUOUS
 62
     7
370
    35
100
AcDbLine
 10
56.55000000000011
 20
-149.21435935394476
 30
0.00000000000000
 11
56.55000000000011
 21
-151.28564064605499
 31
0.00000000000000
  0
LINE
  5
171
330
22
100
AcDbEntity
  8
Details 10
  6
CONTINUOUS
 62
     7
370
    35
100
AcDbLine
 10
57.35000000000002
 20
-151.49999999999989
 30
0.00000000000000
 11
56.55000000000003
 21
-151.28564064605499
 31
0.00000000000000
  0
LWPOLYLINE
  5
172
330
22
100
AcDbEntity
  8
Details 10
  6
DC_VERDECKT
 62
     7
 48
0.14285714285714
370
    18
100
AcDbPolyline
 90
        4
 70
   129
 10
75.40000000000002
 20
-151.99999999999989
 10
75.40000000000002
 20
-148.39999999999986
 10
74.19999999999997
 20
-148.39999999999986
 10
74.19999999999997
 20
-151.99999999999989
  0
LINE
  5
173
330
22
100
AcDbEntity
  8
Details 10
  6
CONTINUOUS
 62
     7
370
    35
100
AcDbLine
 10
59.54999999999996
 20
-136.99999999999983
 30
0.00000000000000
 11
57.35000000000012
 21
-136.99999999999977
 31
0.00000000000000
  0
LINE
  5
174
330
22
100
AcDbEntity
  8
Details 10
  6
CONTINUOUS
 62
     7
370
    35
100
AcDbLine
 10
90.04999999999997
 20
-136.99999999999991
 30
0.00000000000000
 11
93.05000000000001
 21
-136.99999999999991
 31
0.00000000000000
  0
LINE
  5
175
330
22
100
AcDbEntity
  8
Details 10
  6
CONTINUOUS
 62
     7
370
    35
100
AcDbLine
 10
90.05000000000034
 20
-148.99999999999949
 30
0.00000000000000
 11
93.04999999999991
 21
-148.99999999999940
 31
0.00000000000000
  0
LWPOLYLINE
  5
176
330
22
100
AcDbEntity
  8
Details 10
  6
DC_VERDECKT
 62
     7
 48
0.14285714285714
370
    18
100
AcDbPolyline
 90
        4
 70
   129
 10
75.40000000000002
 20
-137.59999999999994
 10
75.40000000000002
 20
-133.99999999999994
 10
74.19999999999997
 20
-133.99999999999994
 10
74.19999999999997
 20
-137.59999999999994
  0
LWPOLYLINE
  5
177
330
22
100
AcDbEntity
  8
Details 10
  6
DC_VERDECKT
 62
     7
 48
0.14285714285714
370
    18
100
AcDbPolyline
 90
        4
 70
   129
 10
75.40000000000002
 20
-147.19999999999985
 10
75.40000000000002
 20
-143.59999999999985
 10
74.19999999999997
 20
-143.59999999999985
 10
74.19999999999997
 20
-147.19999999999985
  0
LWPOLYLINE
  5
178
330
22
100
AcDbEntity
  8
Details 10
  6
DC_VERDECKT
 62
     7
 48
0.14285714285714
370
    18
100
AcDbPolyline
 90
        4
 70
   129
 10
75.40000000000002
 20
-142.39999999999995
 10
75.40000000000002
 20
-138.79999999999995
 10
74.19999999999997
 20
-138.79999999999995
 10
74.19999999999997
 20
-142.39999999999995
  0
LINE
  5
179
330
22
100
AcDbEntity
  8
Details 10
  6
CONTINUOUS
 62
     7
370
    35
100
AcDbLine
 10
59.55000000000005
 20
-148.99999999999935
 30
0.00000000000000
 11
57.35000000000012
 21
-148.99999999999935
 31
0.00000000000000
  0
ENDBLK
  5
17A
330
22
100
AcDbEntity
  8
0
100
AcDbBlockEnd
  0
BLOCK
  5
17B
330
23
100
AcDbEntity
  8
0
100
AcDbBlockBegin
  2
*U10
 70
     1
 10
0.00000000000000
 20
0.00000000000000
 30
0.00000000000000
  3
*U10
  1

  0
LINE
  5
17C
330
23
100
AcDbEntity
  8
Details 10
  6
CONTINUOUS
 62
     7
370
    35
100
AcDbLine
 10
104.12677263234573
 20
-141.55015596569743
 30
0.00000000000000
 11
104.12677263234573
 21
-142.09900829680058
 31
0.00000000000000
  0
LINE
  5
17D
330
23
100
AcDbEntity
  8
Details 10
  6
CONTINUOUS
 62
     7
370
    35
100
AcDbLine
 10
106.32677263234558
 20
-141.55015596569743
 30
0.00000000000000
 11
106.32677263234558
 21
-142.09900829680058
 31
0.00000000000000
  0
LINE
  5
17E
330
23
100
AcDbEntity
  8
Details 10
  6
CONTINUOUS
 62
     7
370
    35
100
AcDbLine
 10
106.32677263234558
 20
-141.55015596569743
 30
0.00000000000000
 11
104.12677263234573
 21
-141.55015596569743
 31
0.00000000000000
  0
ARC
  5
17F
330
23
100
AcDbEntity
  8
Details 10
  6
CONTINUOUS
 62
     7
370
    35
100
AcDbCircle
 10
104.12677263234573
 20
-142.44900829680066
 30
0.00000000000000
 40
0.35000000000007
100
AcDbArc
 50
270.00000000000000
 51
90.00000000000000
  0
ARC
  5
180
330
23
100
AcDbEntity
  8
Details 10
  6
CONTINUOUS
 62
     7
370
    35
100
AcDbCircle
 10
106.32677263234558
 20
-142.44900829680066
 30
0.00000000000000
 40
0.35000000000007
100
AcDbArc
 50
90.00000000000000
 51
270.00000000000000
  0
CIRCLE
  5
181
330
23
100
AcDbEntity
  8
Details 10
  6
CONTINUOUS
 62
     7
370
    35
100
AcDbCircle
 10
105.22677263234576
 20
-144.65868514099631
 30
0.00000000000000
 40
0.35000000000007
  0
CIRCLE
  5
182
330
23
100
AcDbEntity
  8
Details 10
  6
CONTINUOUS
 62
     7
370
    35
100
AcDbCircle
 10
105.22677263234576
 20
-147.95868514099607
 30
0.00000000000000
 40
0.34999999999989
  0
CIRCLE
  5
183
330
23
100
AcDbEntity
  8
Details 10
  6
CONTINUOUS
 62
     7
370
    35
100
AcDbCircle
 10
105.22677263234576
 20
-151.25868514099608
 30
0.00000000000000
 40
0.34999999999989
  0
ARC
  5
184
330
23
100
AcDbEntity
  8
Details 10
  6
CONTINUOUS
 62
     7
370
    35
100
AcDbCircle
 10
104.12677263234573
 20
-146.36275484429578
 30
0.00000000000000
 40
0.35000000000007
100
AcDbArc
 50
270.00000000000000
 51
90.00000000000000
  0
ARC
  5
185
330
23
100
AcDbEntity
  8
Details 10
  6
CONTINUOUS
 62
     7
370
    35
100
AcDbCircle
 10
106.32677263234558
 20
-146.36275484429578
 30
0.00000000000000
 40
0.34999999999989
100
AcDbArc
 50
90.00000000000000
 51
270.00000000000000
  0
ARC
  5
186
330
23
100
AcDbEntity
  8
Details 10
  6
CONTINUOUS
 62
     7
370
    35
100
AcDbCircle
 10
104.12677263234573
 20
-149.67726470129040
 30
0.00000000000000
 40
0.35000000000007
100
AcDbArc
 50
270.00000000000000
 51
90.00000000000000
  0
ARC
  5
187
330
23
100
AcDbEntity
  8
Details 10
  6
CONTINUOUS
 62
     7
370
    35
100
AcDbCircle
 10
106.32677263234558
 20
-149.67726470129040
 30
0.00000000000000
 40
0.35000000000007
100
AcDbArc
 50
90.00000000000000
 51
270.00000000000000
  0
ARC
  5
188
330
23
100
AcDbEntity
  8
Details 10
  6
CONTINUOUS
 62
     7
370
    35
100
AcDbCircle
 10
104.12677263234573
 20
-156.53099749805372
 30
0.00000000000000
 40
0.35000000000007
100
AcDbArc
 50
270.00000000000000
 51
90.00000000000000
  0
ARC
  5
189
330
23
100
AcDbEntity
  8
Details 10
  6
CONTINUOUS
 62
     7
370
    35
100
AcDbCircle
 10
106.32677263234558
 20
-156.53099749805372
 30
0.00000000000000
 40
0.35000000000007
100
AcDbArc
 50
90.00000000000000
 51
270.00000000000000
  0
CIRCLE
  5
18A
330
23
100
AcDbEntity
  8
Details 10
  6
CONTINUOUS
 62
     7
370
    35
100
AcDbCircle
 10
105.22677263234576
 20
-154.55868514099600
 30
0.00000000000000
 40
0.35000000000007
  0
ARC
  5
18B
330
23
100
AcDbEntity
  8
Details 10
  6
CONTINUOUS
 62
     7
370
    35
100
AcDbCircle
 10
104.12677263234573
 20
-152.97726470129058
 30
0.00000000000000
 40
0.35000000000007
100
AcDbArc
 50
270.00000000000000
 51
90.00000000000000
  0
ARC
  5
18C
330
23
100
AcDbEntity
  8
Details 10
  6
CONTINUOUS
 62
     7
370
    35
100
AcDbCircle
 10
106.32677263234558
 20
-152.97726470129058
 30
0.00000000000000
 40
0.34999999999989
100
AcDbArc
 50
90.00000000000000
 51
270.00000000000000
  0
CIRCLE
  5
18D
330
23
100
AcDbEntity
  8
Details 10
  6
CONTINUOUS
 62
     7
370
    35
100
AcDbCircle
 10
105.22677263234576
 20
-161.84162679039892
 30
0.00000000000000
 40
0.34999999999989
  0
ARC
  5
18E
330
23
100
AcDbEntity
  8
Details 10
  6
CONTINUOUS
 62
     7
370
    35
100
AcDbCircle
 10
104.12677263234573
 20
-163.42304723010460
 30
0.00000000000000
 40
0.34999999999989
100
AcDbArc
 50
0.00000000000000
 51
90.00000000000000
  0
ARC
  5
18F
330
23
100
AcDbEntity
  8
Details 10
  6
CONTINUOUS
 62
     7
370
    35
100
AcDbCircle
 10
106.32677263234558
 20
-163.42304723010460
 30
0.00000000000000
 40
0.35000000000007
100
AcDbArc
 50
90.00000000000000
 51
180.00000000000000
  0
CIRCLE
  5
190
330
23
100
AcDbEntity
  8
Details 10
  6
CONTINUOUS
 62
     7
370
    35
100
AcDbCircle
 10
105.22677263234576
 20
-158.54162679039919
 30
0.00000000000000
 40
0.35000000000007
  0
ARC
  5
191
330
23
100
AcDbEntity
  8
Details 10
  6
CONTINUOUS
 62
     7
370
    35
100
AcDbCircle
 10
104.12677263234573
 20
-160.12304723010462
 30
0.00000000000000
 40
0.35000000000007
100
AcDbArc
 50
270.00000000000000
 51
90.00000000000000
  0
ARC
  5
192
330
23
100
AcDbEntity
  8
Details 10
  6
CONTINUOUS
 62
     7
370
    35
100
AcDbCircle
 10
106.32677263234558
 20
-160.12304723010462
 30
0.00000000000000
 40
0.34999999999989
100
AcDbArc
 50
90.00000000000000
 51
270.00000000000000
  0
LINE
  5
193
330
23
100
AcDbEntity
  8
Details 10
  6
CONTINUOUS
 62
     7
370
    35
100
AcDbLine
 10
106.32677263234558
 20
-142.79900829680074
 30
0.00000000000000
 11
106.32677263234558
 21
-146.01275484429550
 31
0.00000000000000
  0
LINE
  5
194
330
23
100
AcDbEntity
  8
Details 10
  6
CONTINUOUS
 62
     7
370
    35
100
AcDbLine
 10
106.32677263234558
 20
-146.71275484429586
 30
0.00000000000000
 11
106.32677263234558
 21
-149.32726470129032
 31
0.00000000000000
  0
LINE
  5
195
330
23
100
AcDbEntity
  8
Details 10
  6
CONTINUOUS
 62
     7
370
    35
100
AcDbLine
 10
106.32677263234558
 20
-150.02726470129045
 30
0.00000000000000
 11
106.32677263234558
 21
-152.62726470129030
 31
0.00000000000000
  0
LINE
  5
196
330
23
100
AcDbEntity
  8
Details 10
  6
CONTINUOUS
 62
     7
370
    35
100
AcDbLine
 10
106.32677263234558
 20
-153.32726470129046
 30
0.00000000000000
 11
106.32677263234558
 21
-156.18099749805364
 31
0.00000000000000
  0
LINE
  5
197
330
23
100
AcDbEntity
  8
Details 10
  6
CONTINUOUS
 62
     7
370
    35
100
AcDbLine
 10
106.32677263234558
 20
-156.88099749805377
 30
0.00000000000000
 11
106.32677263234558
 21
-159.77304723010437
 31
0.00000000000000
  0
LINE
  5
198
330
23
100
AcDbEntity
  8
Details 10
  6
CONTINUOUS
 62
     7
370
    35
100
AcDbLine
 10
106.32677263234558
 20
-160.47304723010470
 30
0.00000000000000
 11
106.32677263234558
 21
-163.07304723010452
 31
0.00000000000000
  0
LINE
  5
199
330
23
100
AcDbEntity
  8
Details 10
  6
CONTINUOUS
 62
     7
370
    35
100
AcDbLine
 10
104.12677263234573
 20
-160.47304723010470
 30
0.00000000000000
 11
104.12677263234573
 21
-163.07304723010452
 31
0.00000000000000
  0
LINE
  5
19A
330
23
100
AcDbEntity
  8
Details 10
  6
CONTINUOUS
 62
     7
370
    35
100
AcDbLine
 10
104.12677263234573
 20
-156.88099749805377
 30
0.00000000000000
 11
104.12677263234573
 21
-159.77304723010437
 31
0.00000000000000
  0
LINE
  5
19B
330
23
100
AcDbEntity
  8
Details 10
  6
CONTINUOUS
 62
     7
370
    35
100
AcDbLine
 10
104.12677263234573
 20
-153.32726470129046
 30
0.00000000000000
 11
104.12677263234573
 21
-156.18099749805364
 31
0.00000000000000
  0
LINE
  5
19C
330
23
100
AcDbEntity
  8
Details 10
  6
CONTINUOUS
 62
     7
370
    35
100
AcDbLine
 10
104.12677263234573
 20
-150.02726470129045
 30
0.00000000000000
 11
104.12677263234573
 21
-152.62726470129030
 31
0.00000000000000
  0
LINE
  5
19D
330
23
100
AcDbEntity
  8
Details 10
  6
CONTINUOUS
 62
     7
370
    35
100
AcDbLine
 10
104.12677263234573
 20
-146.71275484429586
 30
0.00000000000000
 11
104.12677263234573
 21
-149.32726470129032
 31
0.00000000000000
  0
LINE
  5
19E
330
23
100
AcDbEntity
  8
Details 10
  6
CONTINUOUS
 62
     7
370
    35
100
AcDbLine
 10
104.12677263234573
 20
-142.79900829680074
 30
0.00000000000000
 11
104.12677263234573
 21
-146.01275484429550
 31
0.00000000000000
  0
LINE
  5
19F
330
23
100
AcDbEntity
  8
Details 10
  6
CONTINUOUS
 62
     7
370
    35
100
AcDbLine
 10
105.97677263234560
 20
-163.42304723010460
 30
0.00000000000000
 11
104.47677263234563
 21
-163.42304723010460
 31
0.00000000000000
  0
ENDBLK
  5
1A0
330
23
100
AcDbEntity
  8
0
100
AcDbBlockEnd
  0
BLOCK
  5
1A1
330
24
100
AcDbEntity
  8
0
100
AcDbBlockBegin
  2
*U11
 70
     1
 10
0.00000000000000
 20
0.00000000000000
 30
0.00000000000000
  3
*U11
  1

  0
LINE
  5
1A2
330
24
100
AcDbEntity
  8
Details 10
  6
CONTINUOUS
 62
     7
370
    35
100
AcDbLine
 10
119.87322736765390
 20
-142.09900829680058
 30
0.00000000000000
 11
119.87322736765390
 21
-141.55015596569743
 31
0.00000000000000
  0
LINE
  5
1A3
330
24
100
AcDbEntity
  8
Details 10
  6
CONTINUOUS
 62
     7
370
    35
100
AcDbLine
 10
117.67322736765401
 20
-142.09900829680058
 30
0.00000000000000
 11
117.67322736765401
 21
-141.55015596569743
 31
0.00000000000000
  0
LINE
  5
1A4
330
24
100
AcDbEntity
  8
Details 10
  6
CONTINUOUS
 62
     7
370
    35
100
AcDbLine
 10
119.87322736765390
 20
-141.55015596569743
 30
0.00000000000000
 11
117.67322736765401
 21
-141.55015596569743
 31
0.00000000000000
  0
ARC
  5
1A5
330
24
100
AcDbEntity
  8
Details 10
  6
CONTINUOUS
 62
     7
370
    35
100
AcDbCircle
 10
119.87322736765390
 20
-142.44900829680066
 30
0.00000000000000
 40
0.35000000000007
100
AcDbArc
 50
90.00000000000000
 51
270.00000000000000
  0
ARC
  5
1A6
330
24
100
AcDbEntity
  8
Details 10
  6
CONTINUOUS
 62
     7
370
    35
100
AcDbCircle
 10
117.67322736765401
 20
-142.44900829680066
 30
0.00000000000000
 40
0.35000000000007
100
AcDbArc
 50
270.00000000000000
 51
90.00000000000000
  0
CIRCLE
  5
1A7
330
24
100
AcDbEntity
  8
Details 10
  6
CONTINUOUS
 62
     7
370
    35
100
AcDbCircle
 10
118.77322736765389
 20
-144.65868514099631
 30
0.00000000000000
 40
0.35000000000007
  0
CIRCLE
  5
1A8
330
24
100
AcDbEntity
  8
Details 10
  6
CONTINUOUS
 62
     7
370
    35
100
AcDbCircle
 10
118.77322736765389
 20
-147.95868514099607
 30
0.00000000000000
 40
0.34999999999989
  0
CIRCLE
  5
1A9
330
24
100
AcDbEntity
  8
Details 10
  6
CONTINUOUS
 62
     7
370
    35
100
AcDbCircle
 10
118.77322736765389
 20
-151.25868514099608
 30
0.00000000000000
 40
0.34999999999989
  0
ARC
  5
1AA
330
24
100
AcDbEntity
  8
Details 10
  6
CONTINUOUS
 62
     7
370
    35
100
AcDbCircle
 10
119.87322736765390
 20
-146.36275484429578
 30
0.00000000000000
 40
0.35000000000007
100
AcDbArc
 50
90.00000000000000
 51
270.00000000000000
  0
ARC
  5
1AB
330
24
100
AcDbEntity
  8
Details 10
  6
CONTINUOUS
 62
     7
370
    35
100
AcDbCircle
 10
117.67322736765401
 20
-146.36275484429578
 30
0.00000000000000
 40
0.34999999999989
100
AcDbArc
 50
270.00000000000000
 51
90.00000000000000
  0
ARC
  5
1AC
330
24
100
AcDbEntity
  8
Details 10
  6
CONTINUOUS
 62
     7
370
    35
100
AcDbCircle
 10
119.87322736765390
 20
-149.67726470129040
 30
0.00000000000000
 40
0.35000000000007
100
AcDbArc
 50
90.00000000000000
 51
270.00000000000000
  0
ARC
  5
1AD
330
24
100
AcDbEntity
  8
Details 10
  6
CONTINUOUS
 62
     7
370
    35
100
AcDbCircle
 10
117.67322736765401
 20
-149.67726470129040
 30
0.00000000000000
 40
0.35000000000007
100
AcDbArc
 50
270.00000000000000
 51
90.00000000000000
  0
ARC
  5
1AE
330
24
100
AcDbEntity
  8
Details 10
  6
CONTINUOUS
 62
     7
370
    35
100
AcDbCircle
 10
119.87322736765390
 20
-156.53099749805372
 30
0.00000000000000
 40
0.35000000000007
100
AcDbArc
 50
90.00000000000000
 51
270.00000000000000
  0
ARC
  5
1AF
330
24
100
AcDbEntity
  8
Details 10
  6
CONTINUOUS
 62
     7
370
    35
100
AcDbCircle
 10
117.67322736765401
 20
-156.53099749805372
 30
0.00000000000000
 40
0.35000000000007
100
AcDbArc
 50
270.00000000000000
 51
90.00000000000000
  0
CIRCLE
  5
1B0
330
24
100
AcDbEntity
  8
Details 10
  6
CONTINUOUS
 62
     7
370
    35
100
AcDbCircle
 10
118.77322736765389
 20
-154.55868514099600
 30
0.00000000000000
 40
0.35000000000007
  0
ARC
  5
1B1
330
24
100
AcDbEntity
  8
Details 10
  6
CONTINUOUS
 62
     7
370
    35
100
AcDbCircle
 10
119.87322736765390
 20
-152.97726470129058
 30
0.00000000000000
 40
0.35000000000007
100
AcDbArc
 50
90.00000000000000
 51
270.00000000000000
  0
ARC
  5
1B2
330
24
100
AcDbEntity
  8
Details 10
  6
CONTINUOUS
 62
     7
370
    35
100
AcDbCircle
 10
117.67322736765401
 20
-152.97726470129058
 30
0.00000000000000
 40
0.34999999999989
100
AcDbArc
 50
270.00000000000000
 51
90.00000000000000
  0
CIRCLE
  5
1B3
330
24
100
AcDbEntity
  8
Details 10
  6
CONTINUOUS
 62
     7
370
    35
100
AcDbCircle
 10
118.77322736765389
 20
-161.84162679039892
 30
0.00000000000000
 40
0.34999999999989
  0
ARC
  5
1B4
330
24
100
AcDbEntity
  8
Details 10
  6
CONTINUOUS
 62
     7
370
    35
100
AcDbCircle
 10
119.87322736765390
 20
-163.42304723010460
 30
0.00000000000000
 40
0.34999999999989
100
AcDbArc
 50
90.00000000000000
 51
180.00000000000000
  0
ARC
  5
1B5
330
24
100
AcDbEntity
  8
Details 10
  6
CONTINUOUS
 62
     7
370
    35
100
AcDbCircle
 10
117.67322736765401
 20
-163.42304723010460
 30
0.00000000000000
 40
0.35000000000007
100
AcDbArc
 50
0.00000000000000
 51
90.00000000000000
  0
CIRCLE
  5
1B6
330
24
100
AcDbEntity
  8
Details 10
  6
CONTINUOUS
 62
     7
370
    35
100
AcDbCircle
 10
118.77322736765389
 20
-158.54162679039919
 30
0.00000000000000
 40
0.35000000000007
  0
ARC
  5
1B7
330
24
100
AcDbEntity
  8
Details 10
  6
CONTINUOUS
 62
     7
370
    35
100
AcDbCircle
 10
119.87322736765390
 20
-160.12304723010462
 30
0.00000000000000
 40
0.35000000000007
100
AcDbArc
 50
90.00000000000000
 51
270.00000000000000
  0
ARC
  5
1B8
330
24
100
AcDbEntity
  8
Details 10
  6
CONTINUOUS
 62
     7
370
    35
100
AcDbCircle
 10
117.67322736765401
 20
-160.12304723010462
 30
0.00000000000000
 40
0.34999999999989
100
AcDbArc
 50
270.00000000000000
 51
90.00000000000000
  0
LINE
  5
1B9
330
24
100
AcDbEntity
  8
Details 10
  6
CONTINUOUS
 62
     7
370
    35
100
AcDbLine
 10
117.67322736765401
 20
-146.01275484429550
 30
0.00000000000000
 11
117.67322736765401
 21
-142.79900829680074
 31
0.00000000000000
  0
LINE
  5
1BA
330
24
100
AcDbEntity
  8
Details 10
  6
CONTINUOUS
 62
     7
370
    35
100
AcDbLine
 10
117.67322736765401
 20
-149.32726470129032
 30
0.00000000000000
 11
117.67322736765401
 21
-146.71275484429586
 31
0.00000000000000
  0
LINE
  5
1BB
330
24
100
AcDbEntity
  8
Details 10
  6
CONTINUOUS
 62
     7
370
    35
100
AcDbLine
 10
117.67322736765401
 20
-152.62726470129030
 30
0.00000000000000
 11
117.67322736765401
 21
-150.02726470129045
 31
0.00000000000000
  0
LINE
  5
1BC
330
24
100
AcDbEntity
  8
Details 10
  6
CONTINUOUS
 62
     7
370
    35
100
AcDbLine
 10
117.67322736765401
 20
-156.18099749805364
 30
0.00000000000000
 11
117.67322736765401
 21
-153.32726470129046
 31
0.00000000000000
  0
LINE
  5
1BD
330
24
100
AcDbEntity
  8
Details 10
  6
CONTINUOUS
 62
     7
370
    35
100
AcDbLine
 10
117.67322736765401
 20
-159.77304723010437
 30
0.00000000000000
 11
117.67322736765401
 21
-156.88099749805377
 31
0.00000000000000
  0
LINE
  5
1BE
330
24
100
AcDbEntity
  8
Details 10
  6
CONTINUOUS
 62
     7
370
    35
100
AcDbLine
 10
117.67322736765401
 20
-163.07304723010452
 30
0.00000000000000
 11
117.67322736765401
 21
-160.47304723010470
 31
0.00000000000000
  0
LINE
  5
1BF
330
24
100
AcDbEntity
  8
Details 10
  6
CONTINUOUS
 62
     7
370
    35
100
AcDbLine
 10
119.87322736765390
 20
-163.07304723010452
 30
0.00000000000000
 11
119.87322736765390
 21
-160.47304723010470
 31
0.00000000000000
  0
LINE
  5
1C0
330
24
100
AcDbEntity
  8
Details 10
  6
CONTINUOUS
 62
     7
370
    35
100
AcDbLine
 10
119.87322736765390
 20
-159.77304723010437
 30
0.00000000000000
 11
119.87322736765390
 21
-156.88099749805377
 31
0.00000000000000
  0
LINE
  5
1C1
330
24
100
AcDbEntity
  8
Details 10
  6
CONTINUOUS
 62
     7
370
    35
100
AcDbLine
 10
119.87322736765390
 20
-156.18099749805364
 30
0.00000000000000
 11
119.87322736765390
 21
-153.32726470129046
 31
0.00000000000000
  0
LINE
  5
1C2
330
24
100
AcDbEntity
  8
Details 10
  6
CONTINUOUS
 62
     7
370
    35
100
AcDbLine
 10
119.87322736765390
 20
-152.62726470129030
 30
0.00000000000000
 11
119.87322736765390
 21
-150.02726470129045
 31
0.00000000000000
  0
LINE
  5
1C3
330
24
100
AcDbEntity
  8
Details 10
  6
CONTINUOUS
 62
     7
370
    35
100
AcDbLine
 10
119.87322736765390
 20
-149.32726470129032
 30
0.00000000000000
 11
119.87322736765390
 21
-146.71275484429586
 31
0.00000000000000
  0
LINE
  5
1C4
330
24
100
AcDbEntity
  8
Details 10
  6
CONTINUOUS
 62
     7
370
    35
100
AcDbLine
 10
119.87322736765390
 20
-146.01275484429550
 30
0.00000000000000
 11
119.87322736765390
 21
-142.79900829680074
 31
0.00000000000000
  0
LINE
  5
1C5
330
24
100
AcDbEntity
  8
Details 10
  6
CONTINUOUS
 62
     7
370
    35
100
AcDbLine
 10
119.52322736765396
 20
-163.42304723010460
 30
0.00000000000000
 11
118.02322736765403
 21
-163.42304723010460
 31
0.00000000000000
  0
ENDBLK
  5
1C6
330
24
100
AcDbEntity
  8
0
100
AcDbBlockEnd
  0
BLOCK
  5
1C7
330
25
100
AcDbEntity
  8
0
100
AcDbBlockBegin
  2
*U12
 70
     1
 10
0.00000000000000
 20
0.00000000000000
 30
0.00000000000000
  3
*U12
  1

  0
MTEXT
  5
1C8
330
25
100
AcDbEntity
  8
Details 10
 62
     7
370
    30
100
AcDbMText
 10
54.57768759720054
 20
-173.19999999999990
 30
0.00000000000000
 40
2.80000000000000
 41
0.00000000000000
 71
     7
 72
     1
  1
\fArial Narrow|b0|i0;je 2 Mauerverbinder
 11
1.00000000000000
 21
0.00000000000000
 31
0.00000000000000
 73
     1
 44
1.00000000000000
  0
MTEXT
  5
1C9
330
25
100
AcDbEntity
  8
Details 10
 62
     7
370
    30
100
AcDbMText
 10
54.57768759720054
 20
-174.79999999999990
 30
0.00000000000000
 40
2.80000000000000
 41
0.00000000000000
 71
     1
 72
     1
  1
\fArial Narrow|b0|i0;gem. Zulassung in\Pjeder zweiten Schicht\Pbzw. nach Angabe statischer\PBerechnung
 11
1.00000000000000
 21
0.00000000000000
 31
0.00000000000000
 73
     1
 44
1.00000000000000
  0
LINE
  5
1CA
330
25
100
AcDbEntity
  8
Details 10
  6
CONTINUOUS
 62
    12
370
    25
100
AcDbLine
 10
105.15643564356428
 20
-160.36435643564354
 30
0.00000000000000
 11
93.99999999999992
 21
-173.99999999999991
 31
0.00000000000000
  0
HATCH
  5
1CB
330
25
100
AcDbEntity
  8
Details 10
 62
    12
100
AcDbHatch
 10
0.00000000000000
 20
0.00000000000000
 30
0.00000000000000
210
0.00000000000000
220
0.00000000000000
230
1.00000000000000
  2
SOLID
 70
     1
 71
     0
 91
        1
 92
        0
 93
       16
 72
     1
 10
105.65643564356427
 20
-160.36435643564354
 11
105.61837540981992
 21
-160.17301471946098
 72
     1
 10
105.61837540981992
 20
-160.17301471946098
 11
105.50998903415753
 21
-160.01080304505027
 72
     1
 10
105.50998903415753
 20
-160.01080304505027
 11
105.34777735974681
 21
-159.90241666938789
 72
     1
 10
105.34777735974681
 20
-159.90241666938789
 11
105.15643564356428
 21
-159.86435643564357
 72
     1
 10
105.15643564356428
 20
-159.86435643564357
 11
104.96509392738173
 21
-159.90241666938789
 72
     1
 10
104.96509392738173
 20
-159.90241666938789
 11
104.80288225297102
 21
-160.01080304505027
 72
     1
 10
104.80288225297102
 20
-160.01080304505027
 11
104.69449587730864
 21
-160.17301471946098
 72
     1
 10
104.69449587730864
 20
-160.17301471946098
 11
104.65643564356429
 21
-160.36435643564354
 72
     1
 10
104.65643564356429
 20
-160.36435643564354
 11
104.69449587730864
 21
-160.55569815182608
 72
     1
 10
104.69449587730864
 20
-160.55569815182608
 11
104.80288225297102
 21
-160.71790982623679
 72
     1
 10
104.80288225297102
 20
-160.71790982623679
 11
104.96509392738173
 21
-160.82629620189917
 72
     1
 10
104.96509392738173
 20
-160.82629620189917
 11
105.15643564356428
 21
-160.86435643564354
 72
     1
 10
105.15643564356428
 20
-160.86435643564354
 11
105.34777735974681
 21
-160.82629620189917
 72
     1
 10
105.34777735974681
 20
-160.82629620189917
 11
105.50998903415753
 21
-160.71790982623679
 72
     1
 10
105.50998903415753
 20
-160.71790982623679
 11
105.61837540981992
 21
-160.55569815182608
 72
     1
 10
105.61837540981992
 20
-160.55569815182608
 11
105.65643564356427
 21
-160.36435643564354
 97
        0
 75
     0
 76
     0
 98
        1
 10
0.00000000000000
 20
0.00000000000000
  0
LWPOLYLINE
  5
1CC
330
25
100
AcDbEntity
  8
Details 10
  6
CONTINUOUS
 62
    12
370
    25
100
AcDbPolyline
 90
       17
 70
   128
 10
105.65643564356427
 20
-160.36435643564354
 10
105.61837540981992
 20
-160.17301471946098
 10
105.50998903415753
 20
-160.01080304505027
 10
105.34777735974681
 20
-159.90241666938789
 10
105.15643564356428
 20
-159.86435643564357
 10
104.96509392738173
 20
-159.90241666938789
 10
104.80288225297102
 20
-160.01080304505027
 10
104.69449587730864
 20
-160.17301471946098
 10
104.65643564356429
 20
-160.36435643564354
 10
104.69449587730864
 20
-160.55569815182608
 10
104.80288225297102
 20
-160.71790982623679
 10
104.96509392738173
 20
-160.82629620189917
 10
105.15643564356428
 20
-160.86435643564354
 10
105.34777735974681
 20
-160.82629620189917
 10
105.50998903415753
 20
-160.71790982623679
 10
105.61837540981992
 20
-160.55569815182608
 10
105.65643564356427
 20
-160.36435643564354
  0
LINE
  5
1CD
330
25
100
AcDbEntity
  8
Details 10
  6
CONTINUOUS
 62
    12
370
    25
100
AcDbLine
 10
53.17768759720054
 20
-173.99999999999991
 30
0.00000000000000
 11
93.99999999999992
 21
-173.99999999999991
 31
0.00000000000000
  0
ENDBLK
  5
1CE
330
25
100
AcDbEntity
  8
0
100
AcDbBlockEnd
  0
BLOCK
  5
1CF
330
26
100
AcDbEntity
  8
0
100
AcDbBlockBegin
  2
*U13
 70
     1
 10
0.00000000000000
 20
0.00000000000000
 30
0.00000000000000
  3
*U13
  1

  0
LINE
  5
1D0
330
26
100
AcDbEntity
  8
Details 10
  6
CONTINUOUS
 62
    12
370
    25
100
AcDbLine
 10
118.80000000000000
 20
-160.60000000000002
 30
0.00000000000000
 11
93.99999999999992
 21
-173.99999999999991
 31
0.00000000000000
  0
HATCH
  5
1D1
330
26
100
AcDbEntity
  8
Details 10
 62
    12
100
AcDbHatch
 10
0.00000000000000
 20
0.00000000000000
 30
0.00000000000000
210
0.00000000000000
220
0.00000000000000
230
1.00000000000000
  2
SOLID
 70
     1
 71
     0
 91
        1
 92
        0
 93
       16
 72
     1
 10
119.29999999999998
 20
-160.60000000000002
 11
119.26193976625564
 21
-160.40865828381749
 72
     1
 10
119.26193976625564
 20
-160.40865828381749
 11
119.15355339059326
 21
-160.24644660940675
 72
     1
 10
119.15355339059326
 20
-160.24644660940675
 11
118.99134171618253
 21
-160.13806023374437
 72
     1
 10
118.99134171618253
 20
-160.13806023374437
 11
118.80000000000000
 21
-160.10000000000002
 72
     1
 10
118.80000000000000
 20
-160.10000000000002
 11
118.60865828381746
 21
-160.13806023374437
 72
     1
 10
118.60865828381746
 20
-160.13806023374437
 11
118.44644660940673
 21
-160.24644660940675
 72
     1
 10
118.44644660940673
 20
-160.24644660940675
 11
118.33806023374436
 21
-160.40865828381749
 72
     1
 10
118.33806023374436
 20
-160.40865828381749
 11
118.30000000000001
 21
-160.60000000000002
 72
     1
 10
118.30000000000001
 20
-160.60000000000002
 11
118.33806023374436
 21
-160.79134171618256
 72
     1
 10
118.33806023374436
 20
-160.79134171618256
 11
118.44644660940673
 21
-160.95355339059327
 72
     1
 10
118.44644660940673
 20
-160.95355339059327
 11
118.60865828381746
 21
-161.06193976625565
 72
     1
 10
118.60865828381746
 20
-161.06193976625565
 11
118.80000000000000
 21
-161.10000000000002
 72
     1
 10
118.80000000000000
 20
-161.10000000000002
 11
118.99134171618253
 21
-161.06193976625565
 72
     1
 10
118.99134171618253
 20
-161.06193976625565
 11
119.15355339059326
 21
-160.95355339059327
 72
     1
 10
119.15355339059326
 20
-160.95355339059327
 11
119.26193976625564
 21
-160.79134171618256
 72
     1
 10
119.26193976625564
 20
-160.79134171618256
 11
119.29999999999998
 21
-160.60000000000002
 97
        0
 75
     0
 76
     0
 98
        1
 10
0.00000000000000
 20
0.00000000000000
  0
LWPOLYLINE
  5
1D2
330
26
100
AcDbEntity
  8
Details 10
  6
CONTINUOUS
 62
    12
370
    25
100
AcDbPolyline
 90
       17
 70
   128
 10
119.29999999999998
 20
-160.60000000000002
 10
119.26193976625564
 20
-160.40865828381749
 10
119.15355339059326
 20
-160.24644660940675
 10
118.99134171618253
 20
-160.13806023374437
 10
118.80000000000000
 20
-160.10000000000002
 10
118.60865828381746
 20
-160.13806023374437
 10
118.44644660940673
 20
-160.24644660940675
 10
118.33806023374436
 20
-160.40865828381749
 10
118.30000000000001
 20
-160.60000000000002
 10
118.33806023374436
 20
-160.79134171618256
 10
118.44644660940673
 20
-160.95355339059327
 10
118.60865828381746
 20
-161.06193976625565
 10
118.80000000000000
 20
-161.10000000000002
 10
118.99134171618253
 20
-161.06193976625565
 10
119.15355339059326
 20
-160.95355339059327
 10
119.26193976625564
 20
-160.79134171618256
 10
119.29999999999998
 20
-160.60000000000002
  0
LINE
  5
1D3
330
26
100
AcDbEntity
  8
Details 10
  6
CONTINUOUS
 62
    12
370
    25
100
AcDbLine
 10
84.53090250777595
 20
-173.99999999999991
 30
0.00000000000000
 11
93.99999999999992
 21
-173.99999999999991
 31
0.00000000000000
  0
ENDBLK
  5
1D4
330
26
100
AcDbEntity
  8
0
100
AcDbBlockEnd
  0
BLOCK
  5
1D5
330
27
100
AcDbEntity
  8
0
100
AcDbBlockBegin
  2
*U14
 70
     1
 10
0.00000000000000
 20
0.00000000000000
 30
0.00000000000000
  3
*U14
  1

  0
LWPOLYLINE
  5
1D6
330
27
100
AcDbEntity
  8
Planrahmen
  6
CONTINUOUS
 62
     7
370
     0
100
AcDbPolyline
 90
       29
 70
   129
 10
173.38640000000004
 20
-12.97660000000002
 10
173.30445000000006
 20
-12.97660000000002
 10
173.05955000000006
 20
-12.91145000000002
 10
172.80640000000008
 20
-12.71565000000002
 10
172.64285000000007
 20
-12.38820000000002
 10
172.58480000000009
 20
-12.04320000000002
 10
172.58480000000009
 20
-11.92815000000002
 10
172.58480000000009
 20
-11.81585000000002
 10
172.64040000000008
 20
-11.47945000000002
 10
172.79960000000005
 20
-11.16235000000002
 10
173.05030000000005
 20
-10.97410000000002
 10
173.29795000000004
 20
-10.91195000000002
 10
173.38070000000005
 20
-10.91195000000002
 10
173.45800000000006
 20
-10.91195000000002
 10
173.68995000000010
 20
-10.97140000000002
 10
173.93105000000008
 20
-11.15425000000002
 10
174.08790000000008
 20
-11.46565000000002
 10
174.14405000000005
 20
-11.79990000000002
 10
174.14405000000005
 20
-11.91135000000002
 10
174.14405000000005
 20
-11.97835000000002
 10
174.12940000000003
 20
-12.17930000000002
 10
174.08730000000006
 20
-12.40425000000002
 10
174.02010000000007
 20
-12.58840000000002
 10
173.92975000000004
 20
-12.73410000000002
 10
173.81905000000009
 20
-12.84340000000002
 10
173.68995000000010
 20
-12.91885000000002
 10
173.54480000000004
 20
-12.96250000000002
 10
173.42600000000007
 20
-12.97660000000002
 10
173.38640000000004
 20
-12.97660000000002
  0
LWPOLYLINE
  5
1D7
330
27
100
AcDbEntity
  8
Planrahmen
  6
CONTINUOUS
 62
     7
370
     0
100
AcDbPolyline
 90
       41
 70
   129
 10
173.40835000000004
 20
-9.89635000000002
 10
173.29635000000005
 20
-9.89635000000002
 10
172.96080000000009
 20
-9.93190000000002
 10
172.56010000000003
 20
-10.03690000000002
 10
172.21015000000006
 20
-10.20780000000002
 10
171.91475000000005
 20
-10.44105000000002
 10
171.67820000000006
 20
-10.73375000000002
 10
171.50405000000006
 20
-11.08210000000002
 10
171.39690000000007
 20
-11.48300000000002
 10
171.36030000000008
 20
-11.82070000000002
 10
171.36030000000008
 20
-11.93330000000002
 10
171.36030000000008
 20
-12.05020000000002
 10
171.39690000000007
 20
-12.40100000000002
 10
171.50490000000008
 20
-12.81140000000002
 10
171.67935000000006
 20
-13.16245000000002
 10
171.91615000000004
 20
-13.45320000000002
 10
172.21130000000005
 20
-13.68190000000002
 10
172.56010000000003
 20
-13.84710000000002
 10
172.95855000000003
 20
-13.94715000000002
 10
173.29140000000004
 20
-13.98110000000002
 10
173.40265000000005
 20
-13.98110000000002
 10
173.50415000000007
 20
-13.98110000000002
 10
173.80880000000005
 20
-13.95070000000002
 10
174.18310000000008
 20
-13.85875000000002
 10
174.51835000000003
 20
-13.70390000000002
 10
174.80810000000008
 20
-13.48465000000002
 10
175.04545000000005
 20
-13.19985000000002
 10
175.22345000000004
 20
-12.84830000000002
 10
175.33515000000006
 20
-12.42805000000002
 10
175.37400000000008
 20
-12.06105000000002
 10
175.37400000000008
 20
-11.93875000000002
 10
175.37400000000008
 20
-11.82320000000002
 10
175.33790000000005
 20
-11.47730000000002
 10
175.23345000000006
 20
-11.07070000000002
 10
175.06475000000003
 20
-10.72080000000002
 10
174.83580000000003
 20
-10.42965000000002
 10
174.55120000000008
 20
-10.19940000000001
 10
174.21565000000004
 20
-10.03225000000002
 10
173.83315000000005
 20
-9.93055000000002
 10
173.51440000000005
 20
-9.89635000000002
 10
173.40835000000004
 20
-9.89635000000002
  0
LWPOLYLINE
  5
1D8
330
27
100
AcDbEntity
  8
Planrahmen
  6
CONTINUOUS
 62
     7
370
     0
100
AcDbPolyline
 90
        5
 70
   129
 10
173.68940000000003
 20
-8.99740000000001
 10
174.60245000000006
 20
-8.99740000000001
 10
174.60245000000006
 20
-9.77210000000001
 10
173.68940000000003
 20
-9.77210000000001
 10
173.68940000000003
 20
-8.99740000000001
  0
LWPOLYLINE
  5
1D9
330
27
100
AcDbEntity
  8
Planrahmen
  6
CONTINUOUS
 62
     7
370
     0
100
AcDbPolyline
 90
        7
 70
   129
 10
179.80650000000014
 20
-13.87670000000002
 10
179.80650000000014
 20
-10.00050000000002
 10
180.99760000000015
 20
-10.00050000000002
 10
180.99760000000015
 20
-12.99285000000002
 10
182.46925000000007
 20
-12.99285000000002
 10
182.46925000000007
 20
-13.87670000000002
 10
179.80650000000014
 20
-13.87670000000002
  0
LWPOLYLINE
  5
1DA
330
27
100
AcDbEntity
  8
Planrahmen
  6
CONTINUOUS
 62
     7
370
     0
100
AcDbPolyline
 90
       13
 70
   129
 10
184.16600000000000
 20
-13.87670000000002
 10
184.16600000000000
 20
-12.43840000000002
 10
182.82105000000010
 20
-12.43840000000002
 10
182.82105000000010
 20
-11.43475000000002
 10
184.16600000000000
 20
-11.43475000000002
 10
184.16600000000000
 20
-10.00105000000002
 10
185.33730000000008
 20
-10.00105000000002
 10
185.33730000000008
 20
-11.43475000000002
 10
186.68280000000010
 20
-11.43475000000002
 10
186.68280000000010
 20
-12.43840000000002
 10
185.33730000000008
 20
-12.43840000000002
 10
185.33730000000008
 20
-13.87670000000002
 10
184.16600000000000
 20
-13.87670000000002
  0
LWPOLYLINE
  5
1DB
330
27
100
AcDbEntity
  8
Planrahmen
  6
CONTINUOUS
 62
     7
370
     0
100
AcDbPolyline
 90
       20
 70
   129
 10
177.98275000000012
 20
-11.52725000000002
 10
177.96479999999997
 20
-11.54350000000002
 10
177.83460000000011
 20
-11.60340000000002
 10
177.65314999999998
 20
-11.63110000000002
 10
177.59265000000008
 20
-11.63110000000002
 10
177.04365000000004
 20
-11.63110000000002
 10
177.04365000000004
 20
-10.91765000000002
 10
177.58185000000009
 20
-10.91765000000002
 10
177.63635000000005
 20
-10.91765000000002
 10
177.79990000000006
 20
-10.93480000000002
 10
177.92440000000013
 20
-10.97680000000002
 10
177.94370000000009
 20
-10.98930000000002
 10
177.96705000000006
 20
-11.00425000000002
 10
178.04190000000014
 20
-11.10705000000002
 10
178.07010000000005
 20
-11.23235000000002
 10
178.07010000000005
 20
-11.27440000000002
 10
178.07010000000005
 20
-11.31265000000002
 10
178.04675000000009
 20
-11.42765000000002
 10
177.99630000000005
 20
-11.51340000000002
 10
177.98275000000012
 20
-11.52725000000002
  0
LWPOLYLINE
  5
1DC
330
27
100
AcDbEntity
  8
Planrahmen
  6
CONTINUOUS
 62
     7
370
     0
100
AcDbPolyline
 90
       27
 70
   129
 10
178.53130000000010
 20
-12.34535000000002
 10
178.61995000000002
 20
-12.31475000000002
 10
178.87085000000008
 20
-12.17855000000002
 10
179.12070000000008
 20
-11.93955000000002
 10
179.27480000000011
 20
-11.62330000000002
 10
179.32740000000007
 20
-11.32460000000002
 10
179.32740000000007
 20
-11.22530000000002
 10
179.32740000000007
 20
-11.13820000000002
 10
179.29540000000006
 20
-10.87725000000002
 10
179.19475000000011
 20
-10.58890000000002
 10
179.01925000000003
 20
-10.35480000000002
 10
178.83100000000013
 20
-10.20780000000002
 10
178.76210000000009
 20
-10.17090000000002
 10
178.71655000000001
 20
-10.14645000000002
 10
178.56975000000003
 20
-10.09330000000002
 10
178.32810000000003
 20
-10.04045000000001
 10
178.03295000000014
 20
-10.01000000000002
 10
177.76845000000003
 20
-10.00050000000002
 10
177.68030000000007
 20
-10.00050000000002
 10
175.85765000000015
 20
-10.00050000000002
 10
175.85765000000015
 20
-13.87670000000002
 10
177.04365000000004
 20
-13.87670000000002
 10
177.04365000000004
 20
-12.53715000000002
 10
177.39515000000011
 20
-12.53715000000002
 10
178.13630000000009
 20
-13.87670000000002
 10
179.48690000000005
 20
-13.87670000000002
 10
178.53130000000010
 20
-12.34535000000002
  0
LWPOLYLINE
  5
1DD
330
27
100
AcDbEntity
  8
Planrahmen
  6
CONTINUOUS
 62
     7
370
     0
100
AcDbPolyline
 90
       13
 70
   129
 10
169.67140000000009
 20
-18.59405000000003
 10
169.67140000000009
 20
-17.08495000000002
 10
168.54480000000004
 20
-17.08495000000002
 10
168.54480000000004
 20
-18.59405000000003
 10
167.35285000000005
 20
-18.59405000000003
 10
167.35285000000005
 20
-14.73360000000002
 10
168.54480000000004
 20
-14.73360000000002
 10
168.54480000000004
 20
-16.08965000000002
 10
169.67140000000009
 20
-16.08965000000002
 10
169.67140000000009
 20
-14.73360000000002
 10
170.86905000000007
 20
-14.73360000000002
 10
170.86905000000007
 20
-18.59405000000003
 10
169.67140000000009
 20
-18.59405000000003
  0
LWPOLYLINE
  5
1DE
330
27
100
AcDbEntity
  8
Planrahmen
  6
CONTINUOUS
 62
     7
370
     0
100
AcDbPolyline
 90
        9
 70
   129
 10
180.25050000000005
 20
-18.59405000000003
 10
180.25050000000005
 20
-15.65240000000003
 10
179.27755000000005
 20
-15.65240000000003
 10
179.27755000000005
 20
-14.73360000000002
 10
182.42175000000009
 20
-14.73360000000002
 10
182.42175000000009
 20
-15.65240000000003
 10
181.45390000000012
 20
-15.65240000000003
 10
181.45390000000012
 20
-18.59405000000003
 10
180.25050000000005
 20
-18.59405000000003
  0
LWPOLYLINE
  5
1DF
330
27
100
AcDbEntity
  8
Planrahmen
  6
CONTINUOUS
 62
     7
370
     0
100
AcDbPolyline
 90
       44
 70
   129
 10
186.20510000000007
 20
-18.59405000000003
 10
186.20510000000007
 20
-18.37780000000003
 10
186.20620000000014
 20
-17.73000000000002
 10
186.21105000000009
 20
-17.06645000000003
 10
186.22115000000011
 20
-16.50635000000002
 10
186.23335000000012
 20
-16.09125000000002
 10
186.23820000000006
 20
-15.95320000000002
 10
186.21300000000014
 20
-16.05035000000003
 10
186.13790000000003
 20
-16.34195000000002
 10
186.00630000000001
 20
-16.84490000000002
 10
185.81425000000013
 20
-17.56210000000003
 10
185.60320000000002
 20
-18.33605000000003
 10
185.53240000000008
 20
-18.59405000000003
 10
184.56475000000000
 20
-18.59405000000003
 10
184.50725000000006
 20
-18.39030000000003
 10
184.33830000000000
 20
-17.77805000000003
 10
184.15705000000008
 20
-17.09800000000002
 10
184.00460000000012
 20
-16.49875000000003
 10
183.89905000000010
 20
-16.06850000000002
 10
183.86460000000011
 20
-15.92530000000002
 10
183.86685000000008
 20
-16.01910000000002
 10
183.87355000000011
 20
-16.30155000000002
 10
183.88255000000004
 20
-16.79010000000002
 10
183.88935000000001
 20
-17.51330000000003
 10
183.89230000000006
 20
-18.32385000000002
 10
183.89230000000006
 20
-18.59405000000003
 10
182.76545000000004
 20
-18.59405000000003
 10
182.76545000000004
 20
-14.73360000000002
 10
184.44435000000010
 20
-14.73360000000002
 10
184.50210000000015
 20
-14.94600000000002
 10
184.67245000000003
 20
-15.58510000000003
 10
184.84635000000009
 20
-16.26330000000002
 10
184.97495000000012
 20
-16.79580000000003
 10
185.04544999999999
 20
-17.10670000000002
 10
185.06775000000013
 20
-17.21055000000003
 10
185.08560000000000
 20
-17.11340000000002
 10
185.14475000000002
 20
-16.82370000000002
 10
185.25790000000003
 20
-16.32485000000002
 10
185.42605000000006
 20
-15.64965000000002
 10
185.60725000000005
 20
-14.96230000000002
 10
185.66940000000002
 20
-14.73360000000002
 10
187.33170000000004
 20
-14.73360000000002
 10
187.33170000000004
 20
-18.59405000000003
 10
186.20510000000007
 20
-18.59405000000003
  0
LWPOLYLINE
  5
1E0
330
27
100
AcDbEntity
  8
Planrahmen
  6
CONTINUOUS
 62
     7
370
     0
100
AcDbPolyline
 90
       31
 70
   129
 10
193.35630000000009
 20
-14.73360000000002
 10
193.45230000000006
 20
-14.90940000000002
 10
193.73935000000014
 20
-15.43805000000002
 10
194.04230000000015
 20
-16.00745000000002
 10
194.28810000000001
 20
-16.48680000000002
 10
194.44760000000011
 20
-16.81175000000002
 10
194.49915000000013
 20
-16.92110000000002
 10
194.49370000000016
 20
-16.83760000000002
 10
194.48150000000012
 20
-16.58690000000002
 10
194.46955000000014
 20
-16.17590000000002
 10
194.46280000000010
 20
-15.59055000000002
 10
194.46085000000008
 20
-14.94765000000002
 10
194.46085000000008
 20
-14.73360000000002
 10
195.63650000000015
 20
-14.73360000000002
 10
195.63650000000015
 20
-18.59405000000003
 10
194.34560000000005
 20
-18.59405000000003
 10
194.25120000000001
 20
-18.42500000000003
 10
193.97070000000011
 20
-17.91745000000002
 10
193.66365000000013
 20
-17.35270000000003
 10
193.40780000000007
 20
-16.86980000000003
 10
193.24130000000011
 20
-16.54730000000002
 10
193.18675000000013
 20
-16.43960000000002
 10
193.19005000000004
 20
-16.51420000000002
 10
193.19650000000016
 20
-16.73910000000003
 10
193.20330000000013
 20
-17.14760000000003
 10
193.20710000000014
 20
-17.74055000000002
 10
193.20845000000014
 20
-18.38050000000003
 10
193.20845000000014
 20
-18.59405000000003
 10
192.03300000000007
 20
-18.59405000000003
 10
192.03300000000007
 20
-14.73360000000002
 10
193.35630000000009
 20
-14.73360000000002
  0
LWPOLYLINE
  5
1E1
330
27
100
AcDbEntity
  8
Planrahmen
  6
CONTINUOUS
 62
     7
370
     0
100
AcDbPolyline
 90
       31
 70
   129
 10
197.71950000000010
 20
-14.73360000000002
 10
197.81550000000007
 20
-14.90940000000002
 10
198.10250000000002
 20
-15.43805000000002
 10
198.40600000000003
 20
-16.00745000000002
 10
198.65150000000014
 20
-16.48680000000002
 10
198.81100000000001
 20
-16.81175000000002
 10
198.86250000000010
 20
-16.92110000000002
 10
198.85700000000011
 20
-16.83760000000002
 10
198.84500000000011
 20
-16.58690000000002
 10
198.83300000000008
 20
-16.17590000000002
 10
198.82600000000011
 20
-15.59055000000002
 10
198.82400000000004
 20
-14.94765000000002
 10
198.82400000000004
 20
-14.73360000000002
 10
200.00000000000011
 20
-14.73360000000002
 10
200.00000000000011
 20
-18.59405000000003
 10
198.70900000000009
 20
-18.59405000000003
 10
198.61450000000008
 20
-18.42500000000003
 10
198.33400000000017
 20
-17.91745000000002
 10
198.02700000000013
 20
-17.35270000000003
 10
197.77100000000007
 20
-16.86980000000003
 10
197.60450000000012
 20
-16.54730000000002
 10
197.55000000000007
 20
-16.43960000000002
 10
197.55350000000010
 20
-16.51420000000002
 10
197.56000000000012
 20
-16.73910000000003
 10
197.56700000000009
 20
-17.14760000000003
 10
197.57050000000004
 20
-17.74055000000002
 10
197.57200000000003
 20
-18.38050000000003
 10
197.57200000000003
 20
-18.59405000000003
 10
196.39650000000003
 20
-18.59405000000003
 10
196.39650000000003
 20
-14.73360000000002
 10
197.71950000000010
 20
-14.73360000000002
  0
LWPOLYLINE
  5
1E2
330
27
100
AcDbEntity
  8
Planrahmen
  6
CONTINUOUS
 62
     7
370
     0
100
AcDbPolyline
 90
       20
 70
   129
 10
177.68675000000005
 20
-16.25405000000002
 10
177.66890000000006
 20
-16.27035000000002
 10
177.53944999999999
 20
-16.33030000000003
 10
177.35885000000002
 20
-16.35765000000002
 10
177.29885000000007
 20
-16.35765000000002
 10
176.75175000000016
 20
-16.35765000000002
 10
176.75175000000016
 20
-15.64695000000002
 10
177.28725000000006
 20
-15.64695000000002
 10
177.34149999999997
 20
-15.64695000000002
 10
177.50475000000003
 20
-15.66405000000003
 10
177.62925000000001
 20
-15.70555000000002
 10
177.64855000000006
 20
-15.71800000000002
 10
177.67159999999998
 20
-15.73295000000002
 10
177.74620000000002
 20
-15.83550000000002
 10
177.77415000000002
 20
-15.96055000000002
 10
177.77415000000002
 20
-16.00230000000002
 10
177.77415000000002
 20
-16.04030000000002
 10
177.75080000000003
 20
-16.15480000000002
 10
177.70035000000001
 20
-16.24020000000002
 10
177.68675000000005
 20
-16.25405000000002
  0
LWPOLYLINE
  5
1E3
330
27
100
AcDbEntity
  8
Planrahmen
  6
CONTINUOUS
 62
     7
370
     0
100
AcDbPolyline
 90
       27
 70
   129
 10
178.23365000000007
 20
-17.06870000000003
 10
178.32185000000007
 20
-17.03800000000003
 10
178.57195000000010
 20
-16.90265000000003
 10
178.82070000000010
 20
-16.66445000000002
 10
178.97400000000013
 20
-16.34955000000003
 10
179.02655000000007
 20
-16.05225000000003
 10
179.02655000000007
 20
-15.95320000000002
 10
179.02655000000007
 20
-15.86640000000002
 10
178.99455000000003
 20
-15.60655000000002
 10
178.89444999999998
 20
-15.31925000000002
 10
178.71955000000000
 20
-15.08625000000003
 10
178.53205000000000
 20
-14.93975000000002
 10
178.46345000000014
 20
-14.90315000000002
 10
178.41815000000011
 20
-14.87875000000003
 10
178.27190000000010
 20
-14.82585000000002
 10
178.03130000000004
 20
-14.77320000000002
 10
177.73725000000002
 20
-14.74305000000002
 10
177.47355000000013
 20
-14.73360000000002
 10
177.38595000000007
 20
-14.73360000000002
 10
175.57035000000005
 20
-14.73360000000002
 10
175.57035000000005
 20
-18.59425000000003
 10
176.75175000000016
 20
-18.59425000000003
 10
176.75175000000016
 20
-17.26045000000002
 10
177.10195000000010
 20
-17.26045000000002
 10
177.84005000000008
 20
-18.59425000000003
 10
179.18530000000004
 20
-18.59425000000003
 10
178.23365000000007
 20
-17.06870000000003
  0
LWPOLYLINE
  5
1E4
330
27
100
AcDbEntity
  8
Planrahmen
  6
CONTINUOUS
 62
     7
370
     0
100
AcDbPolyline
 90
       10
 70
   129
 10
172.81510000000006
 20
-17.12320000000003
 10
172.85880000000009
 20
-16.98645000000003
 10
173.03970000000007
 20
-16.39430000000002
 10
173.19080000000008
 20
-15.87405000000002
 10
173.21980000000008
 20
-15.77305000000002
 10
173.24560000000005
 20
-15.87405000000002
 10
173.38585000000006
 20
-16.39235000000002
 10
173.55595000000005
 20
-16.98515000000003
 10
173.59690000000006
 20
-17.12320000000003
 10
172.81510000000006
 20
-17.12320000000003
  0
LWPOLYLINE
  5
1E5
330
27
100
AcDbEntity
  8
Planrahmen
  6
CONTINUOUS
 62
     7
370
     0
100
AcDbPolyline
 90
        9
 70
   129
 10
173.96310000000008
 20
-14.73390000000002
 10
172.54170000000008
 20
-14.73390000000002
 10
171.12540000000004
 20
-18.59405000000003
 10
172.40495000000004
 20
-18.59405000000003
 10
172.59650000000005
 20
-17.97120000000003
 10
173.82150000000007
 20
-17.97120000000003
 10
174.01275000000004
 20
-18.59405000000003
 10
175.31425000000004
 20
-18.59405000000003
 10
173.96310000000008
 20
-14.73390000000002
  0
LWPOLYLINE
  5
1E6
330
27
100
AcDbEntity
  8
Planrahmen
  6
CONTINUOUS
 62
     7
370
     0
100
AcDbPolyline
 90
       10
 70
   129
 10
189.27755000000008
 20
-17.12320000000003
 10
189.32120000000012
 20
-16.98645000000003
 10
189.50240000000002
 20
-16.39430000000002
 10
189.65320000000014
 20
-15.87405000000002
 10
189.68225000000010
 20
-15.77305000000002
 10
189.70800000000014
 20
-15.87405000000002
 10
189.84800000000007
 20
-16.39235000000002
 10
190.01835000000005
 20
-16.98515000000003
 10
190.05955000000012
 20
-17.12320000000003
 10
189.27755000000008
 20
-17.12320000000003
  0
LWPOLYLINE
  5
1E7
330
27
100
AcDbEntity
  8
Planrahmen
  6
CONTINUOUS
 62
     7
370
     0
100
AcDbPolyline
 90
        9
 70
   129
 10
190.42550000000008
 20
-14.73390000000002
 10
189.00379999999998
 20
-14.73390000000002
 10
187.58780000000013
 20
-18.59405000000003
 10
188.86760000000007
 20
-18.59405000000003
 10
189.05885000000006
 20
-17.97120000000003
 10
190.28389999999999
 20
-17.97120000000003
 10
190.47515000000010
 20
-18.59405000000003
 10
191.77640000000011
 20
-18.59405000000003
 10
190.42550000000008
 20
-14.73390000000002
  0
LWPOLYLINE
  5
1E8
330
27
100
AcDbEntity
  8
Planrahmen
  6
CONTINUOUS
 62
     7
370
     0
100
AcDbPolyline
 90
       13
 70
   129
 10
169.67410000000004
 20
-13.87670000000002
 10
169.67410000000004
 20
-12.36160000000002
 10
168.54345000000004
 20
-12.36160000000002
 10
168.54345000000004
 20
-13.87670000000002
 10
167.34605000000008
 20
-13.87670000000002
 10
167.34605000000008
 20
-10.00050000000002
 10
168.54345000000004
 20
-10.00050000000002
 10
168.54345000000004
 20
-11.36230000000001
 10
169.67410000000004
 20
-11.36230000000001
 10
169.67410000000004
 20
-10.00050000000002
 10
170.87635000000006
 20
-10.00050000000002
 10
170.87635000000006
 20
-13.87670000000002
 10
169.67410000000004
 20
-13.87670000000002
  0
LWPOLYLINE
  5
1E9
330
27
100
AcDbEntity
  8
Planrahmen
  6
CONTINUOUS
 62
     7
370
     0
100
AcDbPolyline
 90
        5
 70
   129
 10
172.26710000000006
 20
-8.99740000000001
 10
173.18050000000008
 20
-8.99740000000001
 10
173.18050000000008
 20
-9.77210000000001
 10
172.26710000000006
 20
-9.77210000000001
 10
172.26710000000006
 20
-8.99740000000001
  0
LWPOLYLINE
  5
1EA
330
27
100
AcDbEntity
  8
Planrahmen
  6
CONTINUOUS
 62
     7
370
     0
100
AcDbPolyline
 90
       44
 70
   129
 10
168.55865000000003
 20
-24.60937000000003
 10
168.51905000000005
 20
-24.46830500000003
 10
168.40050000000005
 20
-24.04540500000003
 10
168.30665000000005
 20
-23.70577000000004
 10
168.25350000000006
 20
-23.50395000000003
 10
168.22605000000007
 20
-23.39055000000003
 10
168.21765000000005
 20
-23.35285000000003
 10
168.20925000000008
 20
-23.39085000000003
 10
168.18295000000006
 20
-23.50449500000003
 10
168.13115000000005
 20
-23.70631000000003
 10
168.03810000000007
 20
-24.04567500000003
 10
167.92035000000004
 20
-24.46830500000003
 10
167.88100000000006
 20
-24.60937000000003
 10
167.75050000000007
 20
-24.60937000000003
 10
167.35260000000008
 20
-23.16950000000003
 10
167.48740000000006
 20
-23.16950000000003
 10
167.52675000000005
 20
-23.31570000000003
 10
167.64445000000006
 20
-23.75487500000003
 10
167.74050000000005
 20
-24.11484500000003
 10
167.79365000000007
 20
-24.32182000000003
 10
167.81675000000007
 20
-24.41649500000004
 10
167.82380000000006
 20
-24.44823000000003
 10
167.83085000000008
 20
-24.41730500000003
 10
167.85335000000006
 20
-24.32534500000003
 10
167.90380000000005
 20
-24.12787000000003
 10
167.99740000000008
 20
-23.77060500000004
 10
168.11675000000002
 20
-23.31975000000004
 10
168.15665000000007
 20
-23.16950000000003
 10
168.27705000000003
 20
-23.16950000000003
 10
168.31800000000007
 20
-23.31840000000003
 10
168.44095000000004
 20
-23.76545000000003
 10
168.53800000000007
 20
-24.12298000000003
 10
168.59040000000002
 20
-24.32263000000003
 10
168.61400000000003
 20
-24.41487000000003
 10
168.62155000000007
 20
-24.44579000000004
 10
168.62780000000004
 20
-24.41432500000003
 10
168.64845000000005
 20
-24.32019500000003
 10
168.69565000000009
 20
-24.12189500000003
 10
168.78545000000005
 20
-23.76653500000003
 10
168.90130000000002
 20
-23.31865000000003
 10
168.94005000000007
 20
-23.16950000000003
 10
169.07025000000007
 20
-23.16950000000003
 10
168.68695000000005
 20
-24.60937000000003
 10
168.55865000000003
 20
-24.60937000000003
  0
LWPOLYLINE
  5
1EB
330
27
100
AcDbEntity
  8
Planrahmen
  6
CONTINUOUS
 62
     7
370
     0
100
AcDbPolyline
 90
        5
 70
   129
 10
169.29515000000006
 20
-23.16950000000003
 10
169.42370000000005
 20
-23.16950000000003
 10
169.42370000000005
 20
-24.60937000000003
 10
169.29515000000006
 20
-24.60937000000003
 10
169.29515000000006
 20
-23.16950000000003
  0
LWPOLYLINE
  5
1EC
330
27
100
AcDbEntity
  8
Planrahmen
  6
CONTINUOUS
 62
     7
370
     0
100
AcDbPolyline
 90
       20
 70
   129
 10
170.27385000000007
 20
-23.86066500000003
 10
170.32350000000008
 20
-23.86066500000003
 10
170.47300000000004
 20
-23.84086000000003
 10
170.58990000000006
 20
-23.79149500000003
 10
170.60615000000007
 20
-23.77684500000003
 10
170.62030000000004
 20
-23.76409500000003
 10
170.66970000000009
 20
-23.68651500000003
 10
170.69025000000005
 20
-23.59374500000003
 10
170.69025000000005
 20
-23.56308500000003
 10
170.69025000000005
 20
-23.53053500000003
 10
170.66370000000009
 20
-23.43370000000003
 10
170.60045000000008
 20
-23.35070000000003
 10
170.58230000000006
 20
-23.33850000000003
 10
170.56470000000007
 20
-23.32625000000003
 10
170.45400000000004
 20
-23.29370000000003
 10
170.31890000000004
 20
-23.28560000000003
 10
170.27385000000007
 20
-23.28560000000003
 10
169.93970000000007
 20
-23.28560000000003
 10
169.93970000000007
 20
-23.86066500000003
 10
170.27385000000007
 20
-23.86066500000003
  0
LWPOLYLINE
  5
1ED
330
27
100
AcDbEntity
  8
Planrahmen
  6
CONTINUOUS
 62
     7
370
     0
100
AcDbPolyline
 90
       23
 70
   129
 10
170.71470000000005
 20
-24.60937000000003
 10
170.28420000000006
 20
-23.97704000000003
 10
169.93970000000007
 20
-23.97704000000003
 10
169.93970000000007
 20
-24.60937000000003
 10
169.81105000000008
 20
-24.60937000000003
 10
169.81105000000008
 20
-23.16950000000003
 10
170.25380000000007
 20
-23.16950000000003
 10
170.30425000000005
 20
-23.16950000000003
 10
170.45585000000008
 20
-23.17655000000003
 10
170.59775000000005
 20
-23.20530000000003
 10
170.62300000000008
 20
-23.21615000000003
 10
170.65175000000005
 20
-23.22835000000003
 10
170.76815000000005
 20
-23.34500000000003
 10
170.82640000000004
 20
-23.51128000000003
 10
170.82640000000004
 20
-23.56688000000003
 10
170.82640000000004
 20
-23.60486000000003
 10
170.79990000000006
 20
-23.71933500000003
 10
170.72195000000005
 20
-23.83815500000003
 10
170.59425000000005
 20
-23.92034500000003
 10
170.46320000000009
 20
-23.95778000000003
 10
170.41900000000004
 20
-23.96266500000003
 10
170.87365000000003
 20
-24.60937000000003
 10
170.71470000000005
 20
-24.60937000000003
  0
LWPOLYLINE
  5
1EE
330
27
100
AcDbEntity
  8
Planrahmen
  6
CONTINUOUS
 62
     7
370
     0
100
AcDbPolyline
 90
       20
 70
   129
 10
171.71865000000008
 20
-24.49299500000003
 10
172.10195000000004
 20
-24.49299500000003
 10
172.14835000000005
 20
-24.49299500000003
 10
172.28775000000007
 20
-24.47400000000003
 10
172.39870000000008
 20
-24.42870000000003
 10
172.41420000000008
 20
-24.41568000000004
 10
172.42720000000006
 20
-24.40374500000003
 10
172.47275000000005
 20
-24.32887500000004
 10
172.49175000000005
 20
-24.23773000000004
 10
172.49175000000005
 20
-24.20762000000003
 10
172.49175000000005
 20
-24.17506000000003
 10
172.46845000000005
 20
-24.07768000000003
 10
172.41470000000010
 20
-23.99196000000003
 10
172.39955000000006
 20
-23.97866500000003
 10
172.38350000000008
 20
-23.96537500000003
 10
172.27905000000004
 20
-23.91926500000003
 10
172.14315000000008
 20
-23.89946000000003
 10
172.09790000000007
 20
-23.89946000000003
 10
171.71865000000008
 20
-23.89946000000003
 10
171.71865000000008
 20
-24.49299500000003
  0
LWPOLYLINE
  5
1EF
330
27
100
AcDbEntity
  8
Planrahmen
  6
CONTINUOUS
 62
     7
370
     0
100
AcDbPolyline
 90
       20
 70
   129
 10
171.71865000000008
 20
-23.78525500000003
 10
172.08350000000004
 20
-23.78525500000003
 10
172.12255000000005
 20
-23.78525500000003
 10
172.24030000000008
 20
-23.77223500000003
 10
172.33195000000006
 20
-23.73995000000003
 10
172.34635000000009
 20
-23.73046000000003
 10
172.36260000000007
 20
-23.71961000000003
 10
172.41905000000008
 20
-23.64637000000003
 10
172.44265000000007
 20
-23.55468000000003
 10
172.44265000000007
 20
-23.52430000000003
 10
172.44265000000007
 20
-23.49662500000003
 10
172.42390000000006
 20
-23.41390000000004
 10
172.37185000000005
 20
-23.34415000000003
 10
172.35505000000006
 20
-23.33415000000003
 10
172.34175000000008
 20
-23.32600000000003
 10
172.24955000000008
 20
-23.29780000000003
 10
172.12800000000004
 20
-23.28560000000003
 10
172.08760000000007
 20
-23.28560000000003
 10
171.71865000000008
 20
-23.28560000000003
 10
171.71865000000008
 20
-23.78525500000003
  0
LWPOLYLINE
  5
1F0
330
27
100
AcDbEntity
  8
Planrahmen
  6
CONTINUOUS
 62
     7
370
     0
100
AcDbPolyline
 90
       30
 70
   129
 10
172.12040000000005
 20
-23.16950000000003
 10
172.16435000000007
 20
-23.16950000000003
 10
172.29695000000007
 20
-23.18225000000004
 10
172.41040000000007
 20
-23.21480000000003
 10
172.42830000000009
 20
-23.22455000000003
 10
172.45435000000009
 20
-23.23865000000004
 10
172.53975000000005
 20
-23.33985000000003
 10
172.57315000000006
 20
-23.46896000000003
 10
172.57315000000006
 20
-23.51209000000003
 10
172.57315000000006
 20
-23.56308500000003
 10
172.51240000000007
 20
-23.71689500000003
 10
172.36810000000008
 20
-23.82432000000003
 10
172.32630000000003
 20
-23.83625000000003
 10
172.35960000000006
 20
-23.84168000000003
 10
172.45650000000006
 20
-23.87938000000003
 10
172.55035000000007
 20
-23.95778000000003
 10
172.60705000000010
 20
-24.06710500000003
 10
172.62630000000007
 20
-24.16964000000003
 10
172.62630000000007
 20
-24.20382000000004
 10
172.62630000000007
 20
-24.24641000000003
 10
172.59865000000008
 20
-24.37499500000003
 10
172.53005000000005
 20
-24.48404000000003
 10
172.50970000000009
 20
-24.50086000000004
 10
172.48820000000009
 20
-24.51822000000004
 10
172.33765000000005
 20
-24.58088000000003
 10
172.11795000000006
 20
-24.60909000000003
 10
172.04470000000003
 20
-24.60909000000003
 10
171.59005000000005
 20
-24.60909000000003
 10
171.59005000000005
 20
-23.16950000000003
 10
172.12040000000005
 20
-23.16950000000003
  0
LWPOLYLINE
  5
1F1
330
27
100
AcDbEntity
  8
Planrahmen
  6
CONTINUOUS
 62
     7
370
     0
100
AcDbPolyline
 90
       20
 70
   129
 10
173.39510000000007
 20
-23.86066500000003
 10
173.44470000000007
 20
-23.86066500000003
 10
173.59420000000009
 20
-23.84086000000003
 10
173.71105000000009
 20
-23.79149500000003
 10
173.72740000000007
 20
-23.77684500000003
 10
173.74150000000006
 20
-23.76409500000003
 10
173.79085000000003
 20
-23.68651500000003
 10
173.81150000000005
 20
-23.59374500000003
 10
173.81150000000005
 20
-23.56308500000003
 10
173.81150000000005
 20
-23.53053500000003
 10
173.78490000000008
 20
-23.43370000000003
 10
173.72170000000008
 20
-23.35070000000003
 10
173.70350000000008
 20
-23.33850000000003
 10
173.68585000000007
 20
-23.32625000000003
 10
173.57515000000006
 20
-23.29370000000003
 10
173.44010000000003
 20
-23.28560000000003
 10
173.39510000000007
 20
-23.28560000000003
 10
173.06085000000004
 20
-23.28560000000003
 10
173.06085000000004
 20
-23.86066500000003
 10
173.39510000000007
 20
-23.86066500000003
  0
LWPOLYLINE
  5
1F2
330
27
100
AcDbEntity
  8
Planrahmen
  6
CONTINUOUS
 62
     7
370
     0
100
AcDbPolyline
 90
       23
 70
   129
 10
173.83585000000008
 20
-24.60937000000003
 10
173.40540000000004
 20
-23.97704000000003
 10
173.06085000000004
 20
-23.97704000000003
 10
173.06085000000004
 20
-24.60937000000003
 10
172.93230000000003
 20
-24.60937000000003
 10
172.93230000000003
 20
-23.16950000000003
 10
173.37505000000007
 20
-23.16950000000003
 10
173.42545000000010
 20
-23.16950000000003
 10
173.57710000000003
 20
-23.17655000000003
 10
173.71900000000005
 20
-23.20530000000003
 10
173.74420000000006
 20
-23.21615000000003
 10
173.77320000000006
 20
-23.22835000000003
 10
173.88960000000009
 20
-23.34500000000003
 10
173.94795000000008
 20
-23.51128000000003
 10
173.94795000000008
 20
-23.56688000000003
 10
173.94795000000008
 20
-23.60486000000003
 10
173.92135000000007
 20
-23.71933500000003
 10
173.84350000000003
 20
-23.83815500000003
 10
173.71570000000008
 20
-23.92034500000003
 10
173.58470000000008
 20
-23.95778000000003
 10
173.54045000000008
 20
-23.96266500000003
 10
173.99510000000006
 20
-24.60937000000003
 10
173.83585000000008
 20
-24.60937000000003
  0
LWPOLYLINE
  5
1F3
330
27
100
AcDbEntity
  8
Planrahmen
  6
CONTINUOUS
 62
     7
370
     0
100
AcDbPolyline
 90
       13
 70
   129
 10
174.26640000000003
 20
-24.60937000000003
 10
174.26640000000003
 20
-23.16950000000003
 10
175.18245000000005
 20
-23.16950000000003
 10
175.18245000000005
 20
-23.28750000000003
 10
174.39710000000008
 20
-23.28750000000003
 10
174.39710000000008
 20
-23.80804000000003
 10
175.11115000000004
 20
-23.80804000000003
 10
175.11115000000004
 20
-23.92604000000003
 10
174.39710000000008
 20
-23.92604000000003
 10
174.39710000000008
 20
-24.49136000000003
 10
175.23130000000009
 20
-24.49136000000003
 10
175.23130000000009
 20
-24.60937000000003
 10
174.26640000000003
 20
-24.60937000000003
  0
LWPOLYLINE
  5
1F4
330
27
100
AcDbEntity
  8
Planrahmen
  6
CONTINUOUS
 62
     7
370
     0
100
AcDbPolyline
 90
       31
 70
   129
 10
176.47530000000006
 20
-24.60937000000003
 10
176.37954999999999
 20
-24.46505000000003
 10
176.09280000000010
 20
-24.03211000000003
 10
175.86035000000004
 20
-23.68055000000003
 10
175.72745000000006
 20
-23.47600500000003
 10
175.66370000000003
 20
-23.37485000000003
 10
175.64335000000003
 20
-23.34090000000003
 10
175.64364999999998
 20
-23.36860000000003
 10
175.64470000000003
 20
-23.45215000000003
 10
175.64605000000006
 20
-23.65071000000003
 10
175.64685000000009
 20
-24.01122000000003
 10
175.64740000000006
 20
-24.45962500000004
 10
175.64740000000006
 20
-24.60937000000003
 10
175.52290000000008
 20
-24.60937000000003
 10
175.52290000000008
 20
-23.16950000000003
 10
175.67185000000001
 20
-23.16950000000003
 10
175.77030000000011
 20
-23.31865000000003
 10
176.06600000000000
 20
-23.76735500000003
 10
176.30010000000013
 20
-24.12353000000003
 10
176.42675000000003
 20
-24.31911000000003
 10
176.48210000000003
 20
-24.40646000000003
 10
176.50025000000008
 20
-24.43575500000003
 10
176.49920000000003
 20
-24.40157500000004
 10
176.49730000000002
 20
-24.29903500000003
 10
176.49510000000006
 20
-24.08636000000003
 10
176.49405000000002
 20
-23.73181000000004
 10
176.49380000000008
 20
-23.31000000000003
 10
176.49380000000008
 20
-23.16950000000003
 10
176.62045000000009
 20
-23.16950000000003
 10
176.62045000000009
 20
-24.60937000000003
 10
176.47530000000006
 20
-24.60937000000003
  0
LWPOLYLINE
  5
1F5
330
27
100
AcDbEntity
  8
Planrahmen
  6
CONTINUOUS
 62
     7
370
     0
100
AcDbPolyline
 90
       31
 70
   129
 10
177.96050000000014
 20
-24.60937000000003
 10
177.86475000000007
 20
-24.46505000000003
 10
177.57800000000006
 20
-24.03211000000003
 10
177.34525000000005
 20
-23.68055000000003
 10
177.21230000000003
 20
-23.47600500000003
 10
177.14855000000000
 20
-23.37485000000003
 10
177.12820000000002
 20
-23.34090000000003
 10
177.12850000000009
 20
-23.36860000000003
 10
177.12960000000004
 20
-23.45215000000003
 10
177.13100000000009
 20
-23.65071000000003
 10
177.13175000000010
 20
-24.01122000000003
 10
177.13230000000007
 20
-24.45962500000004
 10
177.13230000000007
 20
-24.60937000000003
 10
177.00810000000004
 20
-24.60937000000003
 10
177.00810000000004
 20
-23.16950000000003
 10
177.15705000000008
 20
-23.16950000000003
 10
177.25545000000002
 20
-23.31865000000003
 10
177.55115000000004
 20
-23.76735500000003
 10
177.78495000000009
 20
-24.12353000000003
 10
177.91195000000010
 20
-24.31911000000003
 10
177.96705000000006
 20
-24.40646000000003
 10
177.98515000000009
 20
-24.43575500000003
 10
177.98410000000015
 20
-24.40157500000004
 10
177.98220000000015
 20
-24.29903500000003
 10
177.98030000000014
 20
-24.08636000000003
 10
177.97920000000005
 20
-23.73181000000004
 10
177.97889999999998
 20
-23.31000000000003
 10
177.97889999999998
 20
-23.16950000000003
 10
178.10534999999999
 20
-23.16950000000003
 10
178.10534999999999
 20
-24.60937000000003
 10
177.96050000000014
 20
-24.60937000000003
  0
LWPOLYLINE
  5
1F6
330
27
100
AcDbEntity
  8
Planrahmen
  6
CONTINUOUS
 62
     7
370
     0
100
AcDbPolyline
 90
       13
 70
   129
 10
178.49355000000006
 20
-24.60937000000003
 10
178.49355000000006
 20
-23.16950000000003
 10
179.40935000000007
 20
-23.16950000000003
 10
179.40935000000007
 20
-23.28750000000003
 10
178.62405000000010
 20
-23.28750000000003
 10
178.62405000000010
 20
-23.80804000000003
 10
179.33775000000011
 20
-23.80804000000003
 10
179.33775000000011
 20
-23.92604000000003
 10
178.62405000000010
 20
-23.92604000000003
 10
178.62405000000010
 20
-24.49136000000003
 10
179.45815000000005
 20
-24.49136000000003
 10
179.45815000000005
 20
-24.60937000000003
 10
178.49355000000006
 20
-24.60937000000003
  0
LWPOLYLINE
  5
1F7
330
27
100
AcDbEntity
  8
Planrahmen
  6
CONTINUOUS
 62
     7
370
     0
100
AcDbPolyline
 90
       31
 70
   129
 10
180.70275000000007
 20
-24.60937000000003
 10
180.60694999999998
 20
-24.46505000000003
 10
180.32025000000002
 20
-24.03211000000003
 10
180.08755000000005
 20
-23.68055000000003
 10
179.95460000000003
 20
-23.47600500000003
 10
179.89085000000009
 20
-23.37485000000003
 10
179.87050000000011
 20
-23.34090000000003
 10
179.87080000000006
 20
-23.36860000000003
 10
179.87184999999999
 20
-23.45215000000003
 10
179.87320000000000
 20
-23.65071000000003
 10
179.87405000000007
 20
-24.01122000000003
 10
179.87455000000003
 20
-24.45962500000004
 10
179.87455000000003
 20
-24.60937000000003
 10
179.75030000000010
 20
-24.60937000000003
 10
179.75030000000010
 20
-23.16950000000003
 10
179.89924999999999
 20
-23.16950000000003
 10
179.99775000000000
 20
-23.31865000000003
 10
180.29345000000012
 20
-23.76735500000003
 10
180.52725000000007
 20
-24.12353000000003
 10
180.65390000000008
 20
-24.31911000000003
 10
180.70900000000006
 20
-24.40646000000003
 10
180.72720000000015
 20
-24.43575500000003
 10
180.72605000000001
 20
-24.40157500000004
 10
180.72420000000005
 20
-24.29903500000003
 10
180.72225000000003
 20
-24.08636000000003
 10
180.72120000000007
 20
-23.73181000000004
 10
180.72095000000016
 20
-23.31000000000003
 10
180.72095000000016
 20
-23.16950000000003
 10
180.84760000000006
 20
-23.16950000000003
 10
180.84760000000006
 20
-24.60937000000003
 10
180.70275000000007
 20
-24.60937000000003
  0
LWPOLYLINE
  5
1F8
330
27
100
AcDbEntity
  8
Planrahmen
  6
CONTINUOUS
 62
     7
370
     0
100
AcDbPolyline
 90
       11
 70
   129
 10
181.68010000000007
 20
-24.60937000000003
 10
181.68010000000007
 20
-23.16950000000003
 10
182.59595000000002
 20
-23.16950000000003
 10
182.59595000000002
 20
-23.28750000000003
 10
181.81060000000011
 20
-23.28750000000003
 10
181.81060000000011
 20
-23.78715500000003
 10
182.51615000000004
 20
-23.78715500000003
 10
182.51615000000004
 20
-23.90759500000003
 10
181.81060000000011
 20
-23.90759500000003
 10
181.81060000000011
 20
-24.60937000000003
 10
181.68010000000007
 20
-24.60937000000003
  0
LWPOLYLINE
  5
1F9
330
27
100
AcDbEntity
  8
Planrahmen
  6
CONTINUOUS
 62
     7
370
     0
100
AcDbPolyline
 90
        5
 70
   129
 10
183.59935000000010
 20
-22.86975000000003
 10
183.71760000000009
 20
-22.86975000000003
 10
183.71760000000009
 20
-23.03735000000003
 10
183.59935000000010
 20
-23.03735000000003
 10
183.59935000000010
 20
-22.86975000000003
  0
LWPOLYLINE
  5
1FA
330
27
100
AcDbEntity
  8
Planrahmen
  6
CONTINUOUS
 62
     7
370
     0
100
AcDbPolyline
 90
        5
 70
   129
 10
183.11760000000004
 20
-22.86975000000003
 10
183.23800000000006
 20
-22.86975000000003
 10
183.23800000000006
 20
-23.03735000000003
 10
183.11760000000004
 20
-23.03735000000003
 10
183.11760000000004
 20
-22.86975000000003
  0
LWPOLYLINE
  5
1FB
330
27
100
AcDbEntity
  8
Planrahmen
  6
CONTINUOUS
 62
     7
370
     0
100
AcDbPolyline
 90
       39
 70
   129
 10
183.94225000000003
 20
-23.97107000000003
 10
183.94225000000003
 20
-24.04350000000003
 10
183.92435000000000
 20
-24.26159500000003
 10
183.87170000000003
 20
-24.41812000000004
 10
183.85434999999998
 20
-24.44443500000003
 10
183.83290000000002
 20
-24.47590500000003
 10
183.67720000000014
 20
-24.58739000000004
 10
183.47650000000010
 20
-24.63595000000003
 10
183.40975000000009
 20
-24.63595000000003
 10
183.34379999999999
 20
-24.63595000000003
 10
183.14660000000009
 20
-24.58441000000003
 10
182.99195000000006
 20
-24.46939000000004
 10
182.97135000000003
 20
-24.43765500000003
 10
182.95240000000007
 20
-24.40916500000003
 10
182.90105000000005
 20
-24.24342500000003
 10
182.88755000000006
 20
-24.04323000000003
 10
182.88755000000006
 20
-23.97677000000003
 10
182.88755000000006
 20
-23.16950000000003
 10
183.01615000000010
 20
-23.16950000000003
 10
183.01615000000010
 20
-24.05462500000003
 10
183.01615000000010
 20
-24.09693500000003
 10
183.03050000000005
 20
-24.22389500000004
 10
183.07065000000006
 20
-24.34379000000003
 10
183.08335000000014
 20
-24.36495000000003
 10
183.09855000000013
 20
-24.38991000000004
 10
183.21550000000013
 20
-24.47970000000003
 10
183.36440000000005
 20
-24.51957500000003
 10
183.41405000000006
 20
-24.51957500000003
 10
183.46230000000014
 20
-24.51957500000003
 10
183.60775000000012
 20
-24.48594000000003
 10
183.72740000000016
 20
-24.40075500000003
 10
183.74635000000001
 20
-24.37499500000003
 10
183.76100000000000
 20
-24.35464500000004
 10
183.80224999999999
 20
-24.22932000000003
 10
183.81390000000002
 20
-24.09341500000003
 10
183.81390000000002
 20
-24.04838000000003
 10
183.81390000000002
 20
-23.16950000000003
 10
183.94225000000003
 20
-23.16950000000003
 10
183.94225000000003
 20
-23.97107000000003
  0
LWPOLYLINE
  5
1FC
330
27
100
AcDbEntity
  8
Planrahmen
  6
CONTINUOUS
 62
     7
370
     0
100
AcDbPolyline
 90
       20
 70
   129
 10
184.79315000000011
 20
-23.86066500000003
 10
184.84280000000012
 20
-23.86066500000003
 10
184.99175000000017
 20
-23.84086000000003
 10
185.10890000000006
 20
-23.79149500000003
 10
185.12549999999999
 20
-23.77684500000003
 10
185.13960000000000
 20
-23.76409500000003
 10
185.18844999999999
 20
-23.68651500000003
 10
185.20935000000011
 20
-23.59374500000003
 10
185.20935000000011
 20
-23.56308500000003
 10
185.20935000000011
 20
-23.53053500000003
 10
185.18275000000000
 20
-23.43370000000003
 10
185.11925000000002
 20
-23.35070000000003
 10
185.10079999999999
 20
-23.33850000000003
 10
185.08345000000008
 20
-23.32625000000003
 10
184.97275000000008
 20
-23.29370000000003
 10
184.83795000000009
 20
-23.28560000000003
 10
184.79315000000011
 20
-23.28560000000003
 10
184.45815000000016
 20
-23.28560000000003
 10
184.45815000000016
 20
-23.86066500000003
 10
184.79315000000011
 20
-23.86066500000003
  0
LWPOLYLINE
  5
1FD
330
27
100
AcDbEntity
  8
Planrahmen
  6
CONTINUOUS
 62
     7
370
     0
100
AcDbPolyline
 90
       23
 70
   129
 10
185.23315000000011
 20
-24.60937000000003
 10
184.80295000000007
 20
-23.97704000000003
 10
184.45815000000016
 20
-23.97704000000003
 10
184.45815000000016
 20
-24.60937000000003
 10
184.33010000000010
 20
-24.60937000000003
 10
184.33010000000010
 20
-23.16950000000003
 10
184.77280000000013
 20
-23.16950000000003
 10
184.82330000000007
 20
-23.16950000000003
 10
184.97470000000010
 20
-23.17655000000003
 10
185.11655000000010
 20
-23.20530000000003
 10
185.14175000000006
 20
-23.21615000000003
 10
185.17080000000001
 20
-23.22835000000003
 10
185.28720000000004
 20
-23.34500000000003
 10
185.34569999999999
 20
-23.51128000000003
 10
185.34569999999999
 20
-23.56688000000003
 10
185.34569999999999
 20
-23.60486000000003
 10
185.31920000000008
 20
-23.71933500000003
 10
185.24105000000006
 20
-23.83815500000003
 10
185.11300000000003
 20
-23.92034500000003
 10
184.98195000000001
 20
-23.95778000000003
 10
184.93775000000005
 20
-23.96266500000003
 10
185.39240000000007
 20
-24.60937000000003
 10
185.23315000000011
 20
-24.60937000000003
  0
LWPOLYLINE
  5
1FE
330
27
100
AcDbEntity
  8
Planrahmen
  6
CONTINUOUS
 62
     7
370
     0
100
AcDbPolyline
 90
       25
 70
   129
 10
186.66140000000013
 20
-23.25900000000003
 10
186.61120000000014
 20
-23.25900000000003
 10
186.46120000000005
 20
-23.30160000000003
 10
186.30980000000002
 20
-23.42390000000003
 10
186.21380000000013
 20
-23.61598500000003
 10
186.18045000000009
 20
-23.80559500000003
 10
186.18045000000009
 20
-23.86880500000003
 10
186.18045000000009
 20
-23.93607500000003
 10
186.21460000000016
 20
-24.13871500000003
 10
186.31280000000001
 20
-24.34298000000003
 10
186.46745000000004
 20
-24.47237500000003
 10
186.62045000000009
 20
-24.51767500000003
 10
186.67140000000009
 20
-24.51767500000003
 10
186.71920000000014
 20
-24.51767500000003
 10
186.86265000000006
 20
-24.47482000000004
 10
187.00865000000005
 20
-24.35220000000003
 10
187.10195000000013
 20
-24.15689000000004
 10
187.13475000000008
 20
-23.96212000000003
 10
187.13475000000008
 20
-23.89728500000003
 10
187.13475000000008
 20
-23.82974500000004
 10
187.10170000000008
 20
-23.62791500000003
 10
187.00755000000007
 20
-23.42745000000003
 10
186.85835000000000
 20
-23.30210000000004
 10
186.71050000000017
 20
-23.25900000000003
 10
186.66140000000013
 20
-23.25900000000003
  0
LWPOLYLINE
  5
1FF
330
27
100
AcDbEntity
  8
Planrahmen
  6
CONTINUOUS
 62
     7
370
     0
100
AcDbPolyline
 90
       30
 70
   129
 10
187.38165000000001
 20
-24.70512500000003
 10
187.29615000000004
 20
-24.79084000000004
 10
186.99400000000006
 20
-24.54019500000004
 10
186.97280000000009
 20
-24.55538000000003
 10
186.84775000000002
 20
-24.61072000000003
 10
186.71105000000014
 20
-24.63568000000003
 10
186.66570000000010
 20
-24.63568000000003
 10
186.59925000000015
 20
-24.63568000000003
 10
186.40045000000009
 20
-24.57980000000003
 10
186.20510000000007
 20
-24.42355000000003
 10
186.08470000000005
 20
-24.18320000000004
 10
186.04345000000006
 20
-23.95208500000003
 10
186.04345000000006
 20
-23.87531000000003
 10
186.04345000000006
 20
-23.79909000000003
 10
186.08635000000001
 20
-23.57122000000003
 10
186.20975000000013
 20
-23.34065000000003
 10
186.40559999999999
 20
-23.19415000000003
 10
186.60065000000009
 20
-23.14290000000003
 10
186.66570000000010
 20
-23.14290000000003
 10
186.73355000000006
 20
-23.14290000000003
 10
186.93780000000010
 20
-23.20310000000003
 10
187.12690000000015
 20
-23.36670000000003
 10
187.23730000000009
 20
-23.60730500000003
 10
187.27335000000005
 20
-23.82621500000003
 10
187.27335000000005
 20
-23.89919000000004
 10
187.27335000000005
 20
-23.97812500000003
 10
187.22650000000013
 20
-24.21521500000003
 10
187.11470000000014
 20
-24.42463000000003
 10
187.08210000000008
 20
-24.46043500000003
 10
187.38165000000001
 20
-24.70512500000003
  0
LWPOLYLINE
  5
200
330
27
100
AcDbEntity
  8
Planrahmen
  6
CONTINUOUS
 62
     7
370
     0
100
AcDbPolyline
 90
       39
 70
   129
 10
188.65685000000005
 20
-23.97080000000004
 10
188.65685000000005
 20
-24.04350000000003
 10
188.63890000000009
 20
-24.26159500000003
 10
188.58635000000007
 20
-24.41812000000004
 10
188.56920000000005
 20
-24.44416000000003
 10
188.54780000000011
 20
-24.47563000000003
 10
188.39210000000011
 20
-24.58739000000004
 10
188.19135000000003
 20
-24.63595000000003
 10
188.12460000000002
 20
-24.63595000000003
 10
188.05870000000007
 20
-24.63595000000003
 10
187.86150000000006
 20
-24.58414000000003
 10
187.70660000000001
 20
-24.46939000000004
 10
187.68600000000006
 20
-24.43792500000003
 10
187.66695000000004
 20
-24.40916500000003
 10
187.61570000000012
 20
-24.24342500000003
 10
187.60245000000015
 20
-24.04377000000003
 10
187.60245000000015
 20
-23.97731500000003
 10
187.60245000000015
 20
-23.16920000000004
 10
187.73045000000005
 20
-23.16920000000004
 10
187.73045000000005
 20
-24.05489500000003
 10
187.73045000000005
 20
-24.09721500000003
 10
187.74510000000004
 20
-24.22416500000004
 10
187.78550000000010
 20
-24.34379000000003
 10
187.79830000000001
 20
-24.36495000000003
 10
187.81350000000000
 20
-24.38964000000003
 10
187.93010000000015
 20
-24.47943000000003
 10
188.07905000000008
 20
-24.51957500000003
 10
188.12870000000009
 20
-24.51957500000003
 10
188.17695000000006
 20
-24.51957500000003
 10
188.32210000000009
 20
-24.48594000000003
 10
188.44225000000009
 20
-24.40048500000004
 10
188.46130000000011
 20
-24.37471500000003
 10
188.47595000000010
 20
-24.35437500000003
 10
188.51690000000016
 20
-24.22905000000003
 10
188.52855000000008
 20
-24.09314500000003
 10
188.52855000000008
 20
-24.04811000000003
 10
188.52855000000008
 20
-23.16920000000004
 10
188.65685000000005
 20
-23.16920000000004
 10
188.65685000000005
 20
-23.97080000000004
  0
LWPOLYLINE
  5
201
330
27
100
AcDbEntity
  8
Planrahmen
  6
CONTINUOUS
 62
     7
370
     0
100
AcDbPolyline
 90
       14
 70
   129
 10
189.78670000000014
 20
-24.07687000000004
 10
189.75710000000007
 20
-23.99739000000003
 10
189.66890000000009
 20
-23.75948500000003
 10
189.59160000000014
 20
-23.55088000000003
 10
189.54140000000012
 20
-23.41335000000003
 10
189.51380000000000
 20
-23.33550000000003
 10
189.50510000000003
 20
-23.30970000000003
 10
189.49615000000003
 20
-23.33550000000003
 10
189.46850000000009
 20
-23.41255000000003
 10
189.41745000000003
 20
-23.55115500000003
 10
189.33880000000008
 20
-23.76084000000003
 10
189.24925000000007
 20
-23.99793000000004
 10
189.21945000000011
 20
-24.07687000000004
 10
189.78670000000014
 20
-24.07687000000004
  0
LWPOLYLINE
  5
202
330
27
100
AcDbEntity
  8
Planrahmen
  6
CONTINUOUS
 62
     7
370
     0
100
AcDbPolyline
 90
        9
 70
   129
 10
189.97870000000012
 20
-24.60909000000003
 10
189.82765000000006
 20
-24.18917500000003
 10
189.17685000000012
 20
-24.18917500000003
 10
189.02410000000009
 20
-24.60909000000003
 10
188.88095000000010
 20
-24.60909000000003
 10
189.44220000000016
 20
-23.16950000000003
 10
189.57670000000010
 20
-23.16950000000003
 10
190.12140000000016
 20
-24.60909000000003
 10
189.97870000000012
 20
-24.60909000000003
  0
LWPOLYLINE
  5
203
330
27
100
AcDbEntity
  8
Planrahmen
  6
CONTINUOUS
 62
     7
370
     0
100
AcDbPolyline
 90
        7
 70
   129
 10
190.34600000000006
 20
-24.60937000000003
 10
190.34600000000006
 20
-23.16950000000003
 10
190.47405000000012
 20
-23.16950000000003
 10
190.47405000000012
 20
-24.49136000000003
 10
191.24120000000005
 20
-24.49136000000003
 10
191.24120000000005
 20
-24.60937000000003
 10
190.34600000000006
 20
-24.60937000000003
  0
LWPOLYLINE
  5
204
330
27
100
AcDbEntity
  8
Planrahmen
  6
CONTINUOUS
 62
     7
370
     0
100
AcDbPolyline
 90
        5
 70
   129
 10
191.52280000000016
 20
-23.16950000000003
 10
191.65105000000008
 20
-23.16950000000003
 10
191.65105000000008
 20
-24.60937000000003
 10
191.52280000000016
 20
-24.60937000000003
 10
191.52280000000016
 20
-23.16950000000003
  0
LWPOLYLINE
  5
205
330
27
100
AcDbEntity
  8
Planrahmen
  6
CONTINUOUS
 62
     7
370
     0
100
AcDbPolyline
 90
        9
 70
   129
 10
192.36940000000007
 20
-24.60937000000003
 10
192.36940000000007
 20
-23.28750000000003
 10
191.92915000000016
 20
-23.28750000000003
 10
191.92915000000016
 20
-23.16950000000003
 10
192.94475000000006
 20
-23.16950000000003
 10
192.94475000000006
 20
-23.28750000000003
 10
192.50205000000003
 20
-23.28750000000003
 10
192.50205000000003
 20
-24.60937000000003
 10
192.36940000000007
 20
-24.60937000000003
  0
LWPOLYLINE
  5
206
330
27
100
AcDbEntity
  8
Planrahmen
  6
CONTINUOUS
 62
     7
370
     0
100
AcDbPolyline
 90
        5
 70
   129
 10
193.86630000000011
 20
-22.86975000000003
 10
193.98425000000015
 20
-22.86975000000003
 10
193.98425000000015
 20
-23.03735000000003
 10
193.86630000000011
 20
-23.03735000000003
 10
193.86630000000011
 20
-22.86975000000003
  0
LWPOLYLINE
  5
207
330
27
100
AcDbEntity
  8
Planrahmen
  6
CONTINUOUS
 62
     7
370
     0
100
AcDbPolyline
 90
       14
 70
   129
 10
193.96635000000012
 20
-24.07714000000003
 10
193.93705000000011
 20
-23.99766000000003
 10
193.84865000000002
 20
-23.75948500000003
 10
193.77135000000007
 20
-23.55088000000003
 10
193.72115000000016
 20
-23.41360000000003
 10
193.69350000000011
 20
-23.33575000000003
 10
193.68480000000017
 20
-23.31000000000003
 10
193.67585000000014
 20
-23.33575000000003
 10
193.64815000000007
 20
-23.41280000000003
 10
193.59720000000007
 20
-23.55142500000003
 10
193.51850000000010
 20
-23.76111000000003
 10
193.42900000000000
 20
-23.99820000000003
 10
193.39910000000009
 20
-24.07714000000003
 10
193.96635000000012
 20
-24.07714000000003
  0
LWPOLYLINE
  5
208
330
27
100
AcDbEntity
  8
Planrahmen
  6
CONTINUOUS
 62
     7
370
     0
100
AcDbPolyline
 90
        5
 70
   129
 10
193.38505000000012
 20
-22.86975000000003
 10
193.50545000000014
 20
-22.86975000000003
 10
193.50545000000014
 20
-23.03735000000003
 10
193.38505000000012
 20
-23.03735000000003
 10
193.38505000000012
 20
-22.86975000000003
  0
LWPOLYLINE
  5
209
330
27
100
AcDbEntity
  8
Planrahmen
  6
CONTINUOUS
 62
     7
370
     0
100
AcDbPolyline
 90
        9
 70
   129
 10
194.15870000000018
 20
-24.60909000000003
 10
194.00730000000016
 20
-24.18917500000003
 10
193.35655000000000
 20
-24.18917500000003
 10
193.20385000000013
 20
-24.60909000000003
 10
193.06060000000008
 20
-24.60909000000003
 10
193.62185000000014
 20
-23.16950000000003
 10
193.75640000000010
 20
-23.16950000000003
 10
194.30085000000003
 20
-24.60909000000003
 10
194.15870000000018
 20
-24.60909000000003
  0
LWPOLYLINE
  5
20A
330
27
100
AcDbEntity
  8
Planrahmen
  6
CONTINUOUS
 62
     7
370
     0
100
AcDbPolyline
 90
        9
 70
   129
 10
194.85585000000012
 20
-24.60937000000003
 10
194.85585000000012
 20
-23.28750000000003
 10
194.41585000000012
 20
-23.28750000000003
 10
194.41585000000012
 20
-23.16950000000003
 10
195.43150000000014
 20
-23.16950000000003
 10
195.43150000000014
 20
-23.28750000000003
 10
194.98880000000011
 20
-23.28750000000003
 10
194.98880000000011
 20
-24.60937000000003
 10
194.85585000000012
 20
-24.60937000000003
  0
LWPOLYLINE
  5
20B
330
27
100
AcDbEntity
  8
Planrahmen
  6
CONTINUOUS
 62
    20
370
     0
100
AcDbPolyline
 90
       21
 70
   129
 10
149.30544500000002
 20
-10.00000000000002
 10
149.30544500000002
 20
-16.01565000000002
 10
152.74295000000004
 20
-16.01565000000002
 10
152.74295000000004
 20
-13.43725000000002
 10
156.18045000000004
 20
-13.43725000000002
 10
156.18045000000004
 20
-21.17215000000003
 10
152.74295000000004
 20
-21.17215000000003
 10
152.74295000000004
 20
-18.59405000000003
 10
149.30544500000002
 20
-18.59405000000003
 10
149.30544500000002
 20
-24.60937000000003
 10
163.91480000000001
 20
-24.60937000000003
 10
163.91480000000001
 20
-18.59405000000003
 10
160.47760000000005
 20
-18.59405000000003
 10
160.47760000000005
 20
-21.17215000000003
 10
157.03955000000002
 20
-21.17215000000003
 10
157.03955000000002
 20
-13.43725000000002
 10
160.47760000000005
 20
-13.43725000000002
 10
160.47760000000005
 20
-16.01565000000002
 10
163.91480000000001
 20
-16.01565000000002
 10
163.91480000000001
 20
-10.00000000000002
 10
149.30544500000002
 20
-10.00000000000002
  0
ENDBLK
  5
20C
330
27
100
AcDbEntity
  8
0
100
AcDbBlockEnd
  0
BLOCK
  5
20D
330
28
100
AcDbEntity
  8
0
100
AcDbBlockBegin
  2
*U15
 70
     1
 10
0.00000000000000
 20
0.00000000000000
 30
0.00000000000000
  3
*U15
  1

  0
MTEXT
  5
20E
330
28
100
AcDbEntity
  8
Planrahmen
 62
     7
370
    25
100
AcDbMText
 10
165.00000000000037
 20
-79.99999999999967
 30
0.00000000000000
 40
2.50000000000000
 41
0.00000000000000
 71
     7
 72
     1
  1
\fArial|b0|i0;Stand:\PMassstab:
 11
1.00000000000000
 21
0.00000000000000
 31
0.00000000000000
 73
     1
 44
1.00000000000000
  0
MTEXT
  5
20F
330
28
100
AcDbEntity
  8
Planrahmen
 62
     7
370
    25
100
AcDbMText
 10
200.00000000000028
 20
-79.99999999999977
 30
0.00000000000000
 40
2.50000000000000
 41
0.00000000000000
 71
     9
 72
     1
  1
\fArial|b0|i0;02/2021\P1:10
 11
1.00000000000000
 21
0.00000000000000
 31
0.00000000000000
 73
     1
 44
1.00000000000000
  0
ENDBLK
  5
210
330
28
100
AcDbEntity
  8
0
100
AcDbBlockEnd
  0
ENDSEC
  0
SECTION
  2
ENTITIES
  0
HATCH
  5
211
330
2A
100
AcDbEntity
  8
Details 10
 62
   254
100
AcDbHatch
 10
0.00000000000000
 20
0.00000000000000
 30
0.00000000000000
210
0.00000000000000
220
0.00000000000000
230
1.00000000000000
  2
SOLID
 70
     1
 71
     0
 91
        1
 92
        0
 93
       60
 72
     1
 10
169.95000000000010
 20
-148.99999999999940
 11
169.95000000000010
 21
-151.99999999999991
 72
     1
 10
169.95000000000010
 20
-151.99999999999991
 11
172.00000000000037
 21
-151.99999999999991
 72
     1
 10
172.00000000000037
 20
-151.99999999999991
 11
172.00000000000020
 21
-133.99999999999994
 72
     1
 10
172.00000000000020
 20
-133.99999999999994
 11
169.95000000000007
 21
-133.99999999999994
 72
     1
 10
169.95000000000007
 20
-133.99999999999994
 11
169.95000000000002
 21
-136.99999999999983
 72
     1
 10
169.95000000000002
 20
-136.99999999999983
 11
163.64999999999998
 21
-136.99999999999991
 72
     1
 10
163.64999999999998
 20
-136.99999999999991
 11
163.64999999999998
 21
-133.99999999999986
 72
     1
 10
163.64999999999998
 20
-133.99999999999986
 11
150.39999999999998
 21
-133.99999999999989
 72
     1
 10
150.39999999999998
 20
-133.99999999999989
 11
150.40000000000001
 21
-136.99999999999991
 72
     1
 10
150.40000000000001
 20
-136.99999999999991
 11
146.39999999999995
 21
-136.99999999999991
 72
     1
 10
146.39999999999995
 20
-136.99999999999991
 11
146.40000000000006
 21
-133.99999999999994
 72
     1
 10
146.40000000000006
 20
-133.99999999999994
 11
133.15000000000006
 21
-133.99999999999994
 72
     1
 10
133.15000000000006
 20
-133.99999999999994
 11
133.15000000000006
 21
-136.99999999999986
 72
     1
 10
133.15000000000006
 20
-136.99999999999986
 11
126.84999999999999
 21
-136.99999999999991
 72
     1
 10
126.84999999999999
 20
-136.99999999999991
 11
126.84999999999999
 21
-133.99999999999986
 72
     1
 10
126.84999999999999
 20
-133.99999999999986
 11
113.59999999999995
 21
-133.99999999999989
 72
     1
 10
113.59999999999995
 20
-133.99999999999989
 11
113.59999999999998
 21
-136.99999999999991
 72
     1
 10
113.59999999999998
 20
-136.99999999999991
 11
109.59999999999995
 21
-136.99999999999991
 72
     1
 10
109.59999999999995
 20
-136.99999999999991
 11
109.60000000000002
 21
-133.99999999999994
 72
     1
 10
109.60000000000002
 20
-133.99999999999994
 11
96.35000000000007
 21
-133.99999999999994
 72
     1
 10
96.35000000000007
 20
-133.99999999999994
 11
96.34999999999995
 21
-136.99999999999983
 72
     1
 10
96.34999999999995
 20
-136.99999999999983
 11
90.04999999999997
 21
-136.99999999999991
 72
     1
 10
90.04999999999997
 20
-136.99999999999991
 11
90.04999999999997
 21
-133.99999999999986
 72
     1
 10
90.04999999999997
 20
-133.99999999999986
 11
76.79999999999996
 21
-133.99999999999989
 72
     1
 10
76.79999999999996
 20
-133.99999999999989
 11
76.79999999999997
 21
-136.99999999999991
 72
     1
 10
76.79999999999997
 20
-136.99999999999991
 11
72.79999999999994
 21
-136.99999999999991
 72
     1
 10
72.79999999999994
 20
-136.99999999999991
 11
72.80000000000003
 21
-133.99999999999994
 72
     1
 10
72.80000000000003
 20
-133.99999999999994
 11
59.55000000000005
 21
-133.99999999999994
 72
     1
 10
59.55000000000005
 20
-133.99999999999994
 11
59.54999999999997
 21
-136.99999999999983
 72
     1
 10
59.54999999999997
 20
-136.99999999999983
 11
53.25000000000007
 21
-136.99999999999991
 72
     1
 10
53.25000000000007
 20
-136.99999999999991
 11
53.25000000000006
 21
-133.99999999999986
 72
     1
 10
53.25000000000006
 20
-133.99999999999986
 11
49.99999999999993
 21
-133.99999999999983
 72
     1
 10
49.99999999999993
 20
-133.99999999999983
 11
49.99999999999993
 21
-151.99999999999991
 72
     1
 10
49.99999999999993
 20
-151.99999999999991
 11
53.25000000000007
 21
-151.99999999999991
 72
     1
 10
53.25000000000007
 20
-151.99999999999991
 11
53.25000000000009
 21
-148.99999999999949
 72
     1
 10
53.25000000000009
 20
-148.99999999999949
 11
59.55000000000005
 21
-148.99999999999949
 72
     1
 10
59.55000000000005
 20
-148.99999999999949
 11
59.55000000000005
 21
-151.99999999999991
 72
     1
 10
59.55000000000005
 20
-151.99999999999991
 11
72.79999999999994
 21
-151.99999999999991
 72
     1
 10
72.79999999999994
 20
-151.99999999999991
 11
72.79999999999996
 21
-148.99999999999986
 72
     1
 10
72.79999999999996
 20
-148.99999999999986
 11
76.79999999999997
 21
-148.99999999999986
 72
     1
 10
76.79999999999997
 20
-148.99999999999986
 11
76.79999999999997
 21
-151.99999999999989
 72
     1
 10
76.79999999999997
 20
-151.99999999999989
 11
90.04999999999996
 21
-151.99999999999989
 72
     1
 10
90.04999999999996
 20
-151.99999999999989
 11
90.04999999999997
 21
-148.99999999999943
 72
     1
 10
90.04999999999997
 20
-148.99999999999943
 11
96.35000000000005
 21
-148.99999999999943
 72
     1
 10
96.35000000000005
 20
-148.99999999999943
 11
96.35000000000005
 21
-151.99999999999991
 72
     1
 10
96.35000000000005
 20
-151.99999999999991
 11
109.59999999999995
 21
-151.99999999999991
 72
     1
 10
109.59999999999995
 20
-151.99999999999991
 11
109.59999999999995
 21
-148.99999999999986
 72
     1
 10
109.59999999999995
 20
-148.99999999999986
 11
113.59999999999998
 21
-148.99999999999986
 72
     1
 10
113.59999999999998
 20
-148.99999999999986
 11
113.59999999999995
 21
-151.99999999999989
 72
     1
 10
113.59999999999995
 20
-151.99999999999989
 11
126.84999999999999
 21
-151.99999999999989
 72
     1
 10
126.84999999999999
 20
-151.99999999999989
 11
126.84999999999999
 21
-148.99999999999949
 72
     1
 10
126.84999999999999
 20
-148.99999999999949
 11
133.15000000000006
 21
-148.99999999999949
 72
     1
 10
133.15000000000006
 20
-148.99999999999949
 11
133.15000000000003
 21
-151.99999999999991
 72
     1
 10
133.15000000000003
 20
-151.99999999999991
 11
146.39999999999995
 21
-151.99999999999991
 72
     1
 10
146.39999999999995
 20
-151.99999999999991
 11
146.39999999999995
 21
-148.99999999999986
 72
     1
 10
146.39999999999995
 20
-148.99999999999986
 11
150.39999999999998
 21
-148.99999999999986
 72
     1
 10
150.39999999999998
 20
-148.99999999999986
 11
150.39999999999998
 21
-151.99999999999989
 72
     1
 10
150.39999999999998
 20
-151.99999999999989
 11
163.64999999999998
 21
-151.99999999999989
 72
     1
 10
163.64999999999998
 20
-151.99999999999989
 11
163.64999999999998
 21
-148.99999999999949
 72
     1
 10
163.64999999999998
 20
-148.99999999999949
 11
169.95000000000010
 21
-148.99999999999940
 97
        0
 75
     0
 76
     0
 98
        1
 10
0.00000000000000
 20
0.00000000000000
  0
HATCH
  5
212
330
2A
100
AcDbEntity
  8
Details 10
 62
     7
370
     9
100
AcDbHatch
 10
0.00000000000000
 20
0.00000000000000
 30
0.00000000000000
210
0.00000000000000
220
0.00000000000000
230
1.00000000000000
  2
SCHRAFFUR
 70
     0
 71
     0
 91
        1
 92
        0
 93
       60
 72
     1
 10
169.95000000000010
 20
-148.99999999999940
 11
169.95000000000010
 21
-151.99999999999991
 72
     1
 10
169.95000000000010
 20
-151.99999999999991
 11
172.00000000000037
 21
-151.99999999999991
 72
     1
 10
172.00000000000037
 20
-151.99999999999991
 11
172.00000000000020
 21
-133.99999999999994
 72
     1
 10
172.00000000000020
 20
-133.99999999999994
 11
169.95000000000007
 21
-133.99999999999994
 72
     1
 10
169.95000000000007
 20
-133.99999999999994
 11
169.95000000000002
 21
-136.99999999999983
 72
     1
 10
169.95000000000002
 20
-136.99999999999983
 11
163.64999999999998
 21
-136.99999999999991
 72
     1
 10
163.64999999999998
 20
-136.99999999999991
 11
163.64999999999998
 21
-133.99999999999986
 72
     1
 10
163.64999999999998
 20
-133.99999999999986
 11
150.39999999999998
 21
-133.99999999999989
 72
     1
 10
150.39999999999998
 20
-133.99999999999989
 11
150.40000000000001
 21
-136.99999999999991
 72
     1
 10
150.40000000000001
 20
-136.99999999999991
 11
146.39999999999995
 21
-136.99999999999991
 72
     1
 10
146.39999999999995
 20
-136.99999999999991
 11
146.40000000000006
 21
-133.99999999999994
 72
     1
 10
146.40000000000006
 20
-133.99999999999994
 11
133.15000000000006
 21
-133.99999999999994
 72
     1
 10
133.15000000000006
 20
-133.99999999999994
 11
133.15000000000006
 21
-136.99999999999986
 72
     1
 10
133.15000000000006
 20
-136.99999999999986
 11
126.84999999999999
 21
-136.99999999999991
 72
     1
 10
126.84999999999999
 20
-136.99999999999991
 11
126.84999999999999
 21
-133.99999999999986
 72
     1
 10
126.84999999999999
 20
-133.99999999999986
 11
113.59999999999995
 21
-133.99999999999989
 72
     1
 10
113.59999999999995
 20
-133.99999999999989
 11
113.59999999999998
 21
-136.99999999999991
 72
     1
 10
113.59999999999998
 20
-136.99999999999991
 11
109.59999999999995
 21
-136.99999999999991
 72
     1
 10
109.59999999999995
 20
-136.99999999999991
 11
109.60000000000002
 21
-133.99999999999994
 72
     1
 10
109.60000000000002
 20
-133.99999999999994
 11
96.35000000000007
 21
-133.99999999999994
 72
     1
 10
96.35000000000007
 20
-133.99999999999994
 11
96.34999999999995
 21
-136.99999999999983
 72
     1
 10
96.34999999999995
 20
-136.99999999999983
 11
90.04999999999997
 21
-136.99999999999991
 72
     1
 10
90.04999999999997
 20
-136.99999999999991
 11
90.04999999999997
 21
-133.99999999999986
 72
     1
 10
90.04999999999997
 20
-133.99999999999986
 11
76.79999999999996
 21
-133.99999999999989
 72
     1
 10
76.79999999999996
 20
-133.99999999999989
 11
76.79999999999997
 21
-136.99999999999991
 72
     1
 10
76.79999999999997
 20
-136.99999999999991
 11
72.79999999999994
 21
-136.99999999999991
 72
     1
 10
72.79999999999994
 20
-136.99999999999991
 11
72.80000000000003
 21
-133.99999999999994
 72
     1
 10
72.80000000000003
 20
-133.99999999999994
 11
59.55000000000005
 21
-133.99999999999994
 72
     1
 10
59.55000000000005
 20
-133.99999999999994
 11
59.54999999999997
 21
-136.99999999999983
 72
     1
 10
59.54999999999997
 20
-136.99999999999983
 11
53.25000000000007
 21
-136.99999999999991
 72
     1
 10
53.25000000000007
 20
-136.99999999999991
 11
53.25000000000006
 21
-133.99999999999986
 72
     1
 10
53.25000000000006
 20
-133.99999999999986
 11
49.99999999999993
 21
-133.99999999999983
 72
     1
 10
49.99999999999993
 20
-133.99999999999983
 11
49.99999999999993
 21
-151.99999999999991
 72
     1
 10
49.99999999999993
 20
-151.99999999999991
 11
53.25000000000007
 21
-151.99999999999991
 72
     1
 10
53.25000000000007
 20
-151.99999999999991
 11
53.25000000000009
 21
-148.99999999999949
 72
     1
 10
53.25000000000009
 20
-148.99999999999949
 11
59.55000000000005
 21
-148.99999999999949
 72
     1
 10
59.55000000000005
 20
-148.99999999999949
 11
59.55000000000005
 21
-151.99999999999991
 72
     1
 10
59.55000000000005
 20
-151.99999999999991
 11
72.79999999999994
 21
-151.99999999999991
 72
     1
 10
72.79999999999994
 20
-151.99999999999991
 11
72.79999999999996
 21
-148.99999999999986
 72
     1
 10
72.79999999999996
 20
-148.99999999999986
 11
76.79999999999997
 21
-148.99999999999986
 72
     1
 10
76.79999999999997
 20
-148.99999999999986
 11
76.79999999999997
 21
-151.99999999999989
 72
     1
 10
76.79999999999997
 20
-151.99999999999989
 11
90.04999999999996
 21
-151.99999999999989
 72
     1
 10
90.04999999999996
 20
-151.99999999999989
 11
90.04999999999997
 21
-148.99999999999943
 72
     1
 10
90.04999999999997
 20
-148.99999999999943
 11
96.35000000000005
 21
-148.99999999999943
 72
     1
 10
96.35000000000005
 20
-148.99999999999943
 11
96.35000000000005
 21
-151.99999999999991
 72
     1
 10
96.35000000000005
 20
-151.99999999999991
 11
109.59999999999995
 21
-151.99999999999991
 72
     1
 10
109.59999999999995
 20
-151.99999999999991
 11
109.59999999999995
 21
-148.99999999999986
 72
     1
 10
109.59999999999995
 20
-148.99999999999986
 11
113.59999999999998
 21
-148.99999999999986
 72
     1
 10
113.59999999999998
 20
-148.99999999999986
 11
113.59999999999995
 21
-151.99999999999989
 72
     1
 10
113.59999999999995
 20
-151.99999999999989
 11
126.84999999999999
 21
-151.99999999999989
 72
     1
 10
126.84999999999999
 20
-151.99999999999989
 11
126.84999999999999
 21
-148.99999999999949
 72
     1
 10
126.84999999999999
 20
-148.99999999999949
 11
133.15000000000006
 21
-148.99999999999949
 72
     1
 10
133.15000000000006
 20
-148.99999999999949
 11
133.15000000000003
 21
-151.99999999999991
 72
     1
 10
133.15000000000003
 20
-151.99999999999991
 11
146.39999999999995
 21
-151.99999999999991
 72
     1
 10
146.39999999999995
 20
-151.99999999999991
 11
146.39999999999995
 21
-148.99999999999986
 72
     1
 10
146.39999999999995
 20
-148.99999999999986
 11
150.39999999999998
 21
-148.99999999999986
 72
     1
 10
150.39999999999998
 20
-148.99999999999986
 11
150.39999999999998
 21
-151.99999999999989
 72
     1
 10
150.39999999999998
 20
-151.99999999999989
 11
163.64999999999998
 21
-151.99999999999989
 72
     1
 10
163.64999999999998
 20
-151.99999999999989
 11
163.64999999999998
 21
-148.99999999999949
 72
     1
 10
163.64999999999998
 20
-148.99999999999949
 11
169.95000000000010
 21
-148.99999999999940
 97
        0
 75
     0
 76
     0
 52
44.99999999999999
 41
1.00000000000000
 77
     0
 78
     1
 53
44.99999999999999
 43
139.92043196151991
 44
-303.82666308840487
 45
-1.41421356237309
 46
1.41421356237310
 79
     2
 49
2.66800000000000
 49
-1.33200000000000
 98
        1
 10
0.00000000000000
 20
0.00000000000000
  0
HATCH
  5
213
330
2A
100
AcDbEntity
  8
Details 10
 62
    30
100
AcDbHatch
 10
0.00000000000000
 20
0.00000000000000
 30
0.00000000000000
210
0.00000000000000
220
0.00000000000000
230
1.00000000000000
  2
SOLID
 70
     1
 71
     0
 91
        1
 92
        0
 93
        9
 72
     1
 10
172.00000000000037
 20
-151.99999999999991
 11
169.95000000000013
 21
-151.99999999999994
 72
     1
 10
169.95000000000013
 20
-151.99999999999994
 11
169.95000000000010
 21
-148.99999999999940
 72
     1
 10
169.95000000000010
 20
-148.99999999999940
 11
167.75000000000199
 21
-148.99999999999935
 72
     1
 10
167.75000000000199
 20
-148.99999999999935
 11
166.95000000000007
 21
-149.21435935394476
 72
     1
 10
166.95000000000007
 20
-149.21435935394476
 11
166.95000000000007
 21
-151.28564064605499
 72
     1
 10
166.95000000000007
 20
-151.28564064605499
 11
167.75000000000006
 21
-151.49999999999989
 72
     1
 10
167.75000000000006
 20
-151.49999999999989
 11
167.75000000000017
 21
-154.99999999999991
 72
     1
 10
167.75000000000017
 20
-154.99999999999991
 11
172.00000000000037
 21
-154.99999999999991
 72
     1
 10
172.00000000000037
 20
-154.99999999999991
 11
172.00000000000037
 21
-151.99999999999991
 97
        0
 75
     0
 76
     0
 98
        1
 10
0.00000000000000
 20
0.00000000000000
  0
HATCH
  5
214
330
2A
100
AcDbEntity
  8
Details 10
 62
     7
370
    18
100
AcDbHatch
 10
0.00000000000000
 20
0.00000000000000
 30
0.00000000000000
210
0.00000000000000
220
0.00000000000000
230
1.00000000000000
  2
SCHRAFFUR
 70
     0
 71
     0
 91
        1
 92
        0
 93
        9
 72
     1
 10
172.00000000000037
 20
-151.99999999999991
 11
169.95000000000013
 21
-151.99999999999994
 72
     1
 10
169.95000000000013
 20
-151.99999999999994
 11
169.95000000000010
 21
-148.99999999999940
 72
     1
 10
169.95000000000010
 20
-148.99999999999940
 11
167.75000000000199
 21
-148.99999999999935
 72
     1
 10
167.75000000000199
 20
-148.99999999999935
 11
166.95000000000007
 21
-149.21435935394476
 72
     1
 10
166.95000000000007
 20
-149.21435935394476
 11
166.95000000000007
 21
-151.28564064605499
 72
     1
 10
166.95000000000007
 20
-151.28564064605499
 11
167.75000000000006
 21
-151.49999999999989
 72
     1
 10
167.75000000000006
 20
-151.49999999999989
 11
167.75000000000017
 21
-154.99999999999991
 72
     1
 10
167.75000000000017
 20
-154.99999999999991
 11
172.00000000000037
 21
-154.99999999999991
 72
     1
 10
172.00000000000037
 20
-154.99999999999991
 11
172.00000000000037
 21
-151.99999999999991
 97
        0
 75
     0
 76
     0
 52
225.00000000000014
 41
1.00000000000000
 77
     0
 78
     1
 53
225.00000000000014
 43
20.32239402667517
 44
-84.58240932408239
 45
2.82842712474620
 46
-2.82842712474618
 79
     0
 98
        1
 10
0.00000000000000
 20
0.00000000000000
  0
HATCH
  5
215
330
2A
100
AcDbEntity
  8
Details 10
 62
    30
100
AcDbHatch
 10
0.00000000000000
 20
0.00000000000000
 30
0.00000000000000
210
0.00000000000000
220
0.00000000000000
230
1.00000000000000
  2
SOLID
 70
     1
 71
     0
 91
        1
 92
        0
 93
        9
 72
     1
 10
172.00000000000017
 20
-130.99999999999991
 11
167.75000000000017
 21
-130.99999999999991
 72
     1
 10
167.75000000000017
 20
-130.99999999999991
 11
166.95000000000007
 21
-131.79999999999990
 72
     1
 10
166.95000000000007
 20
-131.79999999999990
 11
166.94999999999999
 21
-133.78564064605499
 72
     1
 10
166.94999999999999
 20
-133.78564064605499
 11
167.75000000000006
 21
-133.99999999999989
 72
     1
 10
167.75000000000006
 20
-133.99999999999989
 11
167.75000000000017
 21
-136.99999999999977
 72
     1
 10
167.75000000000017
 20
-136.99999999999977
 11
169.95000000000002
 21
-136.99999999999983
 72
     1
 10
169.95000000000002
 20
-136.99999999999983
 11
169.95000000000007
 21
-133.99999999999994
 72
     1
 10
169.95000000000007
 20
-133.99999999999994
 11
172.00000000000020
 21
-133.99999999999994
 72
     1
 10
172.00000000000020
 20
-133.99999999999994
 11
172.00000000000017
 21
-130.99999999999991
 97
        0
 75
     0
 76
     0
 98
        1
 10
0.00000000000000
 20
0.00000000000000
  0
HATCH
  5
216
330
2A
100
AcDbEntity
  8
Details 10
 62
     7
370
    18
100
AcDbHatch
 10
0.00000000000000
 20
0.00000000000000
 30
0.00000000000000
210
0.00000000000000
220
0.00000000000000
230
1.00000000000000
  2
SCHRAFFUR
 70
     0
 71
     0
 91
        1
 92
        0
 93
        9
 72
     1
 10
172.00000000000017
 20
-130.99999999999991
 11
167.75000000000017
 21
-130.99999999999991
 72
     1
 10
167.75000000000017
 20
-130.99999999999991
 11
166.95000000000007
 21
-131.79999999999990
 72
     1
 10
166.95000000000007
 20
-131.79999999999990
 11
166.94999999999999
 21
-133.78564064605499
 72
     1
 10
166.94999999999999
 20
-133.78564064605499
 11
167.75000000000006
 21
-133.99999999999989
 72
     1
 10
167.75000000000006
 20
-133.99999999999989
 11
167.75000000000017
 21
-136.99999999999977
 72
     1
 10
167.75000000000017
 20
-136.99999999999977
 11
169.95000000000002
 21
-136.99999999999983
 72
     1
 10
169.95000000000002
 20
-136.99999999999983
 11
169.95000000000007
 21
-133.99999999999994
 72
     1
 10
169.95000000000007
 20
-133.99999999999994
 11
172.00000000000020
 21
-133.99999999999994
 72
     1
 10
172.00000000000020
 20
-133.99999999999994
 11
172.00000000000017
 21
-130.99999999999991
 97
        0
 75
     0
 76
     0
 52
225.00000000000014
 41
1.00000000000000
 77
     0
 78
     1
 53
225.00000000000014
 43
20.32239402667517
 44
-84.58240932408239
 45
2.82842712474620
 46
-2.82842712474618
 79
     0
 98
        1
 10
0.00000000000000
 20
0.00000000000000
  0
HATCH
  5
217
330
2A
100
AcDbEntity
  8
Details 10
 62
    30
100
AcDbHatch
 10
0.00000000000000
 20
0.00000000000000
 30
0.00000000000000
210
0.00000000000000
220
0.00000000000000
230
1.00000000000000
  2
SOLID
 70
     1
 71
     0
 91
        1
 92
        0
 93
        9
 72
     1
 10
49.99999999999982
 20
-154.99999999999991
 11
49.99999999999984
 21
-151.99999999999991
 72
     1
 10
49.99999999999984
 20
-151.99999999999991
 11
53.25000000000006
 21
-151.99999999999991
 72
     1
 10
53.25000000000006
 20
-151.99999999999991
 11
53.25000000000043
 21
-148.99999999999949
 72
     1
 10
53.25000000000043
 20
-148.99999999999949
 11
56.25000000000001
 21
-148.99999999999940
 72
     1
 10
56.25000000000001
 20
-148.99999999999940
 11
56.25000000000011
 21
-151.99999999999991
 72
     1
 10
56.25000000000011
 20
-151.99999999999991
 11
57.05000000000010
 21
-152.21435935394481
 72
     1
 10
57.05000000000010
 20
-152.21435935394481
 11
57.05000000000010
 21
-154.19999999999990
 72
     1
 10
57.05000000000010
 20
-154.19999999999990
 11
56.25000000000011
 21
-154.99999999999991
 72
     1
 10
56.25000000000011
 20
-154.99999999999991
 11
49.99999999999982
 21
-154.99999999999991
 97
        0
 75
     0
 76
     0
 98
        1
 10
0.00000000000000
 20
0.00000000000000
  0
HATCH
  5
218
330
2A
100
AcDbEntity
  8
Details 10
 62
     7
370
    18
100
AcDbHatch
 10
0.00000000000000
 20
0.00000000000000
 30
0.00000000000000
210
0.00000000000000
220
0.00000000000000
230
1.00000000000000
  2
SCHRAFFUR
 70
     0
 71
     0
 91
        1
 92
        0
 93
        9
 72
     1
 10
49.99999999999982
 20
-154.99999999999991
 11
49.99999999999984
 21
-151.99999999999991
 72
     1
 10
49.99999999999984
 20
-151.99999999999991
 11
53.25000000000006
 21
-151.99999999999991
 72
     1
 10
53.25000000000006
 20
-151.99999999999991
 11
53.25000000000043
 21
-148.99999999999949
 72
     1
 10
53.25000000000043
 20
-148.99999999999949
 11
56.25000000000001
 21
-148.99999999999940
 72
     1
 10
56.25000000000001
 20
-148.99999999999940
 11
56.25000000000011
 21
-151.99999999999991
 72
     1
 10
56.25000000000011
 20
-151.99999999999991
 11
57.05000000000010
 21
-152.21435935394481
 72
     1
 10
57.05000000000010
 20
-152.21435935394481
 11
57.05000000000010
 21
-154.19999999999990
 72
     1
 10
57.05000000000010
 20
-154.19999999999990
 11
56.25000000000011
 21
-154.99999999999991
 72
     1
 10
56.25000000000011
 20
-154.99999999999991
 11
49.99999999999982
 21
-154.99999999999991
 97
        0
 75
     0
 76
     0
 52
225.00000000000014
 41
1.00000000000000
 77
     0
 78
     1
 53
225.00000000000014
 43
-53.27760597332484
 44
-84.58240932408239
 45
2.82842712474620
 46
-2.82842712474618
 79
     0
 98
        1
 10
0.00000000000000
 20
0.00000000000000
  0
HATCH
  5
219
330
2A
100
AcDbEntity
  8
Details 10
 62
    30
100
AcDbHatch
 10
0.00000000000000
 20
0.00000000000000
 30
0.00000000000000
210
0.00000000000000
220
0.00000000000000
230
1.00000000000000
  2
SOLID
 70
     1
 71
     0
 91
        1
 92
        0
 93
       10
 72
     1
 10
53.25000000000007
 20
-136.99999999999994
 11
53.25000000000007
 21
-133.99999999999986
 72
     1
 10
53.25000000000007
 20
-133.99999999999986
 11
49.99999999999993
 21
-133.99999999999983
 72
     1
 10
49.99999999999993
 20
-133.99999999999983
 11
49.99999999999993
 21
-130.99999999999991
 72
     1
 10
49.99999999999993
 20
-130.99999999999991
 11
56.25000000000011
 21
-130.99999999999991
 72
     1
 10
56.25000000000011
 20
-130.99999999999991
 11
56.25000000000011
 21
-133.99999999999980
 72
     1
 10
56.25000000000011
 20
-133.99999999999980
 11
57.05000000000002
 21
-134.21435935394470
 72
     1
 10
57.05000000000002
 20
-134.21435935394470
 11
57.05000000000010
 21
-136.28564064605493
 72
     1
 10
57.05000000000010
 20
-136.28564064605493
 11
56.25000000000011
 21
-136.49999999999983
 72
     1
 10
56.25000000000011
 20
-136.49999999999983
 11
56.25000000000019
 21
-136.99999999999991
 72
     1
 10
56.25000000000019
 20
-136.99999999999991
 11
53.25000000000007
 21
-136.99999999999994
 97
        0
 75
     0
 76
     0
 98
        1
 10
0.00000000000000
 20
0.00000000000000
  0
HATCH
  5
21A
330
2A
100
AcDbEntity
  8
Details 10
 62
     7
370
    18
100
AcDbHatch
 10
0.00000000000000
 20
0.00000000000000
 30
0.00000000000000
210
0.00000000000000
220
0.00000000000000
230
1.00000000000000
  2
SCHRAFFUR
 70
     0
 71
     0
 91
        1
 92
        0
 93
       10
 72
     1
 10
53.25000000000007
 20
-136.99999999999994
 11
53.25000000000007
 21
-133.99999999999986
 72
     1
 10
53.25000000000007
 20
-133.99999999999986
 11
49.99999999999993
 21
-133.99999999999983
 72
     1
 10
49.99999999999993
 20
-133.99999999999983
 11
49.99999999999993
 21
-130.99999999999991
 72
     1
 10
49.99999999999993
 20
-130.99999999999991
 11
56.25000000000011
 21
-130.99999999999991
 72
     1
 10
56.25000000000011
 20
-130.99999999999991
 11
56.25000000000011
 21
-133.99999999999980
 72
     1
 10
56.25000000000011
 20
-133.99999999999980
 11
57.05000000000002
 21
-134.21435935394470
 72
     1
 10
57.05000000000002
 20
-134.21435935394470
 11
57.05000000000010
 21
-136.28564064605493
 72
     1
 10
57.05000000000010
 20
-136.28564064605493
 11
56.25000000000011
 21
-136.49999999999983
 72
     1
 10
56.25000000000011
 20
-136.49999999999983
 11
56.25000000000019
 21
-136.99999999999991
 72
     1
 10
56.25000000000019
 20
-136.99999999999991
 11
53.25000000000007
 21
-136.99999999999994
 97
        0
 75
     0
 76
     0
 52
225.00000000000014
 41
1.00000000000000
 77
     0
 78
     1
 53
225.00000000000014
 43
-53.27760597332484
 44
-84.58240932408239
 45
2.82842712474620
 46
-2.82842712474618
 79
     0
 98
        1
 10
0.00000000000000
 20
0.00000000000000
  0
HATCH
  5
21B
330
2A
100
AcDbEntity
  8
Details 10
 62
    30
100
AcDbHatch
 10
0.00000000000000
 20
0.00000000000000
 30
0.00000000000000
210
0.00000000000000
220
0.00000000000000
230
1.00000000000000
  2
SOLID
 70
     1
 71
     0
 91
        1
 92
        0
 93
       22
 72
     1
 10
59.55000000000005
 20
-151.99999999999991
 11
72.79999999999994
 21
-151.99999999999983
 72
     1
 10
72.79999999999994
 20
-151.99999999999983
 11
72.79999999999994
 21
-148.99999999999986
 72
     1
 10
72.79999999999994
 20
-148.99999999999986
 11
74.19999999999997
 21
-148.99999999999986
 72
     1
 10
74.19999999999997
 20
-148.99999999999986
 11
74.19999999999997
 21
-148.99999999999989
 72
     1
 10
74.19999999999997
 20
-148.99999999999989
 11
75.40000000000002
 21
-148.99999999999989
 72
     1
 10
75.40000000000002
 20
-148.99999999999989
 11
75.40000000000006
 21
-148.99999999999986
 72
     1
 10
75.40000000000006
 20
-148.99999999999986
 11
76.79999999999996
 21
-148.99999999999986
 72
     1
 10
76.79999999999996
 20
-148.99999999999986
 11
76.79999999999996
 21
-151.99999999999989
 72
     1
 10
76.79999999999996
 20
-151.99999999999989
 11
90.04999999999997
 21
-151.99999999999991
 72
     1
 10
90.04999999999997
 20
-151.99999999999991
 11
90.04999999999997
 21
-148.99999999999943
 72
     1
 10
90.04999999999997
 20
-148.99999999999943
 11
93.04999999999991
 21
-148.99999999999940
 72
     1
 10
93.04999999999991
 20
-148.99999999999940
 11
93.05000000000001
 21
-151.99999999999989
 72
     1
 10
93.05000000000001
 20
-151.99999999999989
 11
93.85000000000009
 21
-152.21435935394479
 72
     1
 10
93.85000000000009
 20
-152.21435935394479
 11
93.84999999999999
 21
-154.19999999999993
 72
     1
 10
93.84999999999999
 20
-154.19999999999993
 11
93.05000000000001
 21
-154.99999999999991
 72
     1
 10
93.05000000000001
 20
-154.99999999999991
 11
57.35000000000014
 21
-154.99999999999991
 72
     1
 10
57.35000000000014
 20
-154.99999999999991
 11
57.35000000000002
 21
-151.49999999999989
 72
     1
 10
57.35000000000002
 20
-151.49999999999989
 11
56.55000000000003
 21
-151.28564064605499
 72
     1
 10
56.55000000000003
 20
-151.28564064605499
 11
56.55000000000011
 21
-149.21435935394476
 72
     1
 10
56.55000000000011
 20
-149.21435935394476
 11
57.35000000000002
 21
-148.99999999999986
 72
     1
 10
57.35000000000002
 20
-148.99999999999986
 11
59.55000000000005
 21
-148.99999999999935
 72
     1
 10
59.55000000000005
 20
-148.99999999999935
 11
59.55000000000005
 21
-151.99999999999991
 97
        0
 75
     0
 76
     0
 98
        1
 10
0.00000000000000
 20
0.00000000000000
  0
HATCH
  5
21C
330
2A
100
AcDbEntity
  8
Details 10
 62
     7
370
    18
100
AcDbHatch
 10
0.00000000000000
 20
0.00000000000000
 30
0.00000000000000
210
0.00000000000000
220
0.00000000000000
230
1.00000000000000
  2
SCHRAFFUR
 70
     0
 71
     0
 91
        1
 92
        0
 93
       22
 72
     1
 10
59.55000000000005
 20
-151.99999999999991
 11
72.79999999999994
 21
-151.99999999999983
 72
     1
 10
72.79999999999994
 20
-151.99999999999983
 11
72.79999999999994
 21
-148.99999999999986
 72
     1
 10
72.79999999999994
 20
-148.99999999999986
 11
74.19999999999997
 21
-148.99999999999986
 72
     1
 10
74.19999999999997
 20
-148.99999999999986
 11
74.19999999999997
 21
-148.99999999999989
 72
     1
 10
74.19999999999997
 20
-148.99999999999989
 11
75.40000000000002
 21
-148.99999999999989
 72
     1
 10
75.40000000000002
 20
-148.99999999999989
 11
75.40000000000006
 21
-148.99999999999986
 72
     1
 10
75.40000000000006
 20
-148.99999999999986
 11
76.79999999999996
 21
-148.99999999999986
 72
     1
 10
76.79999999999996
 20
-148.99999999999986
 11
76.79999999999996
 21
-151.99999999999989
 72
     1
 10
76.79999999999996
 20
-151.99999999999989
 11
90.04999999999997
 21
-151.99999999999991
 72
     1
 10
90.04999999999997
 20
-151.99999999999991
 11
90.04999999999997
 21
-148.99999999999943
 72
     1
 10
90.04999999999997
 20
-148.99999999999943
 11
93.04999999999991
 21
-148.99999999999940
 72
     1
 10
93.04999999999991
 20
-148.99999999999940
 11
93.05000000000001
 21
-151.99999999999989
 72
     1
 10
93.05000000000001
 20
-151.99999999999989
 11
93.85000000000009
 21
-152.21435935394479
 72
     1
 10
93.85000000000009
 20
-152.21435935394479
 11
93.84999999999999
 21
-154.19999999999993
 72
     1
 10
93.84999999999999
 20
-154.19999999999993
 11
93.05000000000001
 21
-154.99999999999991
 72
     1
 10
93.05000000000001
 20
-154.99999999999991
 11
57.35000000000014
 21
-154.99999999999991
 72
     1
 10
57.35000000000014
 20
-154.99999999999991
 11
57.35000000000002
 21
-151.49999999999989
 72
     1
 10
57.35000000000002
 20
-151.49999999999989
 11
56.55000000000003
 21
-151.28564064605499
 72
     1
 10
56.55000000000003
 20
-151.28564064605499
 11
56.55000000000011
 21
-149.21435935394476
 72
     1
 10
56.55000000000011
 20
-149.21435935394476
 11
57.35000000000002
 21
-148.99999999999986
 72
     1
 10
57.35000000000002
 20
-148.99999999999986
 11
59.55000000000005
 21
-148.99999999999935
 72
     1
 10
59.55000000000005
 20
-148.99999999999935
 11
59.55000000000005
 21
-151.99999999999991
 97
        0
 75
     0
 76
     0
 52
225.00000000000014
 41
1.00000000000000
 77
     0
 78
     1
 53
225.00000000000014
 43
-53.27760597332484
 44
-84.58240932408239
 45
2.82842712474620
 46
-2.82842712474618
 79
     0
 98
        1
 10
0.00000000000000
 20
0.00000000000000
  0
HATCH
  5
21D
330
2A
100
AcDbEntity
  8
Details 10
 62
    30
100
AcDbHatch
 10
0.00000000000000
 20
0.00000000000000
 30
0.00000000000000
210
0.00000000000000
220
0.00000000000000
230
1.00000000000000
  2
SOLID
 70
     1
 71
     0
 91
        1
 92
        0
 93
       23
 72
     1
 10
57.35000000000002
 20
-130.99999999999991
 11
93.05000000000001
 21
-130.99999999999991
 72
     1
 10
93.05000000000001
 20
-130.99999999999991
 11
93.05000000000001
 21
-133.99999999999980
 72
     1
 10
93.05000000000001
 20
-133.99999999999980
 11
93.84999999999999
 21
-134.21435935394470
 72
     1
 10
93.84999999999999
 20
-134.21435935394470
 11
93.84999999999992
 21
-136.28564064605493
 72
     1
 10
93.84999999999992
 20
-136.28564064605493
 11
93.05000000000001
 21
-136.49999999999983
 72
     1
 10
93.05000000000001
 20
-136.49999999999983
 11
93.05000000000001
 21
-136.99999999999991
 72
     1
 10
93.05000000000001
 20
-136.99999999999991
 11
90.04999999999997
 21
-136.99999999999991
 72
     1
 10
90.04999999999997
 20
-136.99999999999991
 11
90.04999999999997
 21
-133.99999999999986
 72
     1
 10
90.04999999999997
 20
-133.99999999999986
 11
76.79999999999996
 21
-133.99999999999989
 72
     1
 10
76.79999999999996
 20
-133.99999999999989
 11
76.79999999999996
 21
-136.99999999999991
 72
     1
 10
76.79999999999996
 20
-136.99999999999991
 11
75.40000000000002
 21
-136.99999999999991
 72
     1
 10
75.40000000000002
 20
-136.99999999999991
 11
75.40000000000002
 21
-136.99999999999991
 72
     1
 10
75.40000000000002
 20
-136.99999999999991
 11
74.19999999999997
 21
-136.99999999999991
 72
     1
 10
74.19999999999997
 20
-136.99999999999991
 11
74.19999999999997
 21
-136.99999999999991
 72
     1
 10
74.19999999999997
 20
-136.99999999999991
 11
72.79999999999994
 21
-136.99999999999991
 72
     1
 10
72.79999999999994
 20
-136.99999999999991
 11
72.80000000000003
 21
-133.99999999999994
 72
     1
 10
72.80000000000003
 20
-133.99999999999994
 11
59.55000000000005
 21
-133.99999999999994
 72
     1
 10
59.55000000000005
 20
-133.99999999999994
 11
59.55000000000005
 21
-136.99999999999983
 72
     1
 10
59.55000000000005
 20
-136.99999999999983
 11
57.35000000000014
 21
-136.99999999999977
 72
     1
 10
57.35000000000014
 20
-136.99999999999977
 11
57.35000000000002
 21
-133.99999999999989
 72
     1
 10
57.35000000000002
 20
-133.99999999999989
 11
56.54999999999993
 21
-133.78564064605499
 72
     1
 10
56.54999999999993
 20
-133.78564064605499
 11
56.55000000000003
 21
-131.79999999999984
 72
     1
 10
56.55000000000003
 20
-131.79999999999984
 11
57.35000000000002
 21
-130.99999999999991
 97
        0
 75
     0
 76
     0
 98
        1
 10
0.00000000000000
 20
0.00000000000000
  0
HATCH
  5
21E
330
2A
100
AcDbEntity
  8
Details 10
 62
     7
370
    18
100
AcDbHatch
 10
0.00000000000000
 20
0.00000000000000
 30
0.00000000000000
210
0.00000000000000
220
0.00000000000000
230
1.00000000000000
  2
SCHRAFFUR
 70
     0
 71
     0
 91
        1
 92
        0
 93
       23
 72
     1
 10
57.35000000000002
 20
-130.99999999999991
 11
93.05000000000001
 21
-130.99999999999991
 72
     1
 10
93.05000000000001
 20
-130.99999999999991
 11
93.05000000000001
 21
-133.99999999999980
 72
     1
 10
93.05000000000001
 20
-133.99999999999980
 11
93.84999999999999
 21
-134.21435935394470
 72
     1
 10
93.84999999999999
 20
-134.21435935394470
 11
93.84999999999992
 21
-136.28564064605493
 72
     1
 10
93.84999999999992
 20
-136.28564064605493
 11
93.05000000000001
 21
-136.49999999999983
 72
     1
 10
93.05000000000001
 20
-136.49999999999983
 11
93.05000000000001
 21
-136.99999999999991
 72
     1
 10
93.05000000000001
 20
-136.99999999999991
 11
90.04999999999997
 21
-136.99999999999991
 72
     1
 10
90.04999999999997
 20
-136.99999999999991
 11
90.04999999999997
 21
-133.99999999999986
 72
     1
 10
90.04999999999997
 20
-133.99999999999986
 11
76.79999999999996
 21
-133.99999999999989
 72
     1
 10
76.79999999999996
 20
-133.99999999999989
 11
76.79999999999996
 21
-136.99999999999991
 72
     1
 10
76.79999999999996
 20
-136.99999999999991
 11
75.40000000000002
 21
-136.99999999999991
 72
     1
 10
75.40000000000002
 20
-136.99999999999991
 11
75.40000000000002
 21
-136.99999999999991
 72
     1
 10
75.40000000000002
 20
-136.99999999999991
 11
74.19999999999997
 21
-136.99999999999991
 72
     1
 10
74.19999999999997
 20
-136.99999999999991
 11
74.19999999999997
 21
-136.99999999999991
 72
     1
 10
74.19999999999997
 20
-136.99999999999991
 11
72.79999999999994
 21
-136.99999999999991
 72
     1
 10
72.79999999999994
 20
-136.99999999999991
 11
72.80000000000003
 21
-133.99999999999994
 72
     1
 10
72.80000000000003
 20
-133.99999999999994
 11
59.55000000000005
 21
-133.99999999999994
 72
     1
 10
59.55000000000005
 20
-133.99999999999994
 11
59.55000000000005
 21
-136.99999999999983
 72
     1
 10
59.55000000000005
 20
-136.99999999999983
 11
57.35000000000014
 21
-136.99999999999977
 72
     1
 10
57.35000000000014
 20
-136.99999999999977
 11
57.35000000000002
 21
-133.99999999999989
 72
     1
 10
57.35000000000002
 20
-133.99999999999989
 11
56.54999999999993
 21
-133.78564064605499
 72
     1
 10
56.54999999999993
 20
-133.78564064605499
 11
56.55000000000003
 21
-131.79999999999984
 72
     1
 10
56.55000000000003
 20
-131.79999999999984
 11
57.35000000000002
 21
-130.99999999999991
 97
        0
 75
     0
 76
     0
 52
225.00000000000014
 41
1.00000000000000
 77
     0
 78
     1
 53
225.00000000000014
 43
-53.27760597332484
 44
-84.58240932408239
 45
2.82842712474620
 46
-2.82842712474618
 79
     0
 98
        1
 10
0.00000000000000
 20
0.00000000000000
  0
HATCH
  5
21F
330
2A
100
AcDbEntity
  8
Details 10
 62
    30
100
AcDbHatch
 10
0.00000000000000
 20
0.00000000000000
 30
0.00000000000000
210
0.00000000000000
220
0.00000000000000
230
1.00000000000000
  2
SOLID
 70
     1
 71
     0
 91
        1
 92
        0
 93
       23
 72
     1
 10
130.95000000000005
 20
-130.99999999999991
 11
166.65000000000001
 21
-130.99999999999991
 72
     1
 10
166.65000000000001
 20
-130.99999999999991
 11
166.65000000000001
 21
-133.99999999999980
 72
     1
 10
166.65000000000001
 20
-133.99999999999980
 11
167.45000000000002
 21
-134.21435935394470
 72
     1
 10
167.45000000000002
 20
-134.21435935394470
 11
167.44999999999993
 21
-136.28564064605493
 72
     1
 10
167.44999999999993
 20
-136.28564064605493
 11
166.65000000000001
 21
-136.49999999999983
 72
     1
 10
166.65000000000001
 20
-136.49999999999983
 11
166.65000000000001
 21
-136.99999999999991
 72
     1
 10
166.65000000000001
 20
-136.99999999999991
 11
163.64999999999998
 21
-136.99999999999991
 72
     1
 10
163.64999999999998
 20
-136.99999999999991
 11
163.64999999999998
 21
-133.99999999999986
 72
     1
 10
163.64999999999998
 20
-133.99999999999986
 11
150.39999999999998
 21
-133.99999999999989
 72
     1
 10
150.39999999999998
 20
-133.99999999999989
 11
150.39999999999998
 21
-136.99999999999991
 72
     1
 10
150.39999999999998
 20
-136.99999999999991
 11
149.00000000000003
 21
-136.99999999999991
 72
     1
 10
149.00000000000003
 20
-136.99999999999991
 11
149.00000000000003
 21
-136.99999999999991
 72
     1
 10
149.00000000000003
 20
-136.99999999999991
 11
147.79999999999998
 21
-136.99999999999991
 72
     1
 10
147.79999999999998
 20
-136.99999999999991
 11
147.79999999999998
 21
-136.99999999999991
 72
     1
 10
147.79999999999998
 20
-136.99999999999991
 11
146.39999999999995
 21
-136.99999999999991
 72
     1
 10
146.39999999999995
 20
-136.99999999999991
 11
146.40000000000006
 21
-133.99999999999994
 72
     1
 10
146.40000000000006
 20
-133.99999999999994
 11
133.15000000000006
 21
-133.99999999999994
 72
     1
 10
133.15000000000006
 20
-133.99999999999994
 11
133.15000000000006
 21
-136.99999999999983
 72
     1
 10
133.15000000000006
 20
-136.99999999999983
 11
130.95000000000016
 21
-136.99999999999977
 72
     1
 10
130.95000000000016
 20
-136.99999999999977
 11
130.95000000000005
 21
-133.99999999999989
 72
     1
 10
130.95000000000005
 20
-133.99999999999989
 11
130.14999999999995
 21
-133.78564064605499
 72
     1
 10
130.14999999999995
 20
-133.78564064605499
 11
130.15000000000003
 21
-131.79999999999984
 72
     1
 10
130.15000000000003
 20
-131.79999999999984
 11
130.95000000000005
 21
-130.99999999999991
 97
        0
 75
     0
 76
     0
 98
        1
 10
0.00000000000000
 20
0.00000000000000
  0
HATCH
  5
220
330
2A
100
AcDbEntity
  8
Details 10
 62
     7
370
    18
100
AcDbHatch
 10
0.00000000000000
 20
0.00000000000000
 30
0.00000000000000
210
0.00000000000000
220
0.00000000000000
230
1.00000000000000
  2
SCHRAFFUR
 70
     0
 71
     0
 91
        1
 92
        0
 93
       23
 72
     1
 10
130.95000000000005
 20
-130.99999999999991
 11
166.65000000000001
 21
-130.99999999999991
 72
     1
 10
166.65000000000001
 20
-130.99999999999991
 11
166.65000000000001
 21
-133.99999999999980
 72
     1
 10
166.65000000000001
 20
-133.99999999999980
 11
167.45000000000002
 21
-134.21435935394470
 72
     1
 10
167.45000000000002
 20
-134.21435935394470
 11
167.44999999999993
 21
-136.28564064605493
 72
     1
 10
167.44999999999993
 20
-136.28564064605493
 11
166.65000000000001
 21
-136.49999999999983
 72
     1
 10
166.65000000000001
 20
-136.49999999999983
 11
166.65000000000001
 21
-136.99999999999991
 72
     1
 10
166.65000000000001
 20
-136.99999999999991
 11
163.64999999999998
 21
-136.99999999999991
 72
     1
 10
163.64999999999998
 20
-136.99999999999991
 11
163.64999999999998
 21
-133.99999999999986
 72
     1
 10
163.64999999999998
 20
-133.99999999999986
 11
150.39999999999998
 21
-133.99999999999989
 72
     1
 10
150.39999999999998
 20
-133.99999999999989
 11
150.39999999999998
 21
-136.99999999999991
 72
     1
 10
150.39999999999998
 20
-136.99999999999991
 11
149.00000000000003
 21
-136.99999999999991
 72
     1
 10
149.00000000000003
 20
-136.99999999999991
 11
149.00000000000003
 21
-136.99999999999991
 72
     1
 10
149.00000000000003
 20
-136.99999999999991
 11
147.79999999999998
 21
-136.99999999999991
 72
     1
 10
147.79999999999998
 20
-136.99999999999991
 11
147.79999999999998
 21
-136.99999999999991
 72
     1
 10
147.79999999999998
 20
-136.99999999999991
 11
146.39999999999995
 21
-136.99999999999991
 72
     1
 10
146.39999999999995
 20
-136.99999999999991
 11
146.40000000000006
 21
-133.99999999999994
 72
     1
 10
146.40000000000006
 20
-133.99999999999994
 11
133.15000000000006
 21
-133.99999999999994
 72
     1
 10
133.15000000000006
 20
-133.99999999999994
 11
133.15000000000006
 21
-136.99999999999983
 72
     1
 10
133.15000000000006
 20
-136.99999999999983
 11
130.95000000000016
 21
-136.99999999999977
 72
     1
 10
130.95000000000016
 20
-136.99999999999977
 11
130.95000000000005
 21
-133.99999999999989
 72
     1
 10
130.95000000000005
 20
-133.99999999999989
 11
130.14999999999995
 21
-133.78564064605499
 72
     1
 10
130.14999999999995
 20
-133.78564064605499
 11
130.15000000000003
 21
-131.79999999999984
 72
     1
 10
130.15000000000003
 20
-131.79999999999984
 11
130.95000000000005
 21
-130.99999999999991
 97
        0
 75
     0
 76
     0
 52
225.00000000000014
 41
1.00000000000000
 77
     0
 78
     1
 53
225.00000000000014
 43
20.32239402667517
 44
-84.58240932408239
 45
2.82842712474620
 46
-2.82842712474618
 79
     0
 98
        1
 10
0.00000000000000
 20
0.00000000000000
  0
HATCH
  5
221
330
2A
100
AcDbEntity
  8
Details 10
 62
    30
100
AcDbHatch
 10
0.00000000000000
 20
0.00000000000000
 30
0.00000000000000
210
0.00000000000000
220
0.00000000000000
230
1.00000000000000
  2
SOLID
 70
     1
 71
     0
 91
        1
 92
        0
 93
       22
 72
     1
 10
133.15000000000006
 20
-151.99999999999991
 11
146.39999999999995
 21
-151.99999999999983
 72
     1
 10
146.39999999999995
 20
-151.99999999999983
 11
146.39999999999995
 21
-148.99999999999986
 72
     1
 10
146.39999999999995
 20
-148.99999999999986
 11
147.79999999999998
 21
-148.99999999999986
 72
     1
 10
147.79999999999998
 20
-148.99999999999986
 11
147.79999999999998
 21
-148.99999999999989
 72
     1
 10
147.79999999999998
 20
-148.99999999999989
 11
149.00000000000003
 21
-148.99999999999989
 72
     1
 10
149.00000000000003
 20
-148.99999999999989
 11
149.00000000000009
 21
-148.99999999999986
 72
     1
 10
149.00000000000009
 20
-148.99999999999986
 11
150.39999999999998
 21
-148.99999999999986
 72
     1
 10
150.39999999999998
 20
-148.99999999999986
 11
150.39999999999998
 21
-151.99999999999989
 72
     1
 10
150.39999999999998
 20
-151.99999999999989
 11
163.64999999999998
 21
-151.99999999999991
 72
     1
 10
163.64999999999998
 20
-151.99999999999991
 11
163.64999999999998
 21
-148.99999999999943
 72
     1
 10
163.64999999999998
 20
-148.99999999999943
 11
166.64999999999992
 21
-148.99999999999940
 72
     1
 10
166.64999999999992
 20
-148.99999999999940
 11
166.65000000000001
 21
-151.99999999999989
 72
     1
 10
166.65000000000001
 20
-151.99999999999989
 11
167.45000000000010
 21
-152.21435935394479
 72
     1
 10
167.45000000000010
 20
-152.21435935394479
 11
167.45000000000002
 21
-154.19999999999993
 72
     1
 10
167.45000000000002
 20
-154.19999999999993
 11
166.65000000000001
 21
-154.99999999999991
 72
     1
 10
166.65000000000001
 20
-154.99999999999991
 11
130.95000000000016
 21
-154.99999999999991
 72
     1
 10
130.95000000000016
 20
-154.99999999999991
 11
130.95000000000005
 21
-151.49999999999989
 72
     1
 10
130.95000000000005
 20
-151.49999999999989
 11
130.15000000000003
 21
-151.28564064605499
 72
     1
 10
130.15000000000003
 20
-151.28564064605499
 11
130.15000000000012
 21
-149.21435935394476
 72
     1
 10
130.15000000000012
 20
-149.21435935394476
 11
130.95000000000005
 21
-148.99999999999986
 72
     1
 10
130.95000000000005
 20
-148.99999999999986
 11
133.15000000000006
 21
-148.99999999999935
 72
     1
 10
133.15000000000006
 20
-148.99999999999935
 11
133.15000000000006
 21
-151.99999999999991
 97
        0
 75
     0
 76
     0
 98
        1
 10
0.00000000000000
 20
0.00000000000000
  0
HATCH
  5
222
330
2A
100
AcDbEntity
  8
Details 10
 62
     7
370
    18
100
AcDbHatch
 10
0.00000000000000
 20
0.00000000000000
 30
0.00000000000000
210
0.00000000000000
220
0.00000000000000
230
1.00000000000000
  2
SCHRAFFUR
 70
     0
 71
     0
 91
        1
 92
        0
 93
       22
 72
     1
 10
133.15000000000006
 20
-151.99999999999991
 11
146.39999999999995
 21
-151.99999999999983
 72
     1
 10
146.39999999999995
 20
-151.99999999999983
 11
146.39999999999995
 21
-148.99999999999986
 72
     1
 10
146.39999999999995
 20
-148.99999999999986
 11
147.79999999999998
 21
-148.99999999999986
 72
     1
 10
147.79999999999998
 20
-148.99999999999986
 11
147.79999999999998
 21
-148.99999999999989
 72
     1
 10
147.79999999999998
 20
-148.99999999999989
 11
149.00000000000003
 21
-148.99999999999989
 72
     1
 10
149.00000000000003
 20
-148.99999999999989
 11
149.00000000000009
 21
-148.99999999999986
 72
     1
 10
149.00000000000009
 20
-148.99999999999986
 11
150.39999999999998
 21
-148.99999999999986
 72
     1
 10
150.39999999999998
 20
-148.99999999999986
 11
150.39999999999998
 21
-151.99999999999989
 72
     1
 10
150.39999999999998
 20
-151.99999999999989
 11
163.64999999999998
 21
-151.99999999999991
 72
     1
 10
163.64999999999998
 20
-151.99999999999991
 11
163.64999999999998
 21
-148.99999999999943
 72
     1
 10
163.64999999999998
 20
-148.99999999999943
 11
166.64999999999992
 21
-148.99999999999940
 72
     1
 10
166.64999999999992
 20
-148.99999999999940
 11
166.65000000000001
 21
-151.99999999999989
 72
     1
 10
166.65000000000001
 20
-151.99999999999989
 11
167.45000000000010
 21
-152.21435935394479
 72
     1
 10
167.45000000000010
 20
-152.21435935394479
 11
167.45000000000002
 21
-154.19999999999993
 72
     1
 10
167.45000000000002
 20
-154.19999999999993
 11
166.65000000000001
 21
-154.99999999999991
 72
     1
 10
166.65000000000001
 20
-154.99999999999991
 11
130.95000000000016
 21
-154.99999999999991
 72
     1
 10
130.95000000000016
 20
-154.99999999999991
 11
130.95000000000005
 21
-151.49999999999989
 72
     1
 10
130.95000000000005
 20
-151.49999999999989
 11
130.15000000000003
 21
-151.28564064605499
 72
     1
 10
130.15000000000003
 20
-151.28564064605499
 11
130.15000000000012
 21
-149.21435935394476
 72
     1
 10
130.15000000000012
 20
-149.21435935394476
 11
130.95000000000005
 21
-148.99999999999986
 72
     1
 10
130.95000000000005
 20
-148.99999999999986
 11
133.15000000000006
 21
-148.99999999999935
 72
     1
 10
133.15000000000006
 20
-148.99999999999935
 11
133.15000000000006
 21
-151.99999999999991
 97
        0
 75
     0
 76
     0
 52
225.00000000000014
 41
1.00000000000000
 77
     0
 78
     1
 53
225.00000000000014
 43
20.32239402667517
 44
-84.58240932408239
 45
2.82842712474620
 46
-2.82842712474618
 79
     0
 98
        1
 10
0.00000000000000
 20
0.00000000000000
  0
HATCH
  5
223
330
2A
100
AcDbEntity
  8
Details 10
 62
    30
100
AcDbHatch
 10
0.00000000000000
 20
0.00000000000000
 30
0.00000000000000
210
0.00000000000000
220
0.00000000000000
230
1.00000000000000
  2
SOLID
 70
     1
 71
     0
 91
        1
 92
        0
 93
       22
 72
     1
 10
96.35000000000005
 20
-151.99999999999991
 11
109.59999999999995
 21
-151.99999999999983
 72
     1
 10
109.59999999999995
 20
-151.99999999999983
 11
109.59999999999995
 21
-148.99999999999986
 72
     1
 10
109.59999999999995
 20
-148.99999999999986
 11
110.99999999999997
 21
-148.99999999999986
 72
     1
 10
110.99999999999997
 20
-148.99999999999986
 11
110.99999999999997
 21
-148.99999999999989
 72
     1
 10
110.99999999999997
 20
-148.99999999999989
 11
112.20000000000002
 21
-148.99999999999989
 72
     1
 10
112.20000000000002
 20
-148.99999999999989
 11
112.20000000000006
 21
-148.99999999999986
 72
     1
 10
112.20000000000006
 20
-148.99999999999986
 11
113.59999999999995
 21
-148.99999999999986
 72
     1
 10
113.59999999999995
 20
-148.99999999999986
 11
113.59999999999995
 21
-151.99999999999989
 72
     1
 10
113.59999999999995
 20
-151.99999999999989
 11
126.84999999999999
 21
-151.99999999999991
 72
     1
 10
126.84999999999999
 20
-151.99999999999991
 11
126.84999999999999
 21
-148.99999999999943
 72
     1
 10
126.84999999999999
 20
-148.99999999999943
 11
129.84999999999991
 21
-148.99999999999940
 72
     1
 10
129.84999999999991
 20
-148.99999999999940
 11
129.84999999999999
 21
-151.99999999999989
 72
     1
 10
129.84999999999999
 20
-151.99999999999989
 11
130.65000000000009
 21
-152.21435935394479
 72
     1
 10
130.65000000000009
 20
-152.21435935394479
 11
130.65000000000001
 21
-154.19999999999993
 72
     1
 10
130.65000000000001
 20
-154.19999999999993
 11
129.84999999999999
 21
-154.99999999999991
 72
     1
 10
129.84999999999999
 20
-154.99999999999991
 11
94.15000000000013
 21
-154.99999999999991
 72
     1
 10
94.15000000000013
 20
-154.99999999999991
 11
94.15000000000002
 21
-151.49999999999989
 72
     1
 10
94.15000000000002
 20
-151.49999999999989
 11
93.35000000000002
 21
-151.28564064605499
 72
     1
 10
93.35000000000002
 20
-151.28564064605499
 11
93.35000000000011
 21
-149.21435935394476
 72
     1
 10
93.35000000000011
 20
-149.21435935394476
 11
94.15000000000002
 21
-148.99999999999986
 72
     1
 10
94.15000000000002
 20
-148.99999999999986
 11
96.35000000000005
 21
-148.99999999999935
 72
     1
 10
96.35000000000005
 20
-148.99999999999935
 11
96.35000000000005
 21
-151.99999999999991
 97
        0
 75
     0
 76
     0
 98
        1
 10
0.00000000000000
 20
0.00000000000000
  0
HATCH
  5
224
330
2A
100
AcDbEntity
  8
Details 10
 62
     7
370
    18
100
AcDbHatch
 10
0.00000000000000
 20
0.00000000000000
 30
0.00000000000000
210
0.00000000000000
220
0.00000000000000
230
1.00000000000000
  2
SCHRAFFUR
 70
     0
 71
     0
 91
        1
 92
        0
 93
       22
 72
     1
 10
96.35000000000005
 20
-151.99999999999991
 11
109.59999999999995
 21
-151.99999999999983
 72
     1
 10
109.59999999999995
 20
-151.99999999999983
 11
109.59999999999995
 21
-148.99999999999986
 72
     1
 10
109.59999999999995
 20
-148.99999999999986
 11
110.99999999999997
 21
-148.99999999999986
 72
     1
 10
110.99999999999997
 20
-148.99999999999986
 11
110.99999999999997
 21
-148.99999999999989
 72
     1
 10
110.99999999999997
 20
-148.99999999999989
 11
112.20000000000002
 21
-148.99999999999989
 72
     1
 10
112.20000000000002
 20
-148.99999999999989
 11
112.20000000000006
 21
-148.99999999999986
 72
     1
 10
112.20000000000006
 20
-148.99999999999986
 11
113.59999999999995
 21
-148.99999999999986
 72
     1
 10
113.59999999999995
 20
-148.99999999999986
 11
113.59999999999995
 21
-151.99999999999989
 72
     1
 10
113.59999999999995
 20
-151.99999999999989
 11
126.84999999999999
 21
-151.99999999999991
 72
     1
 10
126.84999999999999
 20
-151.99999999999991
 11
126.84999999999999
 21
-148.99999999999943
 72
     1
 10
126.84999999999999
 20
-148.99999999999943
 11
129.84999999999991
 21
-148.99999999999940
 72
     1
 10
129.84999999999991
 20
-148.99999999999940
 11
129.84999999999999
 21
-151.99999999999989
 72
     1
 10
129.84999999999999
 20
-151.99999999999989
 11
130.65000000000009
 21
-152.21435935394479
 72
     1
 10
130.65000000000009
 20
-152.21435935394479
 11
130.65000000000001
 21
-154.19999999999993
 72
     1
 10
130.65000000000001
 20
-154.19999999999993
 11
129.84999999999999
 21
-154.99999999999991
 72
     1
 10
129.84999999999999
 20
-154.99999999999991
 11
94.15000000000013
 21
-154.99999999999991
 72
     1
 10
94.15000000000013
 20
-154.99999999999991
 11
94.15000000000002
 21
-151.49999999999989
 72
     1
 10
94.15000000000002
 20
-151.49999999999989
 11
93.35000000000002
 21
-151.28564064605499
 72
     1
 10
93.35000000000002
 20
-151.28564064605499
 11
93.35000000000011
 21
-149.21435935394476
 72
     1
 10
93.35000000000011
 20
-149.21435935394476
 11
94.15000000000002
 21
-148.99999999999986
 72
     1
 10
94.15000000000002
 20
-148.99999999999986
 11
96.35000000000005
 21
-148.99999999999935
 72
     1
 10
96.35000000000005
 20
-148.99999999999935
 11
96.35000000000005
 21
-151.99999999999991
 97
        0
 75
     0
 76
     0
 52
225.00000000000014
 41
1.00000000000000
 77
     0
 78
     1
 53
225.00000000000014
 43
-16.47760597332484
 44
-84.58240932408239
 45
2.82842712474620
 46
-2.82842712474618
 79
     0
 98
        1
 10
0.00000000000000
 20
0.00000000000000
  0
HATCH
  5
225
330
2A
100
AcDbEntity
  8
Details 10
 62
    30
100
AcDbHatch
 10
0.00000000000000
 20
0.00000000000000
 30
0.00000000000000
210
0.00000000000000
220
0.00000000000000
230
1.00000000000000
  2
SOLID
 70
     1
 71
     0
 91
        1
 92
        0
 93
       23
 72
     1
 10
94.15000000000002
 20
-130.99999999999991
 11
129.84999999999999
 21
-130.99999999999991
 72
     1
 10
129.84999999999999
 20
-130.99999999999991
 11
129.84999999999999
 21
-133.99999999999980
 72
     1
 10
129.84999999999999
 20
-133.99999999999980
 11
130.65000000000001
 21
-134.21435935394470
 72
     1
 10
130.65000000000001
 20
-134.21435935394470
 11
130.64999999999989
 21
-136.28564064605493
 72
     1
 10
130.64999999999989
 20
-136.28564064605493
 11
129.84999999999999
 21
-136.49999999999983
 72
     1
 10
129.84999999999999
 20
-136.49999999999983
 11
129.84999999999999
 21
-136.99999999999991
 72
     1
 10
129.84999999999999
 20
-136.99999999999991
 11
126.84999999999999
 21
-136.99999999999991
 72
     1
 10
126.84999999999999
 20
-136.99999999999991
 11
126.84999999999999
 21
-133.99999999999986
 72
     1
 10
126.84999999999999
 20
-133.99999999999986
 11
113.59999999999995
 21
-133.99999999999989
 72
     1
 10
113.59999999999995
 20
-133.99999999999989
 11
113.59999999999995
 21
-136.99999999999991
 72
     1
 10
113.59999999999995
 20
-136.99999999999991
 11
112.20000000000002
 21
-136.99999999999991
 72
     1
 10
112.20000000000002
 20
-136.99999999999991
 11
112.20000000000002
 21
-136.99999999999991
 72
     1
 10
112.20000000000002
 20
-136.99999999999991
 11
110.99999999999997
 21
-136.99999999999991
 72
     1
 10
110.99999999999997
 20
-136.99999999999991
 11
110.99999999999997
 21
-136.99999999999991
 72
     1
 10
110.99999999999997
 20
-136.99999999999991
 11
109.59999999999995
 21
-136.99999999999991
 72
     1
 10
109.59999999999995
 20
-136.99999999999991
 11
109.60000000000002
 21
-133.99999999999994
 72
     1
 10
109.60000000000002
 20
-133.99999999999994
 11
96.35000000000005
 21
-133.99999999999994
 72
     1
 10
96.35000000000005
 20
-133.99999999999994
 11
96.35000000000005
 21
-136.99999999999983
 72
     1
 10
96.35000000000005
 20
-136.99999999999983
 11
94.15000000000013
 21
-136.99999999999977
 72
     1
 10
94.15000000000013
 20
-136.99999999999977
 11
94.15000000000002
 21
-133.99999999999989
 72
     1
 10
94.15000000000002
 20
-133.99999999999989
 11
93.34999999999994
 21
-133.78564064605499
 72
     1
 10
93.34999999999994
 20
-133.78564064605499
 11
93.35000000000002
 21
-131.79999999999984
 72
     1
 10
93.35000000000002
 20
-131.79999999999984
 11
94.15000000000002
 21
-130.99999999999991
 97
        0
 75
     0
 76
     0
 98
        1
 10
0.00000000000000
 20
0.00000000000000
  0
HATCH
  5
226
330
2A
100
AcDbEntity
  8
Details 10
 62
     7
370
    18
100
AcDbHatch
 10
0.00000000000000
 20
0.00000000000000
 30
0.00000000000000
210
0.00000000000000
220
0.00000000000000
230
1.00000000000000
  2
SCHRAFFUR
 70
     0
 71
     0
 91
        1
 92
        0
 93
       23
 72
     1
 10
94.15000000000002
 20
-130.99999999999991
 11
129.84999999999999
 21
-130.99999999999991
 72
     1
 10
129.84999999999999
 20
-130.99999999999991
 11
129.84999999999999
 21
-133.99999999999980
 72
     1
 10
129.84999999999999
 20
-133.99999999999980
 11
130.65000000000001
 21
-134.21435935394470
 72
     1
 10
130.65000000000001
 20
-134.21435935394470
 11
130.64999999999989
 21
-136.28564064605493
 72
     1
 10
130.64999999999989
 20
-136.28564064605493
 11
129.84999999999999
 21
-136.49999999999983
 72
     1
 10
129.84999999999999
 20
-136.49999999999983
 11
129.84999999999999
 21
-136.99999999999991
 72
     1
 10
129.84999999999999
 20
-136.99999999999991
 11
126.84999999999999
 21
-136.99999999999991
 72
     1
 10
126.84999999999999
 20
-136.99999999999991
 11
126.84999999999999
 21
-133.99999999999986
 72
     1
 10
126.84999999999999
 20
-133.99999999999986
 11
113.59999999999995
 21
-133.99999999999989
 72
     1
 10
113.59999999999995
 20
-133.99999999999989
 11
113.59999999999995
 21
-136.99999999999991
 72
     1
 10
113.59999999999995
 20
-136.99999999999991
 11
112.20000000000002
 21
-136.99999999999991
 72
     1
 10
112.20000000000002
 20
-136.99999999999991
 11
112.20000000000002
 21
-136.99999999999991
 72
     1
 10
112.20000000000002
 20
-136.99999999999991
 11
110.99999999999997
 21
-136.99999999999991
 72
     1
 10
110.99999999999997
 20
-136.99999999999991
 11
110.99999999999997
 21
-136.99999999999991
 72
     1
 10
110.99999999999997
 20
-136.99999999999991
 11
109.59999999999995
 21
-136.99999999999991
 72
     1
 10
109.59999999999995
 20
-136.99999999999991
 11
109.60000000000002
 21
-133.99999999999994
 72
     1
 10
109.60000000000002
 20
-133.99999999999994
 11
96.35000000000005
 21
-133.99999999999994
 72
     1
 10
96.35000000000005
 20
-133.99999999999994
 11
96.35000000000005
 21
-136.99999999999983
 72
     1
 10
96.35000000000005
 20
-136.99999999999983
 11
94.15000000000013
 21
-136.99999999999977
 72
     1
 10
94.15000000000013
 20
-136.99999999999977
 11
94.15000000000002
 21
-133.99999999999989
 72
     1
 10
94.15000000000002
 20
-133.99999999999989
 11
93.34999999999994
 21
-133.78564064605499
 72
     1
 10
93.34999999999994
 20
-133.78564064605499
 11
93.35000000000002
 21
-131.79999999999984
 72
     1
 10
93.35000000000002
 20
-131.79999999999984
 11
94.15000000000002
 21
-130.99999999999991
 97
        0
 75
     0
 76
     0
 52
225.00000000000014
 41
1.00000000000000
 77
     0
 78
     1
 53
225.00000000000014
 43
-16.47760597332484
 44
-84.58240932408239
 45
2.82842712474620
 46
-2.82842712474618
 79
     0
 98
        1
 10
0.00000000000000
 20
0.00000000000000
  0
LINE
  5
227
330
2A
100
AcDbEntity
  8
Details 10
  6
CONTINUOUS
 62
     7
370
     9
100
AcDbLine
 10
117.87646811034685
 20
-155.08005619402684
 30
0.00000000000000
 11
117.91649620736028
 21
-154.99999999999991
 31
0.00000000000000
  0
LINE
  5
228
330
2A
100
AcDbEntity
  8
Details 10
  6
CONTINUOUS
 62
     7
370
     9
100
AcDbLine
 10
122.49882921937137
 20
-155.29630700614493
 30
0.00000000000000
 11
122.63991872996658
 21
-155.01412798495448
 31
0.00000000000000
  0
LINE
  5
229
330
2A
100
AcDbEntity
  8
Details 10
  6
CONTINUOUS
 62
     7
370
     9
100
AcDbLine
 10
122.63991872996660
 20
-155.01412798495448
 30
0.00000000000000
 11
123.01615742488721
 21
-155.01412798495448
 31
0.00000000000000
  0
LINE
  5
22A
330
2A
100
AcDbEntity
  8
Details 10
  6
CONTINUOUS
 62
     7
370
     9
100
AcDbLine
 10
118.44082615272775
 20
-155.08005619402684
 30
0.00000000000000
 11
118.42748345372328
 21
-154.99999999999991
 31
0.00000000000000
  0
LINE
  5
22B
330
2A
100
AcDbEntity
  8
Details 10
  6
CONTINUOUS
 62
     7
370
     9
100
AcDbLine
 10
123.06318726175228
 20
-155.29630700614493
 30
0.00000000000000
 11
123.01615742488721
 21
-155.01412798495448
 31
0.00000000000000
  0
LINE
  5
22C
330
2A
100
AcDbEntity
  8
Details 10
  6
CONTINUOUS
 62
     7
370
     9
100
AcDbLine
 10
113.48925618564772
 20
-155.05192472936909
 30
0.00000000000000
 11
113.58012446204368
 21
-154.99999999999997
 31
0.00000000000000
  0
LINE
  5
22D
330
2A
100
AcDbEntity
  8
Details 10
  6
CONTINUOUS
 62
     7
370
     9
100
AcDbLine
 10
118.11161729467223
 20
-155.26817554148718
 30
0.00000000000000
 11
118.44082615272775
 21
-155.08005619402684
 31
0.00000000000000
  0
LINE
  5
22E
330
2A
100
AcDbEntity
  8
Details 10
  6
CONTINUOUS
 62
     7
370
     9
100
AcDbLine
 10
122.73397840369677
 20
-155.48442635360527
 30
0.00000000000000
 11
123.06318726175228
 21
-155.29630700614493
 31
0.00000000000000
  0
LINE
  5
22F
330
2A
100
AcDbEntity
  8
Details 10
  6
CONTINUOUS
 62
     7
370
     9
100
AcDbLine
 10
113.42435027393633
 20
-154.99999999999997
 30
0.00000000000000
 11
113.48925618564772
 21
-155.05192472936906
 31
0.00000000000000
  0
LINE
  5
230
330
2A
100
AcDbEntity
  8
Details 10
  6
CONTINUOUS
 62
     7
370
     9
100
AcDbLine
 10
117.87646811034685
 20
-155.08005619402681
 30
0.00000000000000
 11
118.11161729467223
 21
-155.26817554148715
 31
0.00000000000000
  0
LINE
  5
231
330
2A
100
AcDbEntity
  8
Details 10
  6
CONTINUOUS
 62
     7
370
     9
100
AcDbLine
 10
122.49882921937137
 20
-155.29630700614490
 30
0.00000000000000
 11
122.73397840369677
 21
-155.48442635360527
 31
0.00000000000000
  0
LINE
  5
232
330
2A
100
AcDbEntity
  8
Details 10
  6
CONTINUOUS
 62
     7
370
     9
100
AcDbLine
 10
103.79093374486909
 20
-155.04445967589845
 30
0.00000000000000
 11
103.85021331273380
 21
-154.99999999999991
 31
0.00000000000000
  0
LINE
  5
233
330
2A
100
AcDbEntity
  8
Details 10
  6
CONTINUOUS
 62
     7
370
     9
100
AcDbLine
 10
108.41329485389362
 20
-155.26071048801654
 30
0.00000000000000
 11
108.62954566601174
 21
-155.09852237892795
 31
0.00000000000000
  0
LINE
  5
234
330
2A
100
AcDbEntity
  8
Details 10
  6
CONTINUOUS
 62
     7
370
     9
100
AcDbLine
 10
113.03565596291814
 20
-155.47696130013460
 30
0.00000000000000
 11
113.25190677503626
 21
-155.31477319104602
 31
0.00000000000000
  0
LINE
  5
235
330
2A
100
AcDbEntity
  8
Details 10
  6
CONTINUOUS
 62
     7
370
     9
100
AcDbLine
 10
117.65801707194267
 20
-155.69321211225270
 30
0.00000000000000
 11
117.87426788406077
 21
-155.53102400316413
 31
0.00000000000000
  0
LINE
  5
236
330
2A
100
AcDbEntity
  8
Details 10
  6
CONTINUOUS
 62
     7
370
     9
100
AcDbLine
 10
122.28037818096718
 20
-155.90946292437079
 30
0.00000000000000
 11
122.49662899308530
 21
-155.74727481528222
 31
0.00000000000000
  0
LINE
  5
237
330
2A
100
AcDbEntity
  8
Details 10
  6
CONTINUOUS
 62
     7
370
     9
100
AcDbLine
 10
103.95312185395767
 20
-155.12555373044276
 30
0.00000000000000
 11
103.98102268294495
 21
-154.99999999999994
 31
0.00000000000000
  0
LINE
  5
238
330
2A
100
AcDbEntity
  8
Details 10
  6
CONTINUOUS
 62
     7
370
     9
100
AcDbLine
 10
108.57548296298219
 20
-155.34180454256085
 30
0.00000000000000
 11
108.62954566601174
 21
-155.09852237892795
 31
0.00000000000000
  0
LINE
  5
239
330
2A
100
AcDbEntity
  8
Details 10
  6
CONTINUOUS
 62
     7
370
     9
100
AcDbLine
 10
113.19784407200670
 20
-155.55805535467891
 30
0.00000000000000
 11
113.25190677503626
 21
-155.31477319104602
 31
0.00000000000000
  0
LINE
  5
23A
330
2A
100
AcDbEntity
  8
Details 10
  6
CONTINUOUS
 62
     7
370
     9
100
AcDbLine
 10
117.82020518103123
 20
-155.77430616679700
 30
0.00000000000000
 11
117.87426788406077
 21
-155.53102400316413
 31
0.00000000000000
  0
LINE
  5
23B
330
2A
100
AcDbEntity
  8
Details 10
  6
CONTINUOUS
 62
     7
370
     9
100
AcDbLine
 10
122.44256629005574
 20
-155.99055697891509
 30
0.00000000000000
 11
122.49662899308530
 21
-155.74727481528222
 31
0.00000000000000
  0
LINE
  5
23C
330
2A
100
AcDbEntity
  8
Details 10
  6
CONTINUOUS
 62
     7
370
     9
100
AcDbLine
 10
103.79093374486909
 20
-155.04445967589848
 30
0.00000000000000
 11
103.95312185395768
 21
-155.12555373044276
 31
0.00000000000000
  0
LINE
  5
23D
330
2A
100
AcDbEntity
  8
Details 10
  6
CONTINUOUS
 62
     7
370
     9
100
AcDbLine
 10
108.41329485389360
 20
-155.26071048801657
 30
0.00000000000000
 11
108.57548296298219
 21
-155.34180454256085
 31
0.00000000000000
  0
LINE
  5
23E
330
2A
100
AcDbEntity
  8
Details 10
  6
CONTINUOUS
 62
     7
370
     9
100
AcDbLine
 10
113.03565596291814
 20
-155.47696130013463
 30
0.00000000000000
 11
113.19784407200672
 21
-155.55805535467891
 31
0.00000000000000
  0
LINE
  5
23F
330
2A
100
AcDbEntity
  8
Details 10
  6
CONTINUOUS
 62
     7
370
     9
100
AcDbLine
 10
117.65801707194264
 20
-155.69321211225272
 30
0.00000000000000
 11
117.82020518103123
 21
-155.77430616679700
 31
0.00000000000000
  0
LINE
  5
240
330
2A
100
AcDbEntity
  8
Details 10
  6
CONTINUOUS
 62
     7
370
     9
100
AcDbLine
 10
122.28037818096718
 20
-155.90946292437079
 30
0.00000000000000
 11
122.44256629005577
 21
-155.99055697891509
 31
0.00000000000000
  0
LINE
  5
241
330
2A
100
AcDbEntity
  8
Details 10
  6
CONTINUOUS
 62
     7
370
     9
100
AcDbLine
 10
114.19470373862383
 20
-155.19301423996430
 30
0.00000000000000
 11
114.42985292294921
 21
-155.09895456623411
 31
0.00000000000000
  0
LINE
  5
242
330
2A
100
AcDbEntity
  8
Details 10
  6
CONTINUOUS
 62
     7
370
     9
100
AcDbLine
 10
118.81706484764837
 20
-155.40926505208239
 30
0.00000000000000
 11
119.05221403197373
 21
-155.31520537835220
 31
0.00000000000000
  0
LINE
  5
243
330
2A
100
AcDbEntity
  8
Details 10
  6
CONTINUOUS
 62
     7
370
     9
100
AcDbLine
 10
123.43942595667288
 20
-155.62551586420048
 30
0.00000000000000
 11
123.67457514099824
 21
-155.53145619047029
 31
0.00000000000000
  0
LINE
  5
244
330
2A
100
AcDbEntity
  8
Details 10
  6
CONTINUOUS
 62
     7
370
     9
100
AcDbLine
 10
109.90155148765484
 20
-155.11785293844147
 30
0.00000000000000
 11
109.85441031227826
 21
-154.99999999999994
 31
0.00000000000000
  0
LINE
  5
245
330
2A
100
AcDbEntity
  8
Details 10
  6
CONTINUOUS
 62
     7
370
     9
100
AcDbLine
 10
114.52391259667937
 20
-155.33410375055954
 30
0.00000000000000
 11
114.42985292294921
 21
-155.09895456623411
 31
0.00000000000000
  0
LINE
  5
246
330
2A
100
AcDbEntity
  8
Details 10
  6
CONTINUOUS
 62
     7
370
     9
100
AcDbLine
 10
119.14627370570388
 20
-155.55035456267763
 30
0.00000000000000
 11
119.05221403197373
 21
-155.31520537835220
 31
0.00000000000000
  0
LINE
  5
247
330
2A
100
AcDbEntity
  8
Details 10
  6
CONTINUOUS
 62
     7
370
     9
100
AcDbLine
 10
123.76863481472840
 20
-155.76660537479569
 30
0.00000000000000
 11
123.67457514099824
 21
-155.53145619047029
 31
0.00000000000000
  0
LINE
  5
248
330
2A
100
AcDbEntity
  8
Details 10
  6
CONTINUOUS
 62
     7
370
     9
100
AcDbLine
 10
109.62656129795808
 20
-154.99999999999994
 30
0.00000000000000
 11
109.90155148765484
 21
-155.11785293844147
 31
0.00000000000000
  0
LINE
  5
249
330
2A
100
AcDbEntity
  8
Details 10
  6
CONTINUOUS
 62
     7
370
     9
100
AcDbLine
 10
114.19470373862382
 20
-155.19301423996427
 30
0.00000000000000
 11
114.52391259667937
 21
-155.33410375055954
 31
0.00000000000000
  0
LINE
  5
24A
330
2A
100
AcDbEntity
  8
Details 10
  6
CONTINUOUS
 62
     7
370
     9
100
AcDbLine
 10
118.81706484764834
 20
-155.40926505208236
 30
0.00000000000000
 11
119.14627370570388
 21
-155.55035456267763
 31
0.00000000000000
  0
LINE
  5
24B
330
2A
100
AcDbEntity
  8
Details 10
  6
CONTINUOUS
 62
     7
370
     9
100
AcDbLine
 10
123.43942595667285
 20
-155.62551586420045
 30
0.00000000000000
 11
123.76863481472840
 21
-155.76660537479569
 31
0.00000000000000
  0
LINE
  5
24C
330
2A
100
AcDbEntity
  8
Details 10
  6
CONTINUOUS
 62
     7
370
     9
100
AcDbLine
 10
119.75766158494987
 20
-155.03302635716176
 30
0.00000000000000
 11
119.73407132983429
 21
-154.99999999999994
 31
0.00000000000000
  0
LINE
  5
24D
330
2A
100
AcDbEntity
  8
Details 10
  6
CONTINUOUS
 62
     7
370
     9
100
AcDbLine
 10
119.42845272689434
 20
-155.08005619402684
 30
0.00000000000000
 11
119.75766158494986
 21
-155.03302635716176
 31
0.00000000000000
  0
LINE
  5
24E
330
2A
100
AcDbEntity
  8
Details 10
  6
CONTINUOUS
 62
     7
370
     9
100
AcDbLine
 10
119.42845272689434
 20
-155.08005619402684
 30
0.00000000000000
 11
119.44846677540104
 21
-154.99999999999994
 31
0.00000000000000
  0
LINE
  5
24F
330
2A
100
AcDbEntity
  8
Details 10
  6
CONTINUOUS
 62
     7
370
     9
100
AcDbLine
 10
110.49470892053040
 20
-155.12555373044276
 30
0.00000000000000
 11
110.60770727792895
 21
-154.99999999999994
 31
0.00000000000000
  0
LINE
  5
250
330
2A
100
AcDbEntity
  8
Details 10
  6
CONTINUOUS
 62
     7
370
     9
100
AcDbLine
 10
115.11707002955491
 20
-155.34180454256082
 30
0.00000000000000
 11
115.36035219318779
 21
-155.07149102741315
 31
0.00000000000000
  0
LINE
  5
251
330
2A
100
AcDbEntity
  8
Details 10
  6
CONTINUOUS
 62
     7
370
     9
100
AcDbLine
 10
119.73943113857943
 20
-155.55805535467891
 30
0.00000000000000
 11
119.98271330221232
 21
-155.28774183953126
 31
0.00000000000000
  0
LINE
  5
252
330
2A
100
AcDbEntity
  8
Details 10
  6
CONTINUOUS
 62
     7
370
     9
100
AcDbLine
 10
110.73799108416327
 20
-155.01742832438367
 30
0.00000000000000
 11
110.73799108416327
 21
-154.99999999999994
 31
0.00000000000000
  0
LINE
  5
253
330
2A
100
AcDbEntity
  8
Details 10
  6
CONTINUOUS
 62
     7
370
     9
100
AcDbLine
 10
115.36035219318779
 20
-155.23367913650176
 30
0.00000000000000
 11
115.36035219318779
 21
-155.07149102741315
 31
0.00000000000000
  0
LINE
  5
254
330
2A
100
AcDbEntity
  8
Details 10
  6
CONTINUOUS
 62
     7
370
     9
100
AcDbLine
 10
119.98271330221232
 20
-155.44992994861983
 30
0.00000000000000
 11
119.98271330221232
 21
-155.28774183953126
 31
0.00000000000000
  0
LINE
  5
255
330
2A
100
AcDbEntity
  8
Details 10
  6
CONTINUOUS
 62
     7
370
     9
100
AcDbLine
 10
110.49470892053040
 20
-155.12555373044276
 30
0.00000000000000
 11
110.73799108416327
 21
-155.01742832438370
 31
0.00000000000000
  0
LINE
  5
256
330
2A
100
AcDbEntity
  8
Details 10
  6
CONTINUOUS
 62
     7
370
     9
100
AcDbLine
 10
115.11707002955491
 20
-155.34180454256082
 30
0.00000000000000
 11
115.36035219318779
 21
-155.23367913650176
 31
0.00000000000000
  0
LINE
  5
257
330
2A
100
AcDbEntity
  8
Details 10
  6
CONTINUOUS
 62
     7
370
     9
100
AcDbLine
 10
119.73943113857943
 20
-155.55805535467891
 30
0.00000000000000
 11
119.98271330221232
 21
-155.44992994861983
 31
0.00000000000000
  0
LINE
  5
258
330
2A
100
AcDbEntity
  8
Details 10
  6
CONTINUOUS
 62
     7
370
     9
100
AcDbLine
 10
100.38498345400892
 20
-155.09852237892801
 30
0.00000000000000
 11
100.51165508405930
 21
-154.99999999999994
 31
0.00000000000000
  0
LINE
  5
259
330
2A
100
AcDbEntity
  8
Details 10
  6
CONTINUOUS
 62
     7
370
     9
100
AcDbLine
 10
105.00734456303346
 20
-155.31477319104610
 30
0.00000000000000
 11
105.25062672666633
 21
-155.12555373044276
 31
0.00000000000000
  0
LINE
  5
25A
330
2A
100
AcDbEntity
  8
Details 10
  6
CONTINUOUS
 62
     7
370
     9
100
AcDbLine
 10
109.62970567205797
 20
-155.53102400316422
 30
0.00000000000000
 11
109.87298783569084
 21
-155.34180454256085
 31
0.00000000000000
  0
LINE
  5
25B
330
2A
100
AcDbEntity
  8
Details 10
  6
CONTINUOUS
 62
     7
370
     9
100
AcDbLine
 10
114.25206678108249
 20
-155.74727481528228
 30
0.00000000000000
 11
114.49534894471536
 21
-155.55805535467891
 31
0.00000000000000
  0
LINE
  5
25C
330
2A
100
AcDbEntity
  8
Details 10
  6
CONTINUOUS
 62
     7
370
     9
100
AcDbLine
 10
118.87442789010700
 20
-155.96352562740034
 30
0.00000000000000
 11
119.11771005373988
 21
-155.77430616679700
 31
0.00000000000000
  0
LINE
  5
25D
330
2A
100
AcDbEntity
  8
Details 10
  6
CONTINUOUS
 62
     7
370
     9
100
AcDbLine
 10
123.49678899913152
 20
-156.17977643951843
 30
0.00000000000000
 11
123.74007116276441
 21
-155.99055697891509
 31
0.00000000000000
  0
LINE
  5
25E
330
2A
100
AcDbEntity
  8
Details 10
  6
CONTINUOUS
 62
     7
370
     9
100
AcDbLine
 10
105.25062672666633
 20
-155.12555373044276
 30
0.00000000000000
 11
105.43984618726968
 21
-155.17961643347223
 31
0.00000000000000
  0
LINE
  5
25F
330
2A
100
AcDbEntity
  8
Details 10
  6
CONTINUOUS
 62
     7
370
     9
100
AcDbLine
 10
109.87298783569084
 20
-155.34180454256085
 30
0.00000000000000
 11
110.06220729629419
 21
-155.39586724559035
 31
0.00000000000000
  0
LINE
  5
260
330
2A
100
AcDbEntity
  8
Details 10
  6
CONTINUOUS
 62
     7
370
     9
100
AcDbLine
 10
114.49534894471536
 20
-155.55805535467891
 30
0.00000000000000
 11
114.68456840531871
 21
-155.61211805770841
 31
0.00000000000000
  0
LINE
  5
261
330
2A
100
AcDbEntity
  8
Details 10
  6
CONTINUOUS
 62
     7
370
     9
100
AcDbLine
 10
119.11771005373988
 20
-155.77430616679700
 30
0.00000000000000
 11
119.30692951434324
 21
-155.82836886982651
 31
0.00000000000000
  0
LINE
  5
262
330
2A
100
AcDbEntity
  8
Details 10
  6
CONTINUOUS
 62
     7
370
     9
100
AcDbLine
 10
123.74007116276441
 20
-155.99055697891509
 30
0.00000000000000
 11
123.92929062336775
 21
-156.04461968194460
 31
0.00000000000000
  0
LINE
  5
263
330
2A
100
AcDbEntity
  8
Details 10
  6
CONTINUOUS
 62
     7
370
     9
100
AcDbLine
 10
100.84451642975992
 20
-155.23367913650182
 30
0.00000000000000
 11
100.82114851610973
 21
-154.99999999999994
 31
0.00000000000000
  0
LINE
  5
264
330
2A
100
AcDbEntity
  8
Details 10
  6
CONTINUOUS
 62
     7
370
     9
100
AcDbLine
 10
105.46687753878443
 20
-155.44992994861991
 30
0.00000000000000
 11
105.43984618726968
 21
-155.17961643347223
 31
0.00000000000000
  0
LINE
  5
265
330
2A
100
AcDbEntity
  8
Details 10
  6
CONTINUOUS
 62
     7
370
     9
100
AcDbLine
 10
110.08923864780895
 20
-155.66618076073800
 30
0.00000000000000
 11
110.06220729629419
 21
-155.39586724559035
 31
0.00000000000000
  0
LINE
  5
266
330
2A
100
AcDbEntity
  8
Details 10
  6
CONTINUOUS
 62
     7
370
     9
100
AcDbLine
 10
114.71159975683348
 20
-155.88243157285609
 30
0.00000000000000
 11
114.68456840531871
 21
-155.61211805770841
 31
0.00000000000000
  0
LINE
  5
267
330
2A
100
AcDbEntity
  8
Details 10
  6
CONTINUOUS
 62
     7
370
     9
100
AcDbLine
 10
119.33396086585800
 20
-156.09868238497415
 30
0.00000000000000
 11
119.30692951434324
 21
-155.82836886982651
 31
0.00000000000000
  0
LINE
  5
268
330
2A
100
AcDbEntity
  8
Details 10
  6
CONTINUOUS
 62
     7
370
     9
100
AcDbLine
 10
123.95632197488251
 20
-156.31493319709224
 30
0.00000000000000
 11
123.92929062336775
 21
-156.04461968194460
 31
0.00000000000000
  0
LINE
  5
269
330
2A
100
AcDbEntity
  8
Details 10
  6
CONTINUOUS
 62
     7
370
     9
100
AcDbLine
 10
100.38498345400892
 20
-155.09852237892801
 30
0.00000000000000
 11
100.84451642975989
 21
-155.23367913650182
 31
0.00000000000000
  0
LINE
  5
26A
330
2A
100
AcDbEntity
  8
Details 10
  6
CONTINUOUS
 62
     7
370
     9
100
AcDbLine
 10
105.00734456303346
 20
-155.31477319104610
 30
0.00000000000000
 11
105.46687753878442
 21
-155.44992994861991
 31
0.00000000000000
  0
LINE
  5
26B
330
2A
100
AcDbEntity
  8
Details 10
  6
CONTINUOUS
 62
     7
370
     9
100
AcDbLine
 10
109.62970567205797
 20
-155.53102400316422
 30
0.00000000000000
 11
110.08923864780894
 21
-155.66618076073800
 31
0.00000000000000
  0
LINE
  5
26C
330
2A
100
AcDbEntity
  8
Details 10
  6
CONTINUOUS
 62
     7
370
     9
100
AcDbLine
 10
114.25206678108249
 20
-155.74727481528228
 30
0.00000000000000
 11
114.71159975683345
 21
-155.88243157285609
 31
0.00000000000000
  0
LINE
  5
26D
330
2A
100
AcDbEntity
  8
Details 10
  6
CONTINUOUS
 62
     7
370
     9
100
AcDbLine
 10
118.87442789010700
 20
-155.96352562740034
 30
0.00000000000000
 11
119.33396086585797
 21
-156.09868238497415
 31
0.00000000000000
  0
LINE
  5
26E
330
2A
100
AcDbEntity
  8
Details 10
  6
CONTINUOUS
 62
     7
370
     9
100
AcDbLine
 10
123.49678899913152
 20
-156.17977643951843
 30
0.00000000000000
 11
123.95632197488248
 21
-156.31493319709224
 31
0.00000000000000
  0
LINE
  5
26F
330
2A
100
AcDbEntity
  8
Details 10
  6
CONTINUOUS
 62
     7
370
     9
100
AcDbLine
 10
104.00718455698721
 20
-155.80133751831184
 30
0.00000000000000
 11
104.08827861153149
 21
-155.58508670619369
 31
0.00000000000000
  0
LINE
  5
270
330
2A
100
AcDbEntity
  8
Details 10
  6
CONTINUOUS
 62
     7
370
     9
100
AcDbLine
 10
108.62954566601174
 20
-156.01758833042993
 30
0.00000000000000
 11
108.71063972055602
 21
-155.80133751831178
 31
0.00000000000000
  0
LINE
  5
271
330
2A
100
AcDbEntity
  8
Details 10
  6
CONTINUOUS
 62
     7
370
     9
100
AcDbLine
 10
113.25190677503626
 20
-156.23383914254802
 30
0.00000000000000
 11
113.33300082958053
 21
-156.01758833042987
 31
0.00000000000000
  0
LINE
  5
272
330
2A
100
AcDbEntity
  8
Details 10
  6
CONTINUOUS
 62
     7
370
     9
100
AcDbLine
 10
117.87426788406077
 20
-156.45008995466611
 30
0.00000000000000
 11
117.95536193860507
 21
-156.23383914254796
 31
0.00000000000000
  0
LINE
  5
273
330
2A
100
AcDbEntity
  8
Details 10
  6
CONTINUOUS
 62
     7
370
     9
100
AcDbLine
 10
122.55900678062932
 20
-156.50000000000011
 30
0.00000000000000
 11
122.57772304762958
 21
-156.45008995466603
 31
0.00000000000000
  0
LINE
  5
274
330
2A
100
AcDbEntity
  8
Details 10
  6
CONTINUOUS
 62
     7
370
     9
100
AcDbLine
 10
104.08827861153149
 20
-155.58508670619369
 30
0.00000000000000
 11
104.43968618122341
 21
-155.55805535467897
 31
0.00000000000000
  0
LINE
  5
275
330
2A
100
AcDbEntity
  8
Details 10
  6
CONTINUOUS
 62
     7
370
     9
100
AcDbLine
 10
108.71063972055602
 20
-155.80133751831178
 30
0.00000000000000
 11
109.06204729024793
 21
-155.77430616679706
 31
0.00000000000000
  0
LINE
  5
276
330
2A
100
AcDbEntity
  8
Details 10
  6
CONTINUOUS
 62
     7
370
     9
100
AcDbLine
 10
113.33300082958053
 20
-156.01758833042987
 30
0.00000000000000
 11
113.68440839927246
 21
-155.99055697891515
 31
0.00000000000000
  0
LINE
  5
277
330
2A
100
AcDbEntity
  8
Details 10
  6
CONTINUOUS
 62
     7
370
     9
100
AcDbLine
 10
117.95536193860507
 20
-156.23383914254796
 30
0.00000000000000
 11
118.30676950829698
 21
-156.20680779103324
 31
0.00000000000000
  0
LINE
  5
278
330
2A
100
AcDbEntity
  8
Details 10
  6
CONTINUOUS
 62
     7
370
     9
100
AcDbLine
 10
122.57772304762958
 20
-156.45008995466603
 30
0.00000000000000
 11
122.92913061732149
 21
-156.42305860315130
 31
0.00000000000000
  0
LINE
  5
279
330
2A
100
AcDbEntity
  8
Details 10
  6
CONTINUOUS
 62
     7
370
     9
100
AcDbLine
 10
104.49374888425294
 20
-155.72024346376756
 30
0.00000000000000
 11
104.43968618122341
 21
-155.55805535467897
 31
0.00000000000000
  0
LINE
  5
27A
330
2A
100
AcDbEntity
  8
Details 10
  6
CONTINUOUS
 62
     7
370
     9
100
AcDbLine
 10
109.11610999327746
 20
-155.93649427588565
 30
0.00000000000000
 11
109.06204729024793
 21
-155.77430616679706
 31
0.00000000000000
  0
LINE
  5
27B
330
2A
100
AcDbEntity
  8
Details 10
  6
CONTINUOUS
 62
     7
370
     9
100
AcDbLine
 10
113.73847110230197
 20
-156.15274508800371
 30
0.00000000000000
 11
113.68440839927246
 21
-155.99055697891515
 31
0.00000000000000
  0
LINE
  5
27C
330
2A
100
AcDbEntity
  8
Details 10
  6
CONTINUOUS
 62
     7
370
     9
100
AcDbLine
 10
118.36083221132650
 20
-156.36899590012183
 30
0.00000000000000
 11
118.30676950829698
 21
-156.20680779103324
 31
0.00000000000000
  0
LINE
  5
27D
330
2A
100
AcDbEntity
  8
Details 10
  6
CONTINUOUS
 62
     7
370
     9
100
AcDbLine
 10
122.95477774960442
 20
-156.50000000000011
 30
0.00000000000000
 11
122.92913061732149
 21
-156.42305860315130
 31
0.00000000000000
  0
LINE
  5
27E
330
2A
100
AcDbEntity
  8
Details 10
  6
CONTINUOUS
 62
     7
370
     9
100
AcDbLine
 10
104.00718455698721
 20
-155.80133751831184
 30
0.00000000000000
 11
104.49374888425294
 21
-155.72024346376756
 31
0.00000000000000
  0
LINE
  5
27F
330
2A
100
AcDbEntity
  8
Details 10
  6
CONTINUOUS
 62
     7
370
     9
100
AcDbLine
 10
108.62954566601174
 20
-156.01758833042993
 30
0.00000000000000
 11
109.11610999327746
 21
-155.93649427588565
 31
0.00000000000000
  0
LINE
  5
280
330
2A
100
AcDbEntity
  8
Details 10
  6
CONTINUOUS
 62
     7
370
     9
100
AcDbLine
 10
113.25190677503626
 20
-156.23383914254802
 30
0.00000000000000
 11
113.73847110230197
 21
-156.15274508800371
 31
0.00000000000000
  0
LINE
  5
281
330
2A
100
AcDbEntity
  8
Details 10
  6
CONTINUOUS
 62
     7
370
     9
100
AcDbLine
 10
117.87426788406077
 20
-156.45008995466611
 30
0.00000000000000
 11
118.36083221132650
 21
-156.36899590012183
 31
0.00000000000000
  0
LINE
  5
282
330
2A
100
AcDbEntity
  8
Details 10
  6
CONTINUOUS
 62
     7
370
     9
100
AcDbLine
 10
100.16830045458464
 20
-156.38636197187995
 30
0.00000000000000
 11
100.40344963891002
 21
-156.19824262441958
 31
0.00000000000000
  0
LINE
  5
283
330
2A
100
AcDbEntity
  8
Details 10
  6
CONTINUOUS
 62
     7
370
     9
100
AcDbLine
 10
104.91892754360673
 20
-156.49999999999997
 30
0.00000000000000
 11
105.02581074793454
 21
-156.41449343653767
 31
0.00000000000000
  0
LINE
  5
284
330
2A
100
AcDbEntity
  8
Details 10
  6
CONTINUOUS
 62
     7
370
     9
100
AcDbLine
 10
100.07424078085447
 20
-156.01012327695929
 30
0.00000000000000
 11
100.40344963891002
 21
-156.19824262441958
 31
0.00000000000000
  0
LINE
  5
285
330
2A
100
AcDbEntity
  8
Details 10
  6
CONTINUOUS
 62
     7
370
     9
100
AcDbLine
 10
104.69660188987901
 20
-156.22637408907738
 30
0.00000000000000
 11
105.02581074793454
 21
-156.41449343653767
 31
0.00000000000000
  0
LINE
  5
286
330
2A
100
AcDbEntity
  8
Details 10
  6
CONTINUOUS
 62
     7
370
     9
100
AcDbLine
 10
109.31896299890352
 20
-156.44262490119547
 30
0.00000000000000
 11
109.41936942181141
 21
-156.50000000000000
 31
0.00000000000000
  0
LINE
  5
287
330
2A
100
AcDbEntity
  8
Details 10
  6
CONTINUOUS
 62
     7
370
     9
100
AcDbLine
 10
100.16830045458464
 20
-156.38636197187995
 30
0.00000000000000
 11
100.07424078085447
 21
-156.01012327695929
 31
0.00000000000000
  0
LINE
  5
288
330
2A
100
AcDbEntity
  8
Details 10
  6
CONTINUOUS
 62
     7
370
     9
100
AcDbLine
 10
104.76500836760962
 20
-156.49999999999997
 30
0.00000000000000
 11
104.69660188987901
 21
-156.22637408907738
 31
0.00000000000000
  0
LINE
  5
289
330
2A
100
AcDbEntity
  8
Details 10
  6
CONTINUOUS
 62
     7
370
     9
100
AcDbLine
 10
109.33330677360463
 20
-156.49999999999997
 30
0.00000000000000
 11
109.31896299890352
 21
-156.44262490119547
 31
0.00000000000000
  0
LINE
  5
28A
330
2A
100
AcDbEntity
  8
Details 10
  6
CONTINUOUS
 62
     7
370
     9
100
AcDbLine
 10
100.92077784442584
 20
-156.19824262441958
 30
0.00000000000000
 11
101.10889719188614
 21
-156.01012327695929
 31
0.00000000000000
  0
LINE
  5
28B
330
2A
100
AcDbEntity
  8
Details 10
  6
CONTINUOUS
 62
     7
370
     9
100
AcDbLine
 10
105.54313895345035
 20
-156.41449343653767
 30
0.00000000000000
 11
105.73125830091067
 21
-156.22637408907738
 31
0.00000000000000
  0
LINE
  5
28C
330
2A
100
AcDbEntity
  8
Details 10
  6
CONTINUOUS
 62
     7
370
     9
100
AcDbLine
 10
110.29624431113071
 20
-156.50000000000003
 30
0.00000000000000
 11
110.35361940993518
 21
-156.44262490119547
 31
0.00000000000000
  0
LINE
  5
28D
330
2A
100
AcDbEntity
  8
Details 10
  6
CONTINUOUS
 62
     7
370
     9
100
AcDbLine
 10
101.10889719188611
 20
-156.01012327695929
 30
0.00000000000000
 11
101.20295686561627
 21
-155.72794425576885
 31
0.00000000000000
  0
LINE
  5
28E
330
2A
100
AcDbEntity
  8
Details 10
  6
CONTINUOUS
 62
     7
370
     9
100
AcDbLine
 10
105.73125830091064
 20
-156.22637408907738
 30
0.00000000000000
 11
105.82531797464078
 21
-155.94419506788691
 31
0.00000000000000
  0
LINE
  5
28F
330
2A
100
AcDbEntity
  8
Details 10
  6
CONTINUOUS
 62
     7
370
     9
100
AcDbLine
 10
110.35361940993515
 20
-156.44262490119547
 30
0.00000000000000
 11
110.44767908366532
 21
-156.16044588000503
 31
0.00000000000000
  0
LINE
  5
290
330
2A
100
AcDbEntity
  8
Details 10
  6
CONTINUOUS
 62
     7
370
     9
100
AcDbLine
 10
115.02893909006417
 20
-156.50000000000000
 30
0.00000000000000
 11
115.07004019268983
 21
-156.37669669212309
 31
0.00000000000000
  0
LINE
  5
291
330
2A
100
AcDbEntity
  8
Details 10
  6
CONTINUOUS
 62
     7
370
     9
100
AcDbLine
 10
100.92077784442584
 20
-155.72794425576885
 30
0.00000000000000
 11
101.20295686561630
 21
-155.72794425576885
 31
0.00000000000000
  0
LINE
  5
292
330
2A
100
AcDbEntity
  8
Details 10
  6
CONTINUOUS
 62
     7
370
     9
100
AcDbLine
 10
105.54313895345035
 20
-155.94419506788691
 30
0.00000000000000
 11
105.82531797464081
 21
-155.94419506788691
 31
0.00000000000000
  0
LINE
  5
293
330
2A
100
AcDbEntity
  8
Details 10
  6
CONTINUOUS
 62
     7
370
     9
100
AcDbLine
 10
110.16550006247488
 20
-156.16044588000503
 30
0.00000000000000
 11
110.44767908366534
 21
-156.16044588000503
 31
0.00000000000000
  0
LINE
  5
294
330
2A
100
AcDbEntity
  8
Details 10
  6
CONTINUOUS
 62
     7
370
     9
100
AcDbLine
 10
114.78786117149940
 20
-156.37669669212309
 30
0.00000000000000
 11
115.07004019268985
 21
-156.37669669212309
 31
0.00000000000000
  0
LINE
  5
295
330
2A
100
AcDbEntity
  8
Details 10
  6
CONTINUOUS
 62
     7
370
     9
100
AcDbLine
 10
100.77968833383062
 20
-156.01012327695929
 30
0.00000000000000
 11
100.92077784442584
 21
-155.72794425576885
 31
0.00000000000000
  0
LINE
  5
296
330
2A
100
AcDbEntity
  8
Details 10
  6
CONTINUOUS
 62
     7
370
     9
100
AcDbLine
 10
105.40204944285513
 20
-156.22637408907738
 30
0.00000000000000
 11
105.54313895345035
 21
-155.94419506788691
 31
0.00000000000000
  0
LINE
  5
297
330
2A
100
AcDbEntity
  8
Details 10
  6
CONTINUOUS
 62
     7
370
     9
100
AcDbLine
 10
110.02441055187967
 20
-156.44262490119547
 30
0.00000000000000
 11
110.16550006247488
 21
-156.16044588000503
 31
0.00000000000000
  0
LINE
  5
298
330
2A
100
AcDbEntity
  8
Details 10
  6
CONTINUOUS
 62
     7
370
     9
100
AcDbLine
 10
114.72620951756092
 20
-156.50000000000000
 30
0.00000000000000
 11
114.78786117149940
 21
-156.37669669212309
 31
0.00000000000000
  0
LINE
  5
299
330
2A
100
AcDbEntity
  8
Details 10
  6
CONTINUOUS
 62
     7
370
     9
100
AcDbLine
 10
100.92077784442583
 20
-156.19824262441958
 30
0.00000000000000
 11
100.77968833383061
 21
-156.01012327695929
 31
0.00000000000000
  0
LINE
  5
29A
330
2A
100
AcDbEntity
  8
Details 10
  6
CONTINUOUS
 62
     7
370
     9
100
AcDbLine
 10
105.54313895345034
 20
-156.41449343653767
 30
0.00000000000000
 11
105.40204944285512
 21
-156.22637408907738
 31
0.00000000000000
  0
LINE
  5
29B
330
2A
100
AcDbEntity
  8
Details 10
  6
CONTINUOUS
 62
     7
370
     9
100
AcDbLine
 10
110.06744187598305
 20
-156.50000000000000
 30
0.00000000000000
 11
110.02441055187964
 21
-156.44262490119547
 31
0.00000000000000
  0
LINE
  5
29C
330
2A
100
AcDbEntity
  8
Details 10
  6
CONTINUOUS
 62
     7
370
     9
100
AcDbLine
 10
101.52030021762899
 20
-155.39586724559041
 30
0.00000000000000
 11
101.68248832671759
 21
-155.26071048801660
 31
0.00000000000000
  0
LINE
  5
29D
330
2A
100
AcDbEntity
  8
Details 10
  6
CONTINUOUS
 62
     7
370
     9
100
AcDbLine
 10
106.14266132665351
 20
-155.61211805770847
 30
0.00000000000000
 11
106.30484943574210
 21
-155.47696130013466
 31
0.00000000000000
  0
LINE
  5
29E
330
2A
100
AcDbEntity
  8
Details 10
  6
CONTINUOUS
 62
     7
370
     9
100
AcDbLine
 10
110.76502243567803
 20
-155.82836886982656
 30
0.00000000000000
 11
110.92721054476662
 21
-155.69321211225275
 31
0.00000000000000
  0
LINE
  5
29F
330
2A
100
AcDbEntity
  8
Details 10
  6
CONTINUOUS
 62
     7
370
     9
100
AcDbLine
 10
115.38738354470256
 20
-156.04461968194462
 30
0.00000000000000
 11
115.54957165379115
 21
-155.90946292437081
 31
0.00000000000000
  0
LINE
  5
2A0
330
2A
100
AcDbEntity
  8
Details 10
  6
CONTINUOUS
 62
     7
370
     9
100
AcDbLine
 10
120.00974465372707
 20
-156.26087049406271
 30
0.00000000000000
 11
120.17193276281566
 21
-156.12571373648893
 31
0.00000000000000
  0
LINE
  5
2A1
330
2A
100
AcDbEntity
  8
Details 10
  6
CONTINUOUS
 62
     7
370
     9
100
AcDbLine
 10
101.79061373277661
 20
-155.39586724559041
 30
0.00000000000000
 11
101.68248832671756
 21
-155.26071048801660
 31
0.00000000000000
  0
LINE
  5
2A2
330
2A
100
AcDbEntity
  8
Details 10
  6
CONTINUOUS
 62
     7
370
     9
100
AcDbLine
 10
106.41297484180112
 20
-155.61211805770850
 30
0.00000000000000
 11
106.30484943574209
 21
-155.47696130013469
 31
0.00000000000000
  0
LINE
  5
2A3
330
2A
100
AcDbEntity
  8
Details 10
  6
CONTINUOUS
 62
     7
370
     9
100
AcDbLine
 10
111.03533595082565
 20
-155.82836886982659
 30
0.00000000000000
 11
110.92721054476661
 21
-155.69321211225278
 31
0.00000000000000
  0
LINE
  5
2A4
330
2A
100
AcDbEntity
  8
Details 10
  6
CONTINUOUS
 62
     7
370
     9
100
AcDbLine
 10
115.65769705985016
 20
-156.04461968194465
 30
0.00000000000000
 11
115.54957165379112
 21
-155.90946292437084
 31
0.00000000000000
  0
LINE
  5
2A5
330
2A
100
AcDbEntity
  8
Details 10
  6
CONTINUOUS
 62
     7
370
     9
100
AcDbLine
 10
120.28005816887469
 20
-156.26087049406274
 30
0.00000000000000
 11
120.17193276281564
 21
-156.12571373648896
 31
0.00000000000000
  0
LINE
  5
2A6
330
2A
100
AcDbEntity
  8
Details 10
  6
CONTINUOUS
 62
     7
370
     9
100
AcDbLine
 10
101.52030021762899
 20
-155.39586724559041
 30
0.00000000000000
 11
101.79061373277661
 21
-155.39586724559041
 31
0.00000000000000
  0
LINE
  5
2A7
330
2A
100
AcDbEntity
  8
Details 10
  6
CONTINUOUS
 62
     7
370
     9
100
AcDbLine
 10
106.14266132665351
 20
-155.61211805770847
 30
0.00000000000000
 11
106.41297484180112
 21
-155.61211805770847
 31
0.00000000000000
  0
LINE
  5
2A8
330
2A
100
AcDbEntity
  8
Details 10
  6
CONTINUOUS
 62
     7
370
     9
100
AcDbLine
 10
110.76502243567803
 20
-155.82836886982656
 30
0.00000000000000
 11
111.03533595082565
 21
-155.82836886982656
 31
0.00000000000000
  0
LINE
  5
2A9
330
2A
100
AcDbEntity
  8
Details 10
  6
CONTINUOUS
 62
     7
370
     9
100
AcDbLine
 10
115.38738354470256
 20
-156.04461968194462
 30
0.00000000000000
 11
115.65769705985016
 21
-156.04461968194462
 31
0.00000000000000
  0
LINE
  5
2AA
330
2A
100
AcDbEntity
  8
Details 10
  6
CONTINUOUS
 62
     7
370
     9
100
AcDbLine
 10
120.00974465372707
 20
-156.26087049406271
 30
0.00000000000000
 11
120.28005816887469
 21
-156.26087049406271
 31
0.00000000000000
  0
LINE
  5
2AB
330
2A
100
AcDbEntity
  8
Details 10
  6
CONTINUOUS
 62
     7
370
     9
100
AcDbLine
 10
120.95584195674375
 20
-155.07149102741315
 30
0.00000000000000
 11
120.88435092933057
 21
-154.99999999999994
 31
0.00000000000000
  0
LINE
  5
2AC
330
2A
100
AcDbEntity
  8
Details 10
  6
CONTINUOUS
 62
     7
370
     9
100
AcDbLine
 10
120.64604750461984
 20
-154.99999999999994
 30
0.00000000000000
 11
120.95584195674378
 21
-155.07149102741315
 31
0.00000000000000
  0
LINE
  5
2AD
330
2A
100
AcDbEntity
  8
Details 10
  6
CONTINUOUS
 62
     7
370
     9
100
AcDbLine
 10
121.49823702601894
 20
-155.12818614403494
 30
0.00000000000000
 11
121.56233009803645
 21
-154.99999999999994
 31
0.00000000000000
  0
LINE
  5
2AE
330
2A
100
AcDbEntity
  8
Details 10
  6
CONTINUOUS
 62
     7
370
     9
100
AcDbLine
 10
117.15805493818486
 20
-155.10005467937717
 30
0.00000000000000
 11
117.10802759849624
 21
-154.99999999999994
 31
0.00000000000000
  0
LINE
  5
2AF
330
2A
100
AcDbEntity
  8
Details 10
  6
CONTINUOUS
 62
     7
370
     9
100
AcDbLine
 10
121.78041604720937
 20
-155.31630549149529
 30
0.00000000000000
 11
121.62226330146174
 21
-154.99999999999994
 31
0.00000000000000
  0
LINE
  5
2B0
330
2A
100
AcDbEntity
  8
Details 10
  6
CONTINUOUS
 62
     7
370
     9
100
AcDbLine
 10
117.00797291911907
 20
-154.99999999999997
 30
0.00000000000000
 11
117.15805493818488
 21
-155.10005467937717
 31
0.00000000000000
  0
LINE
  5
2B1
330
2A
100
AcDbEntity
  8
Details 10
  6
CONTINUOUS
 62
     7
370
     9
100
AcDbLine
 10
121.49823702601894
 20
-155.12818614403491
 30
0.00000000000000
 11
121.78041604720940
 21
-155.31630549149529
 31
0.00000000000000
  0
LINE
  5
2B2
330
2A
100
AcDbEntity
  8
Details 10
  6
CONTINUOUS
 62
     7
370
     9
100
AcDbLine
 10
107.19688403572927
 20
-155.17961643347223
 30
0.00000000000000
 11
107.22391538724403
 21
-155.07149102741323
 31
0.00000000000000
  0
LINE
  5
2B3
330
2A
100
AcDbEntity
  8
Details 10
  6
CONTINUOUS
 62
     7
370
     9
100
AcDbLine
 10
111.81924514475379
 20
-155.39586724559035
 30
0.00000000000000
 11
111.84627649626854
 21
-155.28774183953132
 31
0.00000000000000
  0
LINE
  5
2B4
330
2A
100
AcDbEntity
  8
Details 10
  6
CONTINUOUS
 62
     7
370
     9
100
AcDbLine
 10
116.44160625377830
 20
-155.61211805770841
 30
0.00000000000000
 11
116.46863760529308
 21
-155.50399265164938
 31
0.00000000000000
  0
LINE
  5
2B5
330
2A
100
AcDbEntity
  8
Details 10
  6
CONTINUOUS
 62
     7
370
     9
100
AcDbLine
 10
121.06396736280284
 20
-155.82836886982651
 30
0.00000000000000
 11
121.09099871431759
 21
-155.72024346376747
 31
0.00000000000000
  0
LINE
  5
2B6
330
2A
100
AcDbEntity
  8
Details 10
  6
CONTINUOUS
 62
     7
370
     9
100
AcDbLine
 10
107.22391538724403
 20
-155.07149102741323
 30
0.00000000000000
 11
107.57532295693595
 21
-155.04445967589845
 31
0.00000000000000
  0
LINE
  5
2B7
330
2A
100
AcDbEntity
  8
Details 10
  6
CONTINUOUS
 62
     7
370
     9
100
AcDbLine
 10
111.84627649626854
 20
-155.28774183953132
 30
0.00000000000000
 11
112.19768406596047
 21
-155.26071048801654
 31
0.00000000000000
  0
LINE
  5
2B8
330
2A
100
AcDbEntity
  8
Details 10
  6
CONTINUOUS
 62
     7
370
     9
100
AcDbLine
 10
116.46863760529308
 20
-155.50399265164938
 30
0.00000000000000
 11
116.82004517498500
 21
-155.47696130013460
 31
0.00000000000000
  0
LINE
  5
2B9
330
2A
100
AcDbEntity
  8
Details 10
  6
CONTINUOUS
 62
     7
370
     9
100
AcDbLine
 10
121.09099871431759
 20
-155.72024346376747
 30
0.00000000000000
 11
121.44240628400951
 21
-155.69321211225270
 31
0.00000000000000
  0
LINE
  5
2BA
330
2A
100
AcDbEntity
  8
Details 10
  6
CONTINUOUS
 62
     7
370
     9
100
AcDbLine
 10
107.71047971450977
 20
-155.20664778498704
 30
0.00000000000000
 11
107.57532295693598
 21
-155.04445967589845
 31
0.00000000000000
  0
LINE
  5
2BB
330
2A
100
AcDbEntity
  8
Details 10
  6
CONTINUOUS
 62
     7
370
     9
100
AcDbLine
 10
112.33284082353430
 20
-155.42289859710510
 30
0.00000000000000
 11
112.19768406596049
 21
-155.26071048801654
 31
0.00000000000000
  0
LINE
  5
2BC
330
2A
100
AcDbEntity
  8
Details 10
  6
CONTINUOUS
 62
     7
370
     9
100
AcDbLine
 10
116.95520193255881
 20
-155.63914940922319
 30
0.00000000000000
 11
116.82004517498501
 21
-155.47696130013460
 31
0.00000000000000
  0
LINE
  5
2BD
330
2A
100
AcDbEntity
  8
Details 10
  6
CONTINUOUS
 62
     7
370
     9
100
AcDbLine
 10
121.57756304158335
 20
-155.85540022134128
 30
0.00000000000000
 11
121.44240628400954
 21
-155.69321211225270
 31
0.00000000000000
  0
LINE
  5
2BE
330
2A
100
AcDbEntity
  8
Details 10
  6
CONTINUOUS
 62
     7
370
     9
100
AcDbLine
 10
102.81780509033763
 20
-155.15258508195751
 30
0.00000000000000
 11
103.07211356026691
 21
-154.99999999999994
 31
0.00000000000000
  0
LINE
  5
2BF
330
2A
100
AcDbEntity
  8
Details 10
  6
CONTINUOUS
 62
     7
370
     9
100
AcDbLine
 10
107.44016619936214
 20
-155.36883589407560
 30
0.00000000000000
 11
107.71047971450977
 21
-155.20664778498704
 31
0.00000000000000
  0
LINE
  5
2C0
330
2A
100
AcDbEntity
  8
Details 10
  6
CONTINUOUS
 62
     7
370
     9
100
AcDbLine
 10
112.06252730838666
 20
-155.58508670619369
 30
0.00000000000000
 11
112.33284082353430
 21
-155.42289859710510
 31
0.00000000000000
  0
LINE
  5
2C1
330
2A
100
AcDbEntity
  8
Details 10
  6
CONTINUOUS
 62
     7
370
     9
100
AcDbLine
 10
116.68488841741119
 20
-155.80133751831178
 30
0.00000000000000
 11
116.95520193255881
 21
-155.63914940922319
 31
0.00000000000000
  0
LINE
  5
2C2
330
2A
100
AcDbEntity
  8
Details 10
  6
CONTINUOUS
 62
     7
370
     9
100
AcDbLine
 10
121.30724952643570
 20
-156.01758833042987
 30
0.00000000000000
 11
121.57756304158335
 21
-155.85540022134128
 31
0.00000000000000
  0
LINE
  5
2C3
330
2A
100
AcDbEntity
  8
Details 10
  6
CONTINUOUS
 62
     7
370
     9
100
AcDbLine
 10
102.62162427067784
 20
-154.99999999999994
 30
0.00000000000000
 11
102.81780509033763
 21
-155.15258508195754
 31
0.00000000000000
  0
LINE
  5
2C4
330
2A
100
AcDbEntity
  8
Details 10
  6
CONTINUOUS
 62
     7
370
     9
100
AcDbLine
 10
107.19688403572927
 20
-155.17961643347226
 30
0.00000000000000
 11
107.44016619936214
 21
-155.36883589407563
 31
0.00000000000000
  0
LINE
  5
2C5
330
2A
100
AcDbEntity
  8
Details 10
  6
CONTINUOUS
 62
     7
370
     9
100
AcDbLine
 10
111.81924514475379
 20
-155.39586724559038
 30
0.00000000000000
 11
112.06252730838666
 21
-155.58508670619372
 31
0.00000000000000
  0
LINE
  5
2C6
330
2A
100
AcDbEntity
  8
Details 10
  6
CONTINUOUS
 62
     7
370
     9
100
AcDbLine
 10
116.44160625377830
 20
-155.61211805770844
 30
0.00000000000000
 11
116.68488841741119
 21
-155.80133751831178
 31
0.00000000000000
  0
LINE
  5
2C7
330
2A
100
AcDbEntity
  8
Details 10
  6
CONTINUOUS
 62
     7
370
     9
100
AcDbLine
 10
121.06396736280284
 20
-155.82836886982653
 30
0.00000000000000
 11
121.30724952643570
 21
-156.01758833042987
 31
0.00000000000000
  0
LINE
  5
2C8
330
2A
100
AcDbEntity
  8
Details 10
  6
CONTINUOUS
 62
     7
370
     9
100
AcDbLine
 10
101.84467643580615
 20
-155.88243157285615
 30
0.00000000000000
 11
102.03389589640949
 21
-155.82836886982665
 31
0.00000000000000
  0
LINE
  5
2C9
330
2A
100
AcDbEntity
  8
Details 10
  6
CONTINUOUS
 62
     7
370
     9
100
AcDbLine
 10
106.46703754483066
 20
-156.09868238497424
 30
0.00000000000000
 11
106.65625700543400
 21
-156.04461968194471
 31
0.00000000000000
  0
LINE
  5
2CA
330
2A
100
AcDbEntity
  8
Details 10
  6
CONTINUOUS
 62
     7
370
     9
100
AcDbLine
 10
111.08939865385520
 20
-156.31493319709233
 30
0.00000000000000
 11
111.27861811445852
 21
-156.26087049406280
 31
0.00000000000000
  0
LINE
  5
2CB
330
2A
100
AcDbEntity
  8
Details 10
  6
CONTINUOUS
 62
     7
370
     9
100
AcDbLine
 10
115.82090379511600
 20
-156.50000000000000
 30
0.00000000000000
 11
115.90097922348303
 21
-156.47712130618089
 31
0.00000000000000
  0
LINE
  5
2CC
330
2A
100
AcDbEntity
  8
Details 10
  6
CONTINUOUS
 62
     7
370
     9
100
AcDbLine
 10
102.11498995095376
 20
-155.99055697891524
 30
0.00000000000000
 11
102.03389589640949
 21
-155.82836886982665
 31
0.00000000000000
  0
LINE
  5
2CD
330
2A
100
AcDbEntity
  8
Details 10
  6
CONTINUOUS
 62
     7
370
     9
100
AcDbLine
 10
106.73735105997828
 20
-156.20680779103333
 30
0.00000000000000
 11
106.65625700543400
 21
-156.04461968194471
 31
0.00000000000000
  0
LINE
  5
2CE
330
2A
100
AcDbEntity
  8
Details 10
  6
CONTINUOUS
 62
     7
370
     9
100
AcDbLine
 10
111.35971216900280
 20
-156.42305860315142
 30
0.00000000000000
 11
111.27861811445852
 21
-156.26087049406280
 31
0.00000000000000
  0
LINE
  5
2CF
330
2A
100
AcDbEntity
  8
Details 10
  6
CONTINUOUS
 62
     7
370
     9
100
AcDbLine
 10
115.91241857039260
 20
-156.50000000000006
 30
0.00000000000000
 11
115.90097922348303
 21
-156.47712130618089
 31
0.00000000000000
  0
LINE
  5
2D0
330
2A
100
AcDbEntity
  8
Details 10
  6
CONTINUOUS
 62
     7
370
     9
100
AcDbLine
 10
101.84467643580615
 20
-155.88243157285615
 30
0.00000000000000
 11
102.11498995095376
 21
-155.99055697891521
 31
0.00000000000000
  0
LINE
  5
2D1
330
2A
100
AcDbEntity
  8
Details 10
  6
CONTINUOUS
 62
     7
370
     9
100
AcDbLine
 10
106.46703754483066
 20
-156.09868238497424
 30
0.00000000000000
 11
106.73735105997828
 21
-156.20680779103330
 31
0.00000000000000
  0
LINE
  5
2D2
330
2A
100
AcDbEntity
  8
Details 10
  6
CONTINUOUS
 62
     7
370
     9
100
AcDbLine
 10
111.08939865385520
 20
-156.31493319709233
 30
0.00000000000000
 11
111.35971216900280
 21
-156.42305860315139
 31
0.00000000000000
  0
LINE
  5
2D3
330
2A
100
AcDbEntity
  8
Details 10
  6
CONTINUOUS
 62
     7
370
     9
100
AcDbLine
 10
101.83200705014252
 20
-156.49999999999997
 30
0.00000000000000
 11
101.86137458172733
 21
-156.48042164561005
 31
0.00000000000000
  0
LINE
  5
2D4
330
2A
100
AcDbEntity
  8
Details 10
  6
CONTINUOUS
 62
     7
370
     9
100
AcDbLine
 10
101.88095293611721
 20
-156.49999999999994
 30
0.00000000000000
 11
101.86137458172733
 21
-156.48042164561005
 31
0.00000000000000
  0
LINE
  5
2D5
330
2A
100
AcDbEntity
  8
Details 10
  6
CONTINUOUS
 62
     7
370
     9
100
AcDbLine
 10
102.42573262410824
 20
-156.38636197187995
 30
0.00000000000000
 11
102.70791164529868
 21
-156.19824262441958
 31
0.00000000000000
  0
LINE
  5
2D6
330
2A
100
AcDbEntity
  8
Details 10
  6
CONTINUOUS
 62
     7
370
     9
100
AcDbLine
 10
107.20201290912983
 20
-156.50000000000000
 30
0.00000000000000
 11
107.33027275432322
 21
-156.41449343653767
 31
0.00000000000000
  0
LINE
  5
2D7
330
2A
100
AcDbEntity
  8
Details 10
  6
CONTINUOUS
 62
     7
370
     9
100
AcDbLine
 10
102.75494148216374
 20
-156.38636197187995
 30
0.00000000000000
 11
102.70791164529867
 21
-156.19824262441958
 31
0.00000000000000
  0
LINE
  5
2D8
330
2A
100
AcDbEntity
  8
Details 10
  6
CONTINUOUS
 62
     7
370
     9
100
AcDbLine
 10
107.35164939518876
 20
-156.50000000000000
 30
0.00000000000000
 11
107.33027275432319
 21
-156.41449343653767
 31
0.00000000000000
  0
LINE
  5
2D9
330
2A
100
AcDbEntity
  8
Details 10
  6
CONTINUOUS
 62
     7
370
     9
100
AcDbLine
 10
102.42573262410824
 20
-156.38636197187995
 30
0.00000000000000
 11
102.75494148216376
 21
-156.38636197187995
 31
0.00000000000000
  0
LINE
  5
2DA
330
2A
100
AcDbEntity
  8
Details 10
  6
CONTINUOUS
 62
     7
370
     9
100
AcDbLine
 10
102.81780509033763
 20
-155.77430616679706
 30
0.00000000000000
 11
102.79077373882286
 21
-155.61211805770847
 31
0.00000000000000
  0
LINE
  5
2DB
330
2A
100
AcDbEntity
  8
Details 10
  6
CONTINUOUS
 62
     7
370
     9
100
AcDbLine
 10
107.44016619936214
 20
-155.99055697891518
 30
0.00000000000000
 11
107.41313484784737
 21
-155.82836886982656
 31
0.00000000000000
  0
LINE
  5
2DC
330
2A
100
AcDbEntity
  8
Details 10
  6
CONTINUOUS
 62
     7
370
     9
100
AcDbLine
 10
112.06252730838666
 20
-156.20680779103324
 30
0.00000000000000
 11
112.03549595687190
 21
-156.04461968194465
 31
0.00000000000000
  0
LINE
  5
2DD
330
2A
100
AcDbEntity
  8
Details 10
  6
CONTINUOUS
 62
     7
370
     9
100
AcDbLine
 10
116.68488841741119
 20
-156.42305860315130
 30
0.00000000000000
 11
116.65785706589642
 21
-156.26087049406271
 31
0.00000000000000
  0
LINE
  5
2DE
330
2A
100
AcDbEntity
  8
Details 10
  6
CONTINUOUS
 62
     7
370
     9
100
AcDbLine
 10
121.28403129055748
 20
-156.50000000000009
 30
0.00000000000000
 11
121.28021817492095
 21
-156.47712130618083
 31
0.00000000000000
  0
LINE
  5
2DF
330
2A
100
AcDbEntity
  8
Details 10
  6
CONTINUOUS
 62
     7
370
     9
100
AcDbLine
 10
102.81780509033763
 20
-155.77430616679706
 30
0.00000000000000
 11
103.03405590245573
 21
-155.96352562740046
 31
0.00000000000000
  0
LINE
  5
2E0
330
2A
100
AcDbEntity
  8
Details 10
  6
CONTINUOUS
 62
     7
370
     9
100
AcDbLine
 10
107.44016619936214
 20
-155.99055697891518
 30
0.00000000000000
 11
107.65641701148026
 21
-156.17977643951852
 31
0.00000000000000
  0
LINE
  5
2E1
330
2A
100
AcDbEntity
  8
Details 10
  6
CONTINUOUS
 62
     7
370
     9
100
AcDbLine
 10
112.06252730838666
 20
-156.20680779103324
 30
0.00000000000000
 11
112.27877812050478
 21
-156.39602725163661
 31
0.00000000000000
  0
LINE
  5
2E2
330
2A
100
AcDbEntity
  8
Details 10
  6
CONTINUOUS
 62
     7
370
     9
100
AcDbLine
 10
116.68488841741119
 20
-156.42305860315130
 30
0.00000000000000
 11
116.77282144238117
 21
-156.50000000000009
 31
0.00000000000000
  0
LINE
  5
2E3
330
2A
100
AcDbEntity
  8
Details 10
  6
CONTINUOUS
 62
     7
370
     9
100
AcDbLine
 10
103.03405590245573
 20
-155.96352562740043
 30
0.00000000000000
 11
103.25030671457385
 21
-155.85540022134137
 31
0.00000000000000
  0
LINE
  5
2E4
330
2A
100
AcDbEntity
  8
Details 10
  6
CONTINUOUS
 62
     7
370
     9
100
AcDbLine
 10
107.65641701148026
 20
-156.17977643951852
 30
0.00000000000000
 11
107.87266782359838
 21
-156.07165103345943
 31
0.00000000000000
  0
LINE
  5
2E5
330
2A
100
AcDbEntity
  8
Details 10
  6
CONTINUOUS
 62
     7
370
     9
100
AcDbLine
 10
112.27877812050478
 20
-156.39602725163658
 30
0.00000000000000
 11
112.49502893262289
 21
-156.28790184557752
 31
0.00000000000000
  0
LINE
  5
2E6
330
2A
100
AcDbEntity
  8
Details 10
  6
CONTINUOUS
 62
     7
370
     9
100
AcDbLine
 10
103.25030671457382
 20
-155.85540022134137
 30
0.00000000000000
 11
103.11514995700003
 21
-155.55805535467897
 31
0.00000000000000
  0
LINE
  5
2E7
330
2A
100
AcDbEntity
  8
Details 10
  6
CONTINUOUS
 62
     7
370
     9
100
AcDbLine
 10
107.87266782359835
 20
-156.07165103345943
 30
0.00000000000000
 11
107.73751106602454
 21
-155.77430616679706
 31
0.00000000000000
  0
LINE
  5
2E8
330
2A
100
AcDbEntity
  8
Details 10
  6
CONTINUOUS
 62
     7
370
     9
100
AcDbLine
 10
112.49502893262286
 20
-156.28790184557752
 30
0.00000000000000
 11
112.35987217504906
 21
-155.99055697891518
 31
0.00000000000000
  0
LINE
  5
2E9
330
2A
100
AcDbEntity
  8
Details 10
  6
CONTINUOUS
 62
     7
370
     9
100
AcDbLine
 10
117.11550246996759
 20
-156.50000000000009
 30
0.00000000000000
 11
116.98223328407359
 21
-156.20680779103324
 31
0.00000000000000
  0
LINE
  5
2EA
330
2A
100
AcDbEntity
  8
Details 10
  6
CONTINUOUS
 62
     7
370
     9
100
AcDbLine
 10
121.63956775530210
 20
-156.50000000000009
 30
0.00000000000000
 11
121.60459439309810
 21
-156.42305860315130
 31
0.00000000000000
  0
LINE
  5
2EB
330
2A
100
AcDbEntity
  8
Details 10
  6
CONTINUOUS
 62
     7
370
     9
100
AcDbLine
 10
102.79077373882286
 20
-155.61211805770847
 30
0.00000000000000
 11
103.11514995700003
 21
-155.55805535467897
 31
0.00000000000000
  0
LINE
  5
2EC
330
2A
100
AcDbEntity
  8
Details 10
  6
CONTINUOUS
 62
     7
370
     9
100
AcDbLine
 10
107.41313484784737
 20
-155.82836886982656
 30
0.00000000000000
 11
107.73751106602454
 21
-155.77430616679706
 31
0.00000000000000
  0
LINE
  5
2ED
330
2A
100
AcDbEntity
  8
Details 10
  6
CONTINUOUS
 62
     7
370
     9
100
AcDbLine
 10
112.03549595687190
 20
-156.04461968194465
 30
0.00000000000000
 11
112.35987217504906
 21
-155.99055697891518
 31
0.00000000000000
  0
LINE
  5
2EE
330
2A
100
AcDbEntity
  8
Details 10
  6
CONTINUOUS
 62
     7
370
     9
100
AcDbLine
 10
116.65785706589642
 20
-156.26087049406271
 30
0.00000000000000
 11
116.98223328407359
 21
-156.20680779103324
 31
0.00000000000000
  0
LINE
  5
2EF
330
2A
100
AcDbEntity
  8
Details 10
  6
CONTINUOUS
 62
     7
370
     9
100
AcDbLine
 10
121.28021817492095
 20
-156.47712130618083
 30
0.00000000000000
 11
121.60459439309810
 21
-156.42305860315130
 31
0.00000000000000
  0
LINE
  5
2F0
330
2A
100
AcDbEntity
  8
Details 10
  6
CONTINUOUS
 62
     7
370
     9
100
AcDbLine
 10
103.60171428426577
 20
-156.39602725163667
 30
0.00000000000000
 11
103.68280833881005
 21
-156.20680779103333
 31
0.00000000000000
  0
LINE
  5
2F1
330
2A
100
AcDbEntity
  8
Details 10
  6
CONTINUOUS
 62
     7
370
     9
100
AcDbLine
 10
108.27219456347092
 20
-156.49999999999997
 30
0.00000000000000
 11
108.30516944783457
 21
-156.42305860315142
 31
0.00000000000000
  0
LINE
  5
2F2
330
2A
100
AcDbEntity
  8
Details 10
  6
CONTINUOUS
 62
     7
370
     9
100
AcDbLine
 10
103.68280833881003
 20
-156.20680779103330
 30
0.00000000000000
 11
103.81796509638386
 21
-156.34196454860711
 31
0.00000000000000
  0
LINE
  5
2F3
330
2A
100
AcDbEntity
  8
Details 10
  6
CONTINUOUS
 62
     7
370
     9
100
AcDbLine
 10
108.30516944783456
 20
-156.42305860315139
 30
0.00000000000000
 11
108.38211084468317
 21
-156.50000000000000
 31
0.00000000000000
  0
LINE
  5
2F4
330
2A
100
AcDbEntity
  8
Details 10
  6
CONTINUOUS
 62
     7
370
     9
100
AcDbLine
 10
103.60171428426577
 20
-156.39602725163667
 30
0.00000000000000
 11
103.81796509638386
 21
-156.34196454860711
 31
0.00000000000000
  0
HATCH
  5
2F5
330
2A
100
AcDbEntity
  8
Details 10
 62
   254
100
AcDbHatch
 10
0.00000000000000
 20
0.00000000000000
 30
0.00000000000000
210
0.00000000000000
220
0.00000000000000
230
1.00000000000000
  2
SOLID
 70
     1
 71
     0
 91
        1
 92
        0
 93
       32
 72
     1
 10
102.99999999999986
 20
-159.49999999999994
 11
120.99999999999977
 21
-159.49999999999994
 72
     1
 10
120.99999999999977
 20
-159.49999999999994
 11
120.99999999999977
 21
-172.74999999999994
 72
     1
 10
120.99999999999977
 20
-172.74999999999994
 11
117.99999999999984
 21
-172.74999999999989
 72
     1
 10
117.99999999999984
 20
-172.74999999999989
 11
117.99999999999984
 21
-176.74999999999997
 72
     1
 10
117.99999999999984
 20
-176.74999999999997
 11
120.99999999999987
 21
-176.74999999999997
 72
     1
 10
120.99999999999987
 20
-176.74999999999997
 11
120.99999999999991
 21
-190.00000000000000
 72
     1
 10
120.99999999999991
 20
-190.00000000000000
 11
117.99999999999984
 21
-189.99999999999997
 72
     1
 10
117.99999999999984
 20
-189.99999999999997
 11
117.99999999999962
 21
-196.29999999999967
 72
     1
 10
117.99999999999962
 20
-196.29999999999967
 11
120.99999999999950
 21
-196.29999999999967
 72
     1
 10
120.99999999999950
 20
-196.29999999999967
 11
120.99999999999950
 21
-209.54999999999964
 72
     1
 10
120.99999999999950
 20
-209.54999999999964
 11
117.99999999999953
 21
-209.54999999999956
 72
     1
 10
117.99999999999953
 20
-209.54999999999956
 11
117.99999999999953
 21
-213.54999999999956
 72
     1
 10
117.99999999999953
 20
-213.54999999999956
 11
120.99999999999955
 21
-213.54999999999956
 72
     1
 10
120.99999999999955
 20
-213.54999999999956
 11
120.99999999999960
 21
-226.79999999999959
 72
     1
 10
120.99999999999960
 20
-226.79999999999959
 11
117.99999999999953
 21
-226.79999999999959
 72
     1
 10
117.99999999999953
 20
-226.79999999999959
 11
117.99999999999953
 21
-232.50000000000006
 72
     1
 10
117.99999999999953
 20
-232.50000000000006
 11
105.99999999999983
 21
-232.50000000000006
 72
     1
 10
105.99999999999983
 20
-232.50000000000006
 11
105.99999999999983
 21
-226.79999999999995
 72
     1
 10
105.99999999999983
 20
-226.79999999999995
 11
102.99999999999953
 21
-226.79999999999995
 72
     1
 10
102.99999999999953
 20
-226.79999999999995
 11
102.99999999999953
 21
-213.54999999999956
 72
     1
 10
102.99999999999953
 20
-213.54999999999956
 11
105.99999999999960
 21
-213.54999999999956
 72
     1
 10
105.99999999999960
 20
-213.54999999999956
 11
105.99999999999960
 21
-209.54999999999956
 72
     1
 10
105.99999999999960
 20
-209.54999999999956
 11
102.99999999999963
 21
-209.54999999999956
 72
     1
 10
102.99999999999963
 20
-209.54999999999956
 11
102.99999999999963
 21
-196.29999999999964
 72
     1
 10
102.99999999999963
 20
-196.29999999999964
 11
106.00000000000006
 21
-196.29999999999964
 72
     1
 10
106.00000000000006
 20
-196.29999999999964
 11
106.00000000000006
 21
-190.00000000000031
 72
     1
 10
106.00000000000006
 20
-190.00000000000031
 11
102.99999999999986
 21
-190.00000000000031
 72
     1
 10
102.99999999999986
 20
-190.00000000000031
 11
102.99999999999986
 21
-176.74999999999994
 72
     1
 10
102.99999999999986
 20
-176.74999999999994
 11
105.99999999999987
 21
-176.74999999999997
 72
     1
 10
105.99999999999987
 20
-176.74999999999997
 11
105.99999999999987
 21
-172.74999999999986
 72
     1
 10
105.99999999999987
 20
-172.74999999999986
 11
102.99999999999994
 21
-172.74999999999986
 72
     1
 10
102.99999999999994
 20
-172.74999999999986
 11
102.99999999999986
 21
-159.49999999999994
 97
        0
 75
     0
 76
     0
 98
        1
 10
0.00000000000000
 20
0.00000000000000
  0
HATCH
  5
2F6
330
2A
100
AcDbEntity
  8
Details 10
 62
     7
370
     9
100
AcDbHatch
 10
0.00000000000000
 20
0.00000000000000
 30
0.00000000000000
210
0.00000000000000
220
0.00000000000000
230
1.00000000000000
  2
SCHRAFFUR
 70
     0
 71
     0
 91
        1
 92
        0
 93
       32
 72
     1
 10
102.99999999999986
 20
-159.49999999999994
 11
120.99999999999977
 21
-159.49999999999994
 72
     1
 10
120.99999999999977
 20
-159.49999999999994
 11
120.99999999999977
 21
-172.74999999999994
 72
     1
 10
120.99999999999977
 20
-172.74999999999994
 11
117.99999999999984
 21
-172.74999999999989
 72
     1
 10
117.99999999999984
 20
-172.74999999999989
 11
117.99999999999984
 21
-176.74999999999997
 72
     1
 10
117.99999999999984
 20
-176.74999999999997
 11
120.99999999999987
 21
-176.74999999999997
 72
     1
 10
120.99999999999987
 20
-176.74999999999997
 11
120.99999999999991
 21
-190.00000000000000
 72
     1
 10
120.99999999999991
 20
-190.00000000000000
 11
117.99999999999984
 21
-189.99999999999997
 72
     1
 10
117.99999999999984
 20
-189.99999999999997
 11
117.99999999999962
 21
-196.29999999999967
 72
     1
 10
117.99999999999962
 20
-196.29999999999967
 11
120.99999999999950
 21
-196.29999999999967
 72
     1
 10
120.99999999999950
 20
-196.29999999999967
 11
120.99999999999950
 21
-209.54999999999964
 72
     1
 10
120.99999999999950
 20
-209.54999999999964
 11
117.99999999999953
 21
-209.54999999999956
 72
     1
 10
117.99999999999953
 20
-209.54999999999956
 11
117.99999999999953
 21
-213.54999999999956
 72
     1
 10
117.99999999999953
 20
-213.54999999999956
 11
120.99999999999955
 21
-213.54999999999956
 72
     1
 10
120.99999999999955
 20
-213.54999999999956
 11
120.99999999999960
 21
-226.79999999999959
 72
     1
 10
120.99999999999960
 20
-226.79999999999959
 11
117.99999999999953
 21
-226.79999999999959
 72
     1
 10
117.99999999999953
 20
-226.79999999999959
 11
117.99999999999953
 21
-232.50000000000006
 72
     1
 10
117.99999999999953
 20
-232.50000000000006
 11
105.99999999999983
 21
-232.50000000000006
 72
     1
 10
105.99999999999983
 20
-232.50000000000006
 11
105.99999999999983
 21
-226.79999999999995
 72
     1
 10
105.99999999999983
 20
-226.79999999999995
 11
102.99999999999953
 21
-226.79999999999995
 72
     1
 10
102.99999999999953
 20
-226.79999999999995
 11
102.99999999999953
 21
-213.54999999999956
 72
     1
 10
102.99999999999953
 20
-213.54999999999956
 11
105.99999999999960
 21
-213.54999999999956
 72
     1
 10
105.99999999999960
 20
-213.54999999999956
 11
105.99999999999960
 21
-209.54999999999956
 72
     1
 10
105.99999999999960
 20
-209.54999999999956
 11
102.99999999999963
 21
-209.54999999999956
 72
     1
 10
102.99999999999963
 20
-209.54999999999956
 11
102.99999999999963
 21
-196.29999999999964
 72
     1
 10
102.99999999999963
 20
-196.29999999999964
 11
106.00000000000006
 21
-196.29999999999964
 72
     1
 10
106.00000000000006
 20
-196.29999999999964
 11
106.00000000000006
 21
-190.00000000000031
 72
     1
 10
106.00000000000006
 20
-190.00000000000031
 11
102.99999999999986
 21
-190.00000000000031
 72
     1
 10
102.99999999999986
 20
-190.00000000000031
 11
102.99999999999986
 21
-176.74999999999994
 72
     1
 10
102.99999999999986
 20
-176.74999999999994
 11
105.99999999999987
 21
-176.74999999999997
 72
     1
 10
105.99999999999987
 20
-176.74999999999997
 11
105.99999999999987
 21
-172.74999999999986
 72
     1
 10
105.99999999999987
 20
-172.74999999999986
 11
102.99999999999994
 21
-172.74999999999986
 72
     1
 10
102.99999999999994
 20
-172.74999999999986
 11
102.99999999999986
 21
-159.49999999999994
 97
        0
 75
     0
 76
     0
 52
44.99999999999999
 41
1.00000000000000
 77
     0
 78
     1
 53
44.99999999999999
 43
139.92043196151991
 44
-303.82666308840487
 45
-1.41421356237309
 46
1.41421356237310
 79
     2
 49
2.66800000000000
 49
-1.33200000000000
 98
        1
 10
0.00000000000000
 20
0.00000000000000
  0
MTEXT
  5
2F7
330
2A
100
AcDbEntity
  8
Planrahmen
 62
     7
370
    50
100
AcDbMText
 10
24.99999999999996
 20
-10.00000000000001
 30
0.00000000000000
 40
5.00000000000000
 41
0.00000000000000
 71
     1
 72
     1
  1
\fArial|b0|i0;Detail TW-04.1\P\H0.7x;Stumpfstoß Trennwand 24 cm\Pan Treppenhauswand 24 cm
 11
1.00000000000000
 21
0.00000000000000
 31
0.00000000000000
 73
     1
 44
1.00000000000000
  0
LINE
  5
2F8
330
2A
100
AcDbEntity
  8
Details 10
  6
CONTINUOUS
 62
     7
370
    18
100
AcDbLine
 10
125.49999999999994
 20
-156.49999999999997
 30
0.00000000000000
 11
125.49999999999994
 21
-231.69441366735649
 31
0.00000000000000
  0
LINE
  5
2F9
330
2A
100
AcDbEntity
  8
Details 10
  6
CONTINUOUS
 62
     7
370
    18
100
AcDbLine
 10
125.50000000000003
 20
-156.49999999999991
 30
0.00000000000000
 11
172.00000000000003
 21
-156.50000000000011
 31
0.00000000000000
  0
LINE
  5
2FA
330
2A
100
AcDbEntity
  8
Details 10
  6
CONTINUOUS
 62
     7
370
    18
100
AcDbLine
 10
98.49999999999999
 20
-156.50000000000006
 30
0.00000000000000
 11
49.99999999999982
 21
-156.49999999999986
 31
0.00000000000000
  0
LINE
  5
2FB
330
2A
100
AcDbEntity
  8
Details 10
  6
CONTINUOUS
 62
     7
370
    18
100
AcDbLine
 10
98.49999999999999
 20
-156.49999999999997
 30
0.00000000000000
 11
98.49999999999999
 21
-231.69441366735649
 31
0.00000000000000
  0
INSERT
  5
2C
330
2A
100
AcDbEntity
  8
Details 10
 62
     7
370
    25
100
AcDbBlockReference
  2
*U1
 10
0.00000000000000
 20
0.00000000000000
 30
0.00000000000000
  0
INSERT
  5
2D
330
2A
100
AcDbEntity
  8
Details 10
 62
     7
370
    25
100
AcDbBlockReference
  2
*D1
 10
0.00000000000000
 20
0.00000000000000
 30
0.00000000000000
  0
LINE
  5
2FC
330
2A
100
AcDbEntity
  8
Details 10
  6
CONTINUOUS
 62
     7
370
    18
100
AcDbLine
 10
172.00000000000017
 20
-129.50000000000031
 30
0.00000000000000
 11
49.99999999999992
 21
-129.49999999999986
 31
0.00000000000000
  0
LINE
  5
2FD
330
2A
100
AcDbEntity
  8
Details 10
  6
CONTINUOUS
 62
     7
370
    18
100
AcDbLine
 10
100.00000000000014
 20
-157.88079330327190
 30
0.00000000000000
 11
100.00000000000014
 21
-154.99999999999991
 31
0.00000000000000
  0
LINE
  5
2FE
330
2A
100
AcDbEntity
  8
Details 10
  6
CONTINUOUS
 62
     7
370
    18
100
AcDbLine
 10
123.99999999999989
 20
-157.99999999999991
 30
0.00000000000000
 11
123.99999999999989
 21
-154.99999999999991
 31
0.00000000000000
  0
LINE
  5
2FF
330
2A
100
AcDbEntity
  8
Details 10
  6
CONTINUOUS
 62
     7
370
    18
100
AcDbLine
 10
100.00000000000009
 20
-154.99999999999994
 30
0.00000000000000
 11
98.49999999999999
 21
-156.50000000000009
 31
0.00000000000000
  0
INSERT
  5
2E
330
2A
100
AcDbEntity
  8
Details 10
 62
     7
370
    25
100
AcDbBlockReference
  2
*U2
 10
0.00000000000000
 20
0.00000000000000
 30
0.00000000000000
  0
MTEXT
  5
300
330
2A
100
AcDbEntity
  8
Details 10
 62
     7
370
    30
100
AcDbMText
 10
67.68248159456718
 20
-199.55500366106281
 30
0.00000000000000
 40
2.80000000000000
 41
0.00000000000000
 71
     4
 72
     1
  1
\fArial Narrow|b0|i0;Wohnung 1
 11
1.00000000000000
 21
0.00000000000000
 31
0.00000000000000
 73
     1
 44
1.00000000000000
  0
MTEXT
  5
301
330
2A
100
AcDbEntity
  8
Details 10
 62
     7
370
    30
100
AcDbMText
 10
138.43763508276496
 20
-199.55500366106281
 30
0.00000000000000
 40
2.80000000000000
 41
0.00000000000000
 71
     4
 72
     1
  1
\fArial Narrow|b0|i0;Wohnung 2
 11
1.00000000000000
 21
0.00000000000000
 31
0.00000000000000
 73
     1
 44
1.00000000000000
  0
MTEXT
  5
302
330
2A
100
AcDbEntity
  8
Details 10
 62
     7
370
    30
100
AcDbMText
 10
111.99999999999997
 20
-123.88362016210471
 30
0.00000000000000
 40
2.80000000000000
 41
0.00000000000000
 71
     5
 72
     1
  1
\fArial Narrow|b0|i0;Treppenhaus
 11
1.00000000000000
 21
0.00000000000000
 31
0.00000000000000
 73
     1
 44
1.00000000000000
  0
INSERT
  5
2F
330
2A
100
AcDbEntity
  8
Details 10
 62
     7
370
    25
100
AcDbBlockReference
  2
*D2
 10
0.00000000000000
 20
0.00000000000000
 30
0.00000000000000
  0
HATCH
  5
303
330
2A
100
AcDbEntity
  8
Details 10
 62
    30
100
AcDbHatch
 10
0.00000000000000
 20
0.00000000000000
 30
0.00000000000000
210
0.00000000000000
220
0.00000000000000
230
1.00000000000000
  2
SOLID
 70
     1
 71
     0
 91
        1
 92
        0
 93
       36
 72
     1
 10
123.99999999999984
 20
-156.50000000000011
 11
123.99999999999984
 21
-192.99999999999997
 72
     1
 10
123.99999999999984
 20
-192.99999999999997
 11
120.99999999999996
 21
-192.99999999999997
 72
     1
 10
120.99999999999996
 20
-192.99999999999997
 11
120.78564064605507
 21
-193.79999999999998
 72
     1
 10
120.78564064605507
 20
-193.79999999999998
 11
118.71435935394480
 21
-193.79999999999998
 72
     1
 10
118.71435935394480
 20
-193.79999999999998
 11
118.49999999999993
 21
-192.99999999999997
 72
     1
 10
118.49999999999993
 20
-192.99999999999997
 11
117.99999999999984
 21
-192.99999999999997
 72
     1
 10
117.99999999999984
 20
-192.99999999999997
 11
117.99999999999980
 21
-189.99999999999997
 72
     1
 10
117.99999999999980
 20
-189.99999999999997
 11
120.99999999999991
 21
-189.99999999999997
 72
     1
 10
120.99999999999991
 20
-189.99999999999997
 11
120.99999999999987
 21
-176.74999999999994
 72
     1
 10
120.99999999999987
 20
-176.74999999999994
 11
117.99999999999984
 21
-176.74999999999994
 72
     1
 10
117.99999999999984
 20
-176.74999999999994
 11
117.99999999999984
 21
-175.34999999999994
 72
     1
 10
117.99999999999984
 20
-175.34999999999994
 11
117.99999999999984
 21
-175.34999999999994
 72
     1
 10
117.99999999999984
 20
-175.34999999999994
 11
117.99999999999984
 21
-174.14999999999995
 72
     1
 10
117.99999999999984
 20
-174.14999999999995
 11
117.99999999999984
 21
-174.14999999999995
 72
     1
 10
117.99999999999984
 20
-174.14999999999995
 11
117.99999999999984
 21
-172.74999999999994
 72
     1
 10
117.99999999999984
 20
-172.74999999999994
 11
120.99999999999983
 21
-172.74999999999994
 72
     1
 10
120.99999999999983
 20
-172.74999999999994
 11
120.99999999999983
 21
-159.49999999999994
 72
     1
 10
120.99999999999983
 20
-159.49999999999994
 11
102.99999999999986
 21
-159.49999999999994
 72
     1
 10
102.99999999999986
 20
-159.49999999999994
 11
102.99999999999994
 21
-172.74999999999994
 72
     1
 10
102.99999999999994
 20
-172.74999999999994
 11
105.99999999999987
 21
-172.74999999999994
 72
     1
 10
105.99999999999987
 20
-172.74999999999994
 11
105.99999999999993
 21
-174.14999999999995
 72
     1
 10
105.99999999999993
 20
-174.14999999999995
 11
105.99999999999993
 21
-174.14999999999995
 72
     1
 10
105.99999999999993
 20
-174.14999999999995
 11
105.99999999999993
 21
-175.34999999999994
 72
     1
 10
105.99999999999993
 20
-175.34999999999994
 11
105.99999999999993
 21
-175.34999999999994
 72
     1
 10
105.99999999999993
 20
-175.34999999999994
 11
105.99999999999987
 21
-176.74999999999994
 72
     1
 10
105.99999999999987
 20
-176.74999999999994
 11
102.99999999999990
 21
-176.74999999999994
 72
     1
 10
102.99999999999990
 20
-176.74999999999994
 11
102.99999999999986
 21
-189.99999999999997
 72
     1
 10
102.99999999999986
 20
-189.99999999999997
 11
106.00000000000027
 21
-189.99999999999997
 72
     1
 10
106.00000000000027
 20
-189.99999999999997
 11
106.00000000000037
 21
-192.99999999999997
 72
     1
 10
106.00000000000037
 20
-192.99999999999997
 11
102.99999999999990
 21
-192.99999999999997
 72
     1
 10
102.99999999999990
 20
-192.99999999999997
 11
102.78564064605496
 21
-193.80000000000007
 72
     1
 10
102.78564064605496
 20
-193.80000000000007
 11
100.79999999999983
 21
-193.79999999999998
 72
     1
 10
100.79999999999983
 20
-193.79999999999998
 11
99.99999999999986
 21
-192.99999999999997
 72
     1
 10
99.99999999999986
 20
-192.99999999999997
 11
99.99999999999986
 21
-158.38079330327199
 72
     1
 10
99.99999999999986
 20
-158.38079330327199
 11
100.00000000000014
 21
-156.49999999999997
 72
     1
 10
100.00000000000014
 20
-156.49999999999997
 11
123.99999999999984
 21
-156.50000000000011
 97
        0
 75
     0
 76
     0
 98
        1
 10
0.00000000000000
 20
0.00000000000000
  0
HATCH
  5
304
330
2A
100
AcDbEntity
  8
Details 10
 62
     7
370
    18
100
AcDbHatch
 10
0.00000000000000
 20
0.00000000000000
 30
0.00000000000000
210
0.00000000000000
220
0.00000000000000
230
1.00000000000000
  2
SCHRAFFUR
 70
     0
 71
     0
 91
        1
 92
        0
 93
       36
 72
     1
 10
123.99999999999984
 20
-156.50000000000011
 11
123.99999999999984
 21
-192.99999999999997
 72
     1
 10
123.99999999999984
 20
-192.99999999999997
 11
120.99999999999996
 21
-192.99999999999997
 72
     1
 10
120.99999999999996
 20
-192.99999999999997
 11
120.78564064605507
 21
-193.79999999999998
 72
     1
 10
120.78564064605507
 20
-193.79999999999998
 11
118.71435935394480
 21
-193.79999999999998
 72
     1
 10
118.71435935394480
 20
-193.79999999999998
 11
118.49999999999993
 21
-192.99999999999997
 72
     1
 10
118.49999999999993
 20
-192.99999999999997
 11
117.99999999999984
 21
-192.99999999999997
 72
     1
 10
117.99999999999984
 20
-192.99999999999997
 11
117.99999999999980
 21
-189.99999999999997
 72
     1
 10
117.99999999999980
 20
-189.99999999999997
 11
120.99999999999991
 21
-189.99999999999997
 72
     1
 10
120.99999999999991
 20
-189.99999999999997
 11
120.99999999999987
 21
-176.74999999999994
 72
     1
 10
120.99999999999987
 20
-176.74999999999994
 11
117.99999999999984
 21
-176.74999999999994
 72
     1
 10
117.99999999999984
 20
-176.74999999999994
 11
117.99999999999984
 21
-175.34999999999994
 72
     1
 10
117.99999999999984
 20
-175.34999999999994
 11
117.99999999999984
 21
-175.34999999999994
 72
     1
 10
117.99999999999984
 20
-175.34999999999994
 11
117.99999999999984
 21
-174.14999999999995
 72
     1
 10
117.99999999999984
 20
-174.14999999999995
 11
117.99999999999984
 21
-174.14999999999995
 72
     1
 10
117.99999999999984
 20
-174.14999999999995
 11
117.99999999999984
 21
-172.74999999999994
 72
     1
 10
117.99999999999984
 20
-172.74999999999994
 11
120.99999999999983
 21
-172.74999999999994
 72
     1
 10
120.99999999999983
 20
-172.74999999999994
 11
120.99999999999983
 21
-159.49999999999994
 72
     1
 10
120.99999999999983
 20
-159.49999999999994
 11
102.99999999999986
 21
-159.49999999999994
 72
     1
 10
102.99999999999986
 20
-159.49999999999994
 11
102.99999999999994
 21
-172.74999999999994
 72
     1
 10
102.99999999999994
 20
-172.74999999999994
 11
105.99999999999987
 21
-172.74999999999994
 72
     1
 10
105.99999999999987
 20
-172.74999999999994
 11
105.99999999999993
 21
-174.14999999999995
 72
     1
 10
105.99999999999993
 20
-174.14999999999995
 11
105.99999999999993
 21
-174.14999999999995
 72
     1
 10
105.99999999999993
 20
-174.14999999999995
 11
105.99999999999993
 21
-175.34999999999994
 72
     1
 10
105.99999999999993
 20
-175.34999999999994
 11
105.99999999999993
 21
-175.34999999999994
 72
     1
 10
105.99999999999993
 20
-175.34999999999994
 11
105.99999999999987
 21
-176.74999999999994
 72
     1
 10
105.99999999999987
 20
-176.74999999999994
 11
102.99999999999990
 21
-176.74999999999994
 72
     1
 10
102.99999999999990
 20
-176.74999999999994
 11
102.99999999999986
 21
-189.99999999999997
 72
     1
 10
102.99999999999986
 20
-189.99999999999997
 11
106.00000000000027
 21
-189.99999999999997
 72
     1
 10
106.00000000000027
 20
-189.99999999999997
 11
106.00000000000037
 21
-192.99999999999997
 72
     1
 10
106.00000000000037
 20
-192.99999999999997
 11
102.99999999999990
 21
-192.99999999999997
 72
     1
 10
102.99999999999990
 20
-192.99999999999997
 11
102.78564064605496
 21
-193.80000000000007
 72
     1
 10
102.78564064605496
 20
-193.80000000000007
 11
100.79999999999983
 21
-193.79999999999998
 72
     1
 10
100.79999999999983
 20
-193.79999999999998
 11
99.99999999999986
 21
-192.99999999999997
 72
     1
 10
99.99999999999986
 20
-192.99999999999997
 11
99.99999999999986
 21
-158.38079330327199
 72
     1
 10
99.99999999999986
 20
-158.38079330327199
 11
100.00000000000014
 21
-156.49999999999997
 72
     1
 10
100.00000000000014
 20
-156.49999999999997
 11
123.99999999999984
 21
-156.50000000000011
 97
        0
 75
     0
 76
     0
 52
135.00000000000014
 41
1.00000000000000
 77
     0
 78
     1
 53
135.00000000000014
 43
170.41759067591707
 44
-83.47239402667479
 45
-2.82842712474618
 46
-2.82842712474620
 79
     0
 98
        1
 10
0.00000000000000
 20
0.00000000000000
  0
HATCH
  5
305
330
2A
100
AcDbEntity
  8
Details 10
 62
    30
100
AcDbHatch
 10
0.00000000000000
 20
0.00000000000000
 30
0.00000000000000
210
0.00000000000000
220
0.00000000000000
230
1.00000000000000
  2
SOLID
 70
     1
 71
     0
 91
        1
 92
        0
 93
       23
 72
     1
 10
123.99999999999955
 20
-194.09999999999962
 11
123.99999999999955
 21
-229.79999999999961
 72
     1
 10
123.99999999999955
 20
-229.79999999999961
 11
120.99999999999964
 21
-229.79999999999961
 72
     1
 10
120.99999999999964
 20
-229.79999999999961
 11
120.78564064605474
 21
-230.59999999999960
 72
     1
 10
120.78564064605474
 20
-230.59999999999960
 11
118.71435935394450
 21
-230.59999999999951
 72
     1
 10
118.71435935394450
 20
-230.59999999999951
 11
118.49999999999960
 21
-229.79999999999961
 72
     1
 10
118.49999999999960
 20
-229.79999999999961
 11
117.99999999999953
 21
-229.79999999999961
 72
     1
 10
117.99999999999953
 20
-229.79999999999961
 11
117.99999999999953
 21
-226.79999999999959
 72
     1
 10
117.99999999999953
 20
-226.79999999999959
 11
120.99999999999960
 21
-226.79999999999959
 72
     1
 10
120.99999999999960
 20
-226.79999999999959
 11
120.99999999999955
 21
-213.54999999999956
 72
     1
 10
120.99999999999955
 20
-213.54999999999956
 11
117.99999999999953
 21
-213.54999999999956
 72
     1
 10
117.99999999999953
 20
-213.54999999999956
 11
117.99999999999953
 21
-212.14999999999961
 72
     1
 10
117.99999999999953
 20
-212.14999999999961
 11
117.99999999999953
 21
-212.14999999999961
 72
     1
 10
117.99999999999953
 20
-212.14999999999961
 11
117.99999999999953
 21
-210.94999999999959
 72
     1
 10
117.99999999999953
 20
-210.94999999999959
 11
117.99999999999953
 21
-210.94999999999959
 72
     1
 10
117.99999999999953
 20
-210.94999999999959
 11
117.99999999999953
 21
-209.54999999999956
 72
     1
 10
117.99999999999953
 20
-209.54999999999956
 11
120.99999999999950
 21
-209.54999999999964
 72
     1
 10
120.99999999999950
 20
-209.54999999999964
 11
120.99999999999950
 21
-196.29999999999967
 72
     1
 10
120.99999999999950
 20
-196.29999999999967
 11
117.99999999999962
 21
-196.29999999999967
 72
     1
 10
117.99999999999962
 20
-196.29999999999967
 11
117.99999999999966
 21
-194.09999999999974
 72
     1
 10
117.99999999999966
 20
-194.09999999999974
 11
120.99999999999955
 21
-194.09999999999962
 72
     1
 10
120.99999999999955
 20
-194.09999999999962
 11
121.21435935394445
 21
-193.29999999999956
 72
     1
 10
121.21435935394445
 20
-193.29999999999956
 11
123.19999999999963
 21
-193.29999999999964
 72
     1
 10
123.19999999999963
 20
-193.29999999999964
 11
123.99999999999955
 21
-194.09999999999962
 97
        0
 75
     0
 76
     0
 98
        1
 10
0.00000000000000
 20
0.00000000000000
  0
HATCH
  5
306
330
2A
100
AcDbEntity
  8
Details 10
 62
     7
370
    18
100
AcDbHatch
 10
0.00000000000000
 20
0.00000000000000
 30
0.00000000000000
210
0.00000000000000
220
0.00000000000000
230
1.00000000000000
  2
SCHRAFFUR
 70
     0
 71
     0
 91
        1
 92
        0
 93
       23
 72
     1
 10
123.99999999999955
 20
-194.09999999999962
 11
123.99999999999955
 21
-229.79999999999961
 72
     1
 10
123.99999999999955
 20
-229.79999999999961
 11
120.99999999999964
 21
-229.79999999999961
 72
     1
 10
120.99999999999964
 20
-229.79999999999961
 11
120.78564064605474
 21
-230.59999999999960
 72
     1
 10
120.78564064605474
 20
-230.59999999999960
 11
118.71435935394450
 21
-230.59999999999951
 72
     1
 10
118.71435935394450
 20
-230.59999999999951
 11
118.49999999999960
 21
-229.79999999999961
 72
     1
 10
118.49999999999960
 20
-229.79999999999961
 11
117.99999999999953
 21
-229.79999999999961
 72
     1
 10
117.99999999999953
 20
-229.79999999999961
 11
117.99999999999953
 21
-226.79999999999959
 72
     1
 10
117.99999999999953
 20
-226.79999999999959
 11
120.99999999999960
 21
-226.79999999999959
 72
     1
 10
120.99999999999960
 20
-226.79999999999959
 11
120.99999999999955
 21
-213.54999999999956
 72
     1
 10
120.99999999999955
 20
-213.54999999999956
 11
117.99999999999953
 21
-213.54999999999956
 72
     1
 10
117.99999999999953
 20
-213.54999999999956
 11
117.99999999999953
 21
-212.14999999999961
 72
     1
 10
117.99999999999953
 20
-212.14999999999961
 11
117.99999999999953
 21
-212.14999999999961
 72
     1
 10
117.99999999999953
 20
-212.14999999999961
 11
117.99999999999953
 21
-210.94999999999959
 72
     1
 10
117.99999999999953
 20
-210.94999999999959
 11
117.99999999999953
 21
-210.94999999999959
 72
     1
 10
117.99999999999953
 20
-210.94999999999959
 11
117.99999999999953
 21
-209.54999999999956
 72
     1
 10
117.99999999999953
 20
-209.54999999999956
 11
120.99999999999950
 21
-209.54999999999964
 72
     1
 10
120.99999999999950
 20
-209.54999999999964
 11
120.99999999999950
 21
-196.29999999999967
 72
     1
 10
120.99999999999950
 20
-196.29999999999967
 11
117.99999999999962
 21
-196.29999999999967
 72
     1
 10
117.99999999999962
 20
-196.29999999999967
 11
117.99999999999966
 21
-194.09999999999974
 72
     1
 10
117.99999999999966
 20
-194.09999999999974
 11
120.99999999999955
 21
-194.09999999999962
 72
     1
 10
120.99999999999955
 20
-194.09999999999962
 11
121.21435935394445
 21
-193.29999999999956
 72
     1
 10
121.21435935394445
 20
-193.29999999999956
 11
123.19999999999963
 21
-193.29999999999964
 72
     1
 10
123.19999999999963
 20
-193.29999999999964
 11
123.99999999999955
 21
-194.09999999999962
 97
        0
 75
     0
 76
     0
 52
135.00000000000014
 41
1.00000000000000
 77
     0
 78
     1
 53
135.00000000000014
 43
170.41759067591707
 44
-83.47239402667479
 45
-2.82842712474618
 46
-2.82842712474620
 79
     0
 98
        1
 10
0.00000000000000
 20
0.00000000000000
  0
HATCH
  5
307
330
2A
100
AcDbEntity
  8
Details 10
 62
    30
100
AcDbHatch
 10
0.00000000000000
 20
0.00000000000000
 30
0.00000000000000
210
0.00000000000000
220
0.00000000000000
230
1.00000000000000
  2
SOLID
 70
     1
 71
     0
 91
        1
 92
        0
 93
       22
 72
     1
 10
102.99999999999953
 20
-196.29999999999967
 11
102.99999999999963
 21
-209.54999999999956
 72
     1
 10
102.99999999999963
 20
-209.54999999999956
 11
105.99999999999960
 21
-209.54999999999956
 72
     1
 10
105.99999999999960
 20
-209.54999999999956
 11
105.99999999999960
 21
-210.94999999999959
 72
     1
 10
105.99999999999960
 20
-210.94999999999959
 11
105.99999999999956
 21
-210.94999999999959
 72
     1
 10
105.99999999999956
 20
-210.94999999999959
 11
105.99999999999956
 21
-212.14999999999961
 72
     1
 10
105.99999999999956
 20
-212.14999999999961
 11
105.99999999999960
 21
-212.14999999999966
 72
     1
 10
105.99999999999960
 20
-212.14999999999966
 11
105.99999999999960
 21
-213.54999999999956
 72
     1
 10
105.99999999999960
 20
-213.54999999999956
 11
102.99999999999959
 21
-213.54999999999956
 72
     1
 10
102.99999999999959
 20
-213.54999999999956
 11
102.99999999999953
 21
-226.79999999999959
 72
     1
 10
102.99999999999953
 20
-226.79999999999959
 11
106.00000000000001
 21
-226.79999999999959
 72
     1
 10
106.00000000000001
 20
-226.79999999999959
 11
106.00000000000006
 21
-229.79999999999953
 72
     1
 10
106.00000000000006
 20
-229.79999999999953
 11
102.99999999999959
 21
-229.79999999999961
 72
     1
 10
102.99999999999959
 20
-229.79999999999961
 11
102.78564064605469
 21
-230.59999999999968
 72
     1
 10
102.78564064605469
 20
-230.59999999999968
 11
100.79999999999951
 21
-230.59999999999960
 72
     1
 10
100.79999999999951
 20
-230.59999999999960
 11
99.99999999999956
 21
-229.79999999999961
 72
     1
 10
99.99999999999956
 20
-229.79999999999961
 11
99.99999999999956
 21
-194.09999999999974
 72
     1
 10
99.99999999999956
 20
-194.09999999999974
 11
103.49999999999957
 21
-194.09999999999962
 72
     1
 10
103.49999999999957
 20
-194.09999999999962
 11
103.71435935394446
 21
-193.29999999999964
 72
     1
 10
103.71435935394446
 20
-193.29999999999964
 11
105.78564064605472
 21
-193.29999999999973
 72
     1
 10
105.78564064605472
 20
-193.29999999999973
 11
105.99999999999960
 21
-194.09999999999962
 72
     1
 10
105.99999999999960
 20
-194.09999999999962
 11
106.00000000000009
 21
-196.29999999999967
 72
     1
 10
106.00000000000009
 20
-196.29999999999967
 11
102.99999999999953
 21
-196.29999999999967
 97
        0
 75
     0
 76
     0
 98
        1
 10
0.00000000000000
 20
0.00000000000000
  0
HATCH
  5
308
330
2A
100
AcDbEntity
  8
Details 10
 62
     7
370
    18
100
AcDbHatch
 10
0.00000000000000
 20
0.00000000000000
 30
0.00000000000000
210
0.00000000000000
220
0.00000000000000
230
1.00000000000000
  2
SCHRAFFUR
 70
     0
 71
     0
 91
        1
 92
        0
 93
       22
 72
     1
 10
102.99999999999953
 20
-196.29999999999967
 11
102.99999999999963
 21
-209.54999999999956
 72
     1
 10
102.99999999999963
 20
-209.54999999999956
 11
105.99999999999960
 21
-209.54999999999956
 72
     1
 10
105.99999999999960
 20
-209.54999999999956
 11
105.99999999999960
 21
-210.94999999999959
 72
     1
 10
105.99999999999960
 20
-210.94999999999959
 11
105.99999999999956
 21
-210.94999999999959
 72
     1
 10
105.99999999999956
 20
-210.94999999999959
 11
105.99999999999956
 21
-212.14999999999961
 72
     1
 10
105.99999999999956
 20
-212.14999999999961
 11
105.99999999999960
 21
-212.14999999999966
 72
     1
 10
105.99999999999960
 20
-212.14999999999966
 11
105.99999999999960
 21
-213.54999999999956
 72
     1
 10
105.99999999999960
 20
-213.54999999999956
 11
102.99999999999959
 21
-213.54999999999956
 72
     1
 10
102.99999999999959
 20
-213.54999999999956
 11
102.99999999999953
 21
-226.79999999999959
 72
     1
 10
102.99999999999953
 20
-226.79999999999959
 11
106.00000000000001
 21
-226.79999999999959
 72
     1
 10
106.00000000000001
 20
-226.79999999999959
 11
106.00000000000006
 21
-229.79999999999953
 72
     1
 10
106.00000000000006
 20
-229.79999999999953
 11
102.99999999999959
 21
-229.79999999999961
 72
     1
 10
102.99999999999959
 20
-229.79999999999961
 11
102.78564064605469
 21
-230.59999999999968
 72
     1
 10
102.78564064605469
 20
-230.59999999999968
 11
100.79999999999951
 21
-230.59999999999960
 72
     1
 10
100.79999999999951
 20
-230.59999999999960
 11
99.99999999999956
 21
-229.79999999999961
 72
     1
 10
99.99999999999956
 20
-229.79999999999961
 11
99.99999999999956
 21
-194.09999999999974
 72
     1
 10
99.99999999999956
 20
-194.09999999999974
 11
103.49999999999957
 21
-194.09999999999962
 72
     1
 10
103.49999999999957
 20
-194.09999999999962
 11
103.71435935394446
 21
-193.29999999999964
 72
     1
 10
103.71435935394446
 20
-193.29999999999964
 11
105.78564064605472
 21
-193.29999999999973
 72
     1
 10
105.78564064605472
 20
-193.29999999999973
 11
105.99999999999960
 21
-194.09999999999962
 72
     1
 10
105.99999999999960
 20
-194.09999999999962
 11
106.00000000000009
 21
-196.29999999999967
 72
     1
 10
106.00000000000009
 20
-196.29999999999967
 11
102.99999999999953
 21
-196.29999999999967
 97
        0
 75
     0
 76
     0
 52
135.00000000000014
 41
1.00000000000000
 77
     0
 78
     1
 53
135.00000000000014
 43
170.41759067591707
 44
-83.47239402667479
 45
-2.82842712474618
 46
-2.82842712474620
 79
     0
 98
        1
 10
0.00000000000000
 20
0.00000000000000
  0
LINE
  5
309
330
2A
100
AcDbEntity
  8
Details 10
  6
CONTINUOUS
 62
     7
370
    35
100
AcDbLine
 10
123.99999999999984
 20
-192.99999999999997
 30
0.00000000000000
 11
123.99999999999984
 21
-156.50000000000009
 31
0.00000000000000
  0
LINE
  5
30A
330
2A
100
AcDbEntity
  8
Details 10
  6
CONTINUOUS
 62
     7
370
    35
100
AcDbLine
 10
120.99999999999996
 20
-192.99999999999997
 30
0.00000000000000
 11
123.99999999999984
 21
-192.99999999999997
 31
0.00000000000000
  0
LINE
  5
30B
330
2A
100
AcDbEntity
  8
Details 10
  6
CONTINUOUS
 62
     7
370
    35
100
AcDbLine
 10
102.99999999999990
 20
-192.99999999999997
 30
0.00000000000000
 11
106.00000000000037
 21
-193.00000000000006
 31
0.00000000000000
  0
LINE
  5
30C
330
2A
100
AcDbEntity
  8
Details 10
  6
DC_VERDECKT
 62
     7
370
    18
100
AcDbLine
 10
106.00000000000037
 20
-193.00000000000006
 30
0.00000000000000
 11
106.49999999999987
 21
-192.99999999999997
 31
0.00000000000000
  0
LINE
  5
30D
330
2A
100
AcDbEntity
  8
Details 10
  6
CONTINUOUS
 62
     7
370
    35
100
AcDbLine
 10
99.99999999999986
 20
-156.49999999999991
 30
0.00000000000000
 11
99.99999999999986
 21
-192.99999999999997
 31
0.00000000000000
  0
LINE
  5
30E
330
2A
100
AcDbEntity
  8
Details 10
  6
CONTINUOUS
 62
     7
370
    35
100
AcDbLine
 10
120.99999999999991
 20
-189.99999999999994
 30
0.00000000000000
 11
120.99999999999987
 21
-176.74999999999994
 31
0.00000000000000
  0
LINE
  5
30F
330
2A
100
AcDbEntity
  8
Details 10
  6
CONTINUOUS
 62
     7
370
    35
100
AcDbLine
 10
120.99999999999983
 20
-172.74999999999994
 30
0.00000000000000
 11
120.99999999999983
 21
-159.49999999999994
 31
0.00000000000000
  0
LINE
  5
310
330
2A
100
AcDbEntity
  8
Details 10
  6
CONTINUOUS
 62
     7
370
    35
100
AcDbLine
 10
102.99999999999994
 20
-172.74999999999991
 30
0.00000000000000
 11
102.99999999999986
 21
-159.49999999999997
 31
0.00000000000000
  0
LINE
  5
311
330
2A
100
AcDbEntity
  8
Details 10
  6
CONTINUOUS
 62
     7
370
    35
100
AcDbLine
 10
102.99999999999990
 20
-176.74999999999994
 30
0.00000000000000
 11
102.99999999999986
 21
-189.99999999999994
 31
0.00000000000000
  0
LINE
  5
312
330
2A
100
AcDbEntity
  8
Details 10
  6
CONTINUOUS
 62
     7
370
    35
100
AcDbLine
 10
102.99999999999986
 20
-189.99999999999994
 30
0.00000000000000
 11
106.00000000000027
 21
-189.99999999999994
 31
0.00000000000000
  0
LINE
  5
313
330
2A
100
AcDbEntity
  8
Details 10
  6
DC_VERDECKT
 62
     7
370
    18
100
AcDbLine
 10
106.00000000000031
 20
-189.99999999999994
 30
0.00000000000000
 11
117.99999999999984
 21
-189.99999999999994
 31
0.00000000000000
  0
LINE
  5
314
330
2A
100
AcDbEntity
  8
Details 10
  6
CONTINUOUS
 62
     7
370
    35
100
AcDbLine
 10
117.99999999999980
 20
-190.00000000000006
 30
0.00000000000000
 11
120.99999999999991
 21
-189.99999999999994
 31
0.00000000000000
  0
LINE
  5
315
330
2A
100
AcDbEntity
  8
Details 10
  6
CONTINUOUS
 62
     7
370
    35
100
AcDbLine
 10
117.99999999999984
 20
-176.74999999999994
 30
0.00000000000000
 11
117.99999999999984
 21
-172.74999999999991
 31
0.00000000000000
  0
LINE
  5
316
330
2A
100
AcDbEntity
  8
Details 10
  6
CONTINUOUS
 62
     7
370
    35
100
AcDbLine
 10
105.99999999999987
 20
-172.74999999999991
 30
0.00000000000000
 11
105.99999999999987
 21
-176.74999999999994
 31
0.00000000000000
  0
LINE
  5
317
330
2A
100
AcDbEntity
  8
Details 10
  6
CONTINUOUS
 62
     7
370
    35
100
AcDbLine
 10
105.99999999999987
 20
-172.74999999999991
 30
0.00000000000000
 11
102.99999999999994
 21
-172.74999999999991
 31
0.00000000000000
  0
LINE
  5
318
330
2A
100
AcDbEntity
  8
Details 10
  6
CONTINUOUS
 62
     7
370
    35
100
AcDbLine
 10
117.99999999999984
 20
-172.74999999999991
 30
0.00000000000000
 11
120.99999999999983
 21
-172.74999999999994
 31
0.00000000000000
  0
LINE
  5
319
330
2A
100
AcDbEntity
  8
Details 10
  6
CONTINUOUS
 62
     7
370
    35
100
AcDbLine
 10
105.99999999999987
 20
-176.74999999999994
 30
0.00000000000000
 11
102.99999999999990
 21
-176.74999999999994
 31
0.00000000000000
  0
LINE
  5
31A
330
2A
100
AcDbEntity
  8
Details 10
  6
CONTINUOUS
 62
     7
370
    35
100
AcDbLine
 10
120.99999999999987
 20
-176.74999999999994
 30
0.00000000000000
 11
117.99999999999984
 21
-176.74999999999994
 31
0.00000000000000
  0
LINE
  5
31B
330
2A
100
AcDbEntity
  8
Details 10
  6
DC_VERDECKT
 62
     7
370
    18
100
AcDbLine
 10
106.00000000000037
 20
-176.74999999999994
 30
0.00000000000000
 11
117.99999999999984
 21
-176.74999999999994
 31
0.00000000000000
  0
LINE
  5
31C
330
2A
100
AcDbEntity
  8
Details 10
  6
DC_VERDECKT
 62
     7
370
    18
100
AcDbLine
 10
106.00000000000037
 20
-172.74999999999989
 30
0.00000000000000
 11
117.99999999999984
 21
-172.74999999999991
 31
0.00000000000000
  0
LINE
  5
31D
330
2A
100
AcDbEntity
  8
Details 10
  6
CONTINUOUS
 62
     7
370
    35
100
AcDbLine
 10
102.99999999999990
 20
-192.99999999999997
 30
0.00000000000000
 11
102.78564064605496
 21
-193.80000000000007
 31
0.00000000000000
  0
LINE
  5
31E
330
2A
100
AcDbEntity
  8
Details 10
  6
CONTINUOUS
 62
     7
370
    35
100
AcDbLine
 10
102.78564064605496
 20
-193.79999999999995
 30
0.00000000000000
 11
100.79999999999983
 21
-193.79999999999995
 31
0.00000000000000
  0
LINE
  5
31F
330
2A
100
AcDbEntity
  8
Details 10
  6
CONTINUOUS
 62
     7
370
    35
100
AcDbLine
 10
99.99999999999986
 20
-192.99999999999997
 30
0.00000000000000
 11
100.79999999999987
 21
-193.79999999999995
 31
0.00000000000000
  0
LINE
  5
320
330
2A
100
AcDbEntity
  8
Details 10
  6
DC_VERDECKT
 62
     7
370
    18
100
AcDbLine
 10
106.49999999999987
 20
-192.99999999999997
 30
0.00000000000000
 11
106.71435935394480
 21
-193.80000000000007
 31
0.00000000000000
  0
LINE
  5
321
330
2A
100
AcDbEntity
  8
Details 10
  6
DC_VERDECKT
 62
     7
370
    18
100
AcDbLine
 10
106.71435935394476
 20
-193.79999999999995
 30
0.00000000000000
 11
108.78564064605500
 21
-193.79999999999995
 31
0.00000000000000
  0
LINE
  5
322
330
2A
100
AcDbEntity
  8
Details 10
  6
DC_VERDECKT
 62
     7
370
    18
100
AcDbLine
 10
108.99999999999990
 20
-192.99999999999997
 30
0.00000000000000
 11
108.78564064605500
 21
-193.79999999999995
 31
0.00000000000000
  0
LINE
  5
323
330
2A
100
AcDbEntity
  8
Details 10
  6
DC_VERDECKT
 62
     7
370
    18
100
AcDbLine
 10
108.99999999999990
 20
-192.99999999999997
 30
0.00000000000000
 11
112.49999999999987
 21
-192.99999999999997
 31
0.00000000000000
  0
LINE
  5
324
330
2A
100
AcDbEntity
  8
Details 10
  6
DC_VERDECKT
 62
     7
370
    18
100
AcDbLine
 10
112.49999999999987
 20
-192.99999999999997
 30
0.00000000000000
 11
112.71435935394480
 21
-193.80000000000007
 31
0.00000000000000
  0
LINE
  5
325
330
2A
100
AcDbEntity
  8
Details 10
  6
DC_VERDECKT
 62
     7
370
    18
100
AcDbLine
 10
112.71435935394480
 20
-193.79999999999995
 30
0.00000000000000
 11
114.78564064605500
 21
-193.79999999999995
 31
0.00000000000000
  0
LINE
  5
326
330
2A
100
AcDbEntity
  8
Details 10
  6
DC_VERDECKT
 62
     7
370
    18
100
AcDbLine
 10
114.99999999999990
 20
-192.99999999999997
 30
0.00000000000000
 11
114.78564064605500
 21
-193.79999999999995
 31
0.00000000000000
  0
LINE
  5
327
330
2A
100
AcDbEntity
  8
Details 10
  6
DC_VERDECKT
 62
     7
370
    18
100
AcDbLine
 10
114.99999999999990
 20
-192.99999999999997
 30
0.00000000000000
 11
117.99999999999984
 21
-193.00000000000006
 31
0.00000000000000
  0
LINE
  5
328
330
2A
100
AcDbEntity
  8
Details 10
  6
CONTINUOUS
 62
     7
370
    35
100
AcDbLine
 10
117.99999999999984
 20
-192.99999999999997
 30
0.00000000000000
 11
118.49999999999993
 21
-192.99999999999997
 31
0.00000000000000
  0
LINE
  5
329
330
2A
100
AcDbEntity
  8
Details 10
  6
CONTINUOUS
 62
     7
370
    35
100
AcDbLine
 10
118.49999999999993
 20
-192.99999999999997
 30
0.00000000000000
 11
118.71435935394480
 21
-193.80000000000007
 31
0.00000000000000
  0
LINE
  5
32A
330
2A
100
AcDbEntity
  8
Details 10
  6
CONTINUOUS
 62
     7
370
    35
100
AcDbLine
 10
118.71435935394480
 20
-193.79999999999995
 30
0.00000000000000
 11
120.78564064605507
 21
-193.79999999999995
 31
0.00000000000000
  0
LINE
  5
32B
330
2A
100
AcDbEntity
  8
Details 10
  6
CONTINUOUS
 62
     7
370
    35
100
AcDbLine
 10
120.99999999999996
 20
-192.99999999999997
 30
0.00000000000000
 11
120.78564064605507
 21
-193.79999999999995
 31
0.00000000000000
  0
LINE
  5
32C
330
2A
100
AcDbEntity
  8
Details 10
  6
CONTINUOUS
 62
     7
370
    35
100
AcDbLine
 10
123.99999999999984
 20
-156.50000000000009
 30
0.00000000000000
 11
99.99999999999986
 21
-156.49999999999997
 31
0.00000000000000
  0
LWPOLYLINE
  5
32D
330
2A
100
AcDbEntity
  8
Details 10
  6
DC_VERDECKT
 62
     7
 48
0.14285714285714
370
    18
100
AcDbPolyline
 90
        4
 70
   129
 10
102.99999999999990
 20
-175.34999999999994
 10
106.59999999999989
 20
-175.34999999999994
 10
106.59999999999989
 20
-174.14999999999995
 10
102.99999999999990
 20
-174.14999999999995
  0
LINE
  5
32E
330
2A
100
AcDbEntity
  8
Details 10
  6
CONTINUOUS
 62
     7
370
    35
100
AcDbLine
 10
117.99999999999980
 20
-189.99999999999994
 30
0.00000000000000
 11
117.99999999999984
 21
-192.99999999999997
 31
0.00000000000000
  0
LINE
  5
32F
330
2A
100
AcDbEntity
  8
Details 10
  6
CONTINUOUS
 62
     7
370
    35
100
AcDbLine
 10
106.00000000000027
 20
-190.00000000000031
 30
0.00000000000000
 11
106.00000000000037
 21
-192.99999999999997
 31
0.00000000000000
  0
LWPOLYLINE
  5
330
330
2A
100
AcDbEntity
  8
Details 10
  6
DC_VERDECKT
 62
     7
 48
0.14285714285714
370
    18
100
AcDbPolyline
 90
        4
 70
   129
 10
117.39999999999982
 20
-175.34999999999994
 10
120.99999999999983
 20
-175.34999999999994
 10
120.99999999999983
 20
-174.14999999999995
 10
117.39999999999982
 20
-174.14999999999995
  0
LWPOLYLINE
  5
331
330
2A
100
AcDbEntity
  8
Details 10
  6
DC_VERDECKT
 62
     7
 48
0.14285714285714
370
    18
100
AcDbPolyline
 90
        4
 70
   129
 10
107.79999999999990
 20
-175.34999999999994
 10
111.39999999999991
 20
-175.34999999999994
 10
111.39999999999991
 20
-174.14999999999995
 10
107.79999999999990
 20
-174.14999999999995
  0
LWPOLYLINE
  5
332
330
2A
100
AcDbEntity
  8
Details 10
  6
DC_VERDECKT
 62
     7
 48
0.14285714285714
370
    18
100
AcDbPolyline
 90
        4
 70
   129
 10
112.59999999999981
 20
-175.34999999999994
 10
116.19999999999982
 20
-175.34999999999994
 10
116.19999999999982
 20
-174.14999999999995
 10
112.59999999999981
 20
-174.14999999999995
  0
LINE
  5
333
330
2A
100
AcDbEntity
  8
Details 10
  6
CONTINUOUS
 62
     7
370
    35
100
AcDbLine
 10
120.99999999999983
 20
-159.49999999999994
 30
0.00000000000000
 11
102.99999999999986
 21
-159.49999999999994
 31
0.00000000000000
  0
INSERT
  5
30
330
2A
100
AcDbEntity
  8
Details 10
 62
     7
370
    25
100
AcDbBlockReference
  2
*U3
 10
0.00000000000000
 20
0.00000000000000
 30
0.00000000000000
  0
INSERT
  5
31
330
2A
100
AcDbEntity
  8
Details 10
 62
     7
370
    25
100
AcDbBlockReference
  2
*U4
 10
0.00000000000000
 20
0.00000000000000
 30
0.00000000000000
  0
LINE
  5
334
330
2A
100
AcDbEntity
  8
Details 10
  6
CONTINUOUS
 62
     7
370
    18
100
AcDbLine
 10
125.49999999999994
 20
-156.49999999999997
 30
0.00000000000000
 11
123.99999999999987
 21
-154.99999999999991
 31
0.00000000000000
  0
INSERT
  5
32
330
2A
100
AcDbEntity
  8
Details 10
 62
     7
370
    25
100
AcDbBlockReference
  2
*U5
 10
0.00000000000000
 20
0.00000000000000
 30
0.00000000000000
  0
INSERT
  5
33
330
2A
100
AcDbEntity
  8
Details 10
 62
     5
370
    25
100
AcDbBlockReference
  2
*U6
 10
0.00000000000000
 20
0.00000000000000
 30
0.00000000000000
  0
INSERT
  5
34
330
2A
100
AcDbEntity
  8
Details 10
 62
     5
370
    25
100
AcDbBlockReference
  2
*U7
 10
0.00000000000000
 20
0.00000000000000
 30
0.00000000000000
  0
INSERT
  5
35
330
2A
100
AcDbEntity
  8
Details 10
 62
     5
370
    25
100
AcDbBlockReference
  2
*U8
 10
0.00000000000000
 20
0.00000000000000
 30
0.00000000000000
  0
INSERT
  5
36
330
2A
100
AcDbEntity
  8
Details 10
 62
     5
370
    25
100
AcDbBlockReference
  2
*U9
 10
0.00000000000000
 20
0.00000000000000
 30
0.00000000000000
  0
HATCH
  5
335
330
2A
100
AcDbEntity
  8
Details 10
 62
     7
100
AcDbHatch
 10
0.00000000000000
 20
0.00000000000000
 30
0.00000000000000
210
0.00000000000000
220
0.00000000000000
230
1.00000000000000
  2
SOLID
 70
     1
 71
     0
 91
        7
 92
        0
 93
       30
 72
     1
 10
118.02322736765407
 20
-163.42304723010460
 11
119.52322736765400
 21
-163.42304723010460
 72
     2
 10
119.87322736765390
 20
-163.42304723010460
 40
0.34999999999989
 50
180.00000000000000
 51
270.00000000000000
 73
     0
 72
     1
 10
119.87322736765390
 20
-163.07304723010469
 11
119.87322736765390
 21
-160.47304723010470
 72
     2
 10
119.87322736765390
 20
-160.12304723010462
 40
0.35000000000007
 50
90.00000000000000
 51
270.00000000000000
 73
     0
 72
     1
 10
119.87322736765390
 20
-159.77304723010454
 11
119.87322736765390
 21
-156.88099749805377
 72
     2
 10
119.87322736765390
 20
-156.53099749805372
 40
0.35000000000007
 50
90.00000000000000
 51
270.00000000000000
 73
     0
 72
     1
 10
119.87322736765390
 20
-156.18099749805364
 11
119.87322736765390
 21
-153.32726470129066
 72
     2
 10
119.87322736765390
 20
-152.97726470129058
 40
0.35000000000007
 50
90.00000000000000
 51
270.00000000000000
 73
     0
 72
     1
 10
119.87322736765390
 20
-152.62726470129050
 11
119.87322736765390
 21
-150.02726470129045
 72
     2
 10
119.87322736765390
 20
-149.67726470129040
 40
0.35000000000007
 50
90.00000000000000
 51
270.00000000000000
 73
     0
 72
     1
 10
119.87322736765390
 20
-149.32726470129032
 11
119.87322736765390
 21
-146.71275484429586
 72
     2
 10
119.87322736765390
 20
-146.36275484429578
 40
0.35000000000007
 50
90.00000000000000
 51
270.00000000000000
 73
     0
 72
     1
 10
119.87322736765390
 20
-146.01275484429570
 11
119.87322736765390
 21
-142.79900829680074
 72
     2
 10
119.87322736765390
 20
-142.44900829680066
 40
0.35000000000007
 50
90.00000000000000
 51
270.00000000000000
 73
     0
 72
     1
 10
119.87322736765390
 20
-142.09900829680058
 11
119.87322736765390
 21
-141.55015596569743
 72
     1
 10
119.87322736765390
 20
-141.55015596569743
 11
117.67322736765401
 21
-141.55015596569743
 72
     1
 10
117.67322736765401
 20
-141.55015596569743
 11
117.67322736765401
 21
-142.09900829680058
 72
     2
 10
117.67322736765401
 20
-142.44900829680066
 40
0.35000000000007
 50
270.00000000000000
 51
450.00000000000000
 73
     0
 72
     1
 10
117.67322736765401
 20
-142.79900829680074
 11
117.67322736765401
 21
-146.01275484429587
 72
     2
 10
117.67322736765401
 20
-146.36275484429578
 40
0.34999999999989
 50
270.00000000000000
 51
450.00000000000000
 73
     0
 72
     1
 10
117.67322736765401
 20
-146.71275484429566
 11
117.67322736765401
 21
-149.32726470129032
 72
     2
 10
117.67322736765401
 20
-149.67726470129040
 40
0.35000000000007
 50
270.00000000000000
 51
450.00000000000000
 73
     0
 72
     1
 10
117.67322736765401
 20
-150.02726470129045
 11
117.67322736765401
 21
-152.62726470129067
 72
     2
 10
117.67322736765401
 20
-152.97726470129058
 40
0.34999999999989
 50
270.00000000000000
 51
450.00000000000000
 73
     0
 72
     1
 10
117.67322736765401
 20
-153.32726470129046
 11
117.67322736765401
 21
-156.18099749805364
 72
     2
 10
117.67322736765401
 20
-156.53099749805372
 40
0.35000000000007
 50
270.00000000000000
 51
450.00000000000000
 73
     0
 72
     1
 10
117.67322736765401
 20
-156.88099749805377
 11
117.67322736765401
 21
-159.77304723010474
 72
     2
 10
117.67322736765401
 20
-160.12304723010462
 40
0.34999999999989
 50
270.00000000000000
 51
450.00000000000000
 73
     0
 72
     1
 10
117.67322736765401
 20
-160.47304723010453
 11
117.67322736765401
 21
-163.07304723010452
 72
     2
 10
117.67322736765401
 20
-163.42304723010460
 40
0.35000000000007
 50
270.00000000000000
 51
360.00000000000000
 73
     0
 97
        0
 92
       16
 93
        2
 72
     2
 10
118.77322736765389
 20
-144.65868514099631
 40
0.35000000000006
 50
43.87655000000159
 51
223.87655000000160
 73
     1
 72
     2
 10
118.77322736765389
 20
-144.65868514099631
 40
0.35000000000009
 50
223.87654999999654
 51
403.87654999999654
 73
     1
 97
        0
 92
       16
 93
        2
 72
     2
 10
118.77322736765389
 20
-147.95868514099607
 40
0.34999999999987
 50
43.87655000000099
 51
223.87655000000098
 73
     1
 72
     2
 10
118.77322736765389
 20
-147.95868514099607
 40
0.34999999999990
 50
223.87654999999594
 51
403.87654999999597
 73
     1
 97
        0
 92
       16
 93
        2
 72
     2
 10
118.77322736765389
 20
-151.25868514099608
 40
0.34999999999990
 50
43.87655000000623
 51
223.87655000000620
 73
     1
 72
     2
 10
118.77322736765389
 20
-151.25868514099608
 40
0.34999999999987
 50
223.87654999999071
 51
403.87654999999074
 73
     1
 97
        0
 92
       16
 93
        2
 72
     2
 10
118.77322736765389
 20
-154.55868514099600
 40
0.35000000000006
 50
43.87655000000159
 51
223.87655000000160
 73
     1
 72
     2
 10
118.77322736765389
 20
-154.55868514099600
 40
0.35000000000009
 50
223.87654999999654
 51
403.87654999999654
 73
     1
 97
        0
 92
       16
 93
        2
 72
     2
 10
118.77322736765389
 20
-158.54162679039919
 40
0.35000000000006
 50
43.87655000000159
 51
223.87655000000160
 73
     1
 72
     2
 10
118.77322736765389
 20
-158.54162679039919
 40
0.35000000000009
 50
223.87654999999654
 51
403.87654999999654
 73
     1
 97
        0
 92
       16
 93
        2
 72
     2
 10
118.77322736765389
 20
-161.84162679039892
 40
0.34999999999990
 50
43.87655000000623
 51
223.87655000000620
 73
     1
 72
     2
 10
118.77322736765389
 20
-161.84162679039892
 40
0.34999999999993
 50
223.87655000000117
 51
403.87655000000120
 73
     1
 97
        0
 75
     0
 76
     0
 98
        1
 10
0.00000000000000
 20
0.00000000000000
  0
HATCH
  5
336
330
2A
100
AcDbEntity
  8
Details 10
 62
     7
100
AcDbHatch
 10
0.00000000000000
 20
0.00000000000000
 30
0.00000000000000
210
0.00000000000000
220
0.00000000000000
230
1.00000000000000
  2
SOLID
 70
     1
 71
     0
 91
        7
 92
        0
 93
       30
 72
     1
 10
105.97677263234550
 20
-163.42304723010460
 11
104.47677263234563
 21
-163.42304723010460
 72
     2
 10
104.12677263234573
 20
-163.42304723010460
 40
0.34999999999989
 50
0.00000000000000
 51
90.00000000000000
 73
     1
 72
     1
 10
104.12677263234573
 20
-163.07304723010469
 11
104.12677263234573
 21
-160.47304723010470
 72
     2
 10
104.12677263234573
 20
-160.12304723010462
 40
0.35000000000007
 50
270.00000000000000
 51
450.00000000000000
 73
     1
 72
     1
 10
104.12677263234573
 20
-159.77304723010454
 11
104.12677263234573
 21
-156.88099749805377
 72
     2
 10
104.12677263234573
 20
-156.53099749805372
 40
0.35000000000007
 50
270.00000000000000
 51
450.00000000000000
 73
     1
 72
     1
 10
104.12677263234573
 20
-156.18099749805364
 11
104.12677263234573
 21
-153.32726470129066
 72
     2
 10
104.12677263234573
 20
-152.97726470129058
 40
0.35000000000007
 50
270.00000000000000
 51
450.00000000000000
 73
     1
 72
     1
 10
104.12677263234573
 20
-152.62726470129050
 11
104.12677263234573
 21
-150.02726470129045
 72
     2
 10
104.12677263234573
 20
-149.67726470129040
 40
0.35000000000007
 50
270.00000000000000
 51
450.00000000000000
 73
     1
 72
     1
 10
104.12677263234573
 20
-149.32726470129032
 11
104.12677263234573
 21
-146.71275484429586
 72
     2
 10
104.12677263234573
 20
-146.36275484429578
 40
0.35000000000007
 50
270.00000000000000
 51
450.00000000000000
 73
     1
 72
     1
 10
104.12677263234573
 20
-146.01275484429570
 11
104.12677263234573
 21
-142.79900829680074
 72
     2
 10
104.12677263234573
 20
-142.44900829680066
 40
0.35000000000007
 50
270.00000000000000
 51
450.00000000000000
 73
     1
 72
     1
 10
104.12677263234573
 20
-142.09900829680058
 11
104.12677263234573
 21
-141.55015596569743
 72
     1
 10
104.12677263234573
 20
-141.55015596569743
 11
106.32677263234558
 21
-141.55015596569743
 72
     1
 10
106.32677263234558
 20
-141.55015596569743
 11
106.32677263234558
 21
-142.09900829680058
 72
     2
 10
106.32677263234558
 20
-142.44900829680066
 40
0.35000000000007
 50
90.00000000000000
 51
270.00000000000000
 73
     1
 72
     1
 10
106.32677263234558
 20
-142.79900829680074
 11
106.32677263234558
 21
-146.01275484429587
 72
     2
 10
106.32677263234558
 20
-146.36275484429578
 40
0.34999999999989
 50
90.00000000000000
 51
270.00000000000000
 73
     1
 72
     1
 10
106.32677263234558
 20
-146.71275484429566
 11
106.32677263234558
 21
-149.32726470129032
 72
     2
 10
106.32677263234558
 20
-149.67726470129040
 40
0.35000000000007
 50
90.00000000000000
 51
270.00000000000000
 73
     1
 72
     1
 10
106.32677263234558
 20
-150.02726470129045
 11
106.32677263234558
 21
-152.62726470129067
 72
     2
 10
106.32677263234558
 20
-152.97726470129058
 40
0.34999999999989
 50
90.00000000000000
 51
270.00000000000000
 73
     1
 72
     1
 10
106.32677263234558
 20
-153.32726470129046
 11
106.32677263234558
 21
-156.18099749805364
 72
     2
 10
106.32677263234558
 20
-156.53099749805372
 40
0.35000000000007
 50
90.00000000000000
 51
270.00000000000000
 73
     1
 72
     1
 10
106.32677263234558
 20
-156.88099749805377
 11
106.32677263234558
 21
-159.77304723010474
 72
     2
 10
106.32677263234558
 20
-160.12304723010462
 40
0.34999999999989
 50
90.00000000000000
 51
270.00000000000000
 73
     1
 72
     1
 10
106.32677263234558
 20
-160.47304723010453
 11
106.32677263234558
 21
-163.07304723010452
 72
     2
 10
106.32677263234558
 20
-163.42304723010460
 40
0.35000000000007
 50
90.00000000000000
 51
180.00000000000000
 73
     1
 97
        0
 92
       16
 93
        2
 72
     2
 10
105.22677263234576
 20
-144.65868514099631
 40
0.35000000000006
 50
223.87655000000157
 51
403.87655000000154
 73
     0
 72
     2
 10
105.22677263234576
 20
-144.65868514099631
 40
0.35000000000006
 50
43.87655000000160
 51
223.87655000000160
 73
     0
 97
        0
 92
       16
 93
        2
 72
     2
 10
105.22677263234576
 20
-147.95868514099607
 40
0.34999999999990
 50
223.87654999999594
 51
403.87654999999592
 73
     0
 72
     2
 10
105.22677263234576
 20
-147.95868514099607
 40
0.34999999999990
 50
43.87654999999597
 51
223.87654999999600
 73
     0
 97
        0
 92
       16
 93
        2
 72
     2
 10
105.22677263234576
 20
-151.25868514099608
 40
0.34999999999993
 50
223.87655000000117
 51
403.87655000000115
 73
     0
 72
     2
 10
105.22677263234576
 20
-151.25868514099608
 40
0.34999999999987
 50
43.87654999999069
 51
223.87654999999071
 73
     0
 97
        0
 92
       16
 93
        2
 72
     2
 10
105.22677263234576
 20
-154.55868514099600
 40
0.35000000000006
 50
223.87655000000157
 51
403.87655000000154
 73
     0
 72
     2
 10
105.22677263234576
 20
-154.55868514099600
 40
0.35000000000006
 50
43.87655000000160
 51
223.87655000000160
 73
     0
 97
        0
 92
       16
 93
        2
 72
     2
 10
105.22677263234576
 20
-158.54162679039919
 40
0.35000000000006
 50
223.87655000000157
 51
403.87655000000154
 73
     0
 72
     2
 10
105.22677263234576
 20
-158.54162679039919
 40
0.35000000000006
 50
43.87655000000160
 51
223.87655000000160
 73
     0
 97
        0
 92
       16
 93
        2
 72
     2
 10
105.22677263234576
 20
-161.84162679039892
 40
0.34999999999993
 50
223.87655000000117
 51
403.87655000000115
 73
     0
 72
     2
 10
105.22677263234576
 20
-161.84162679039892
 40
0.34999999999993
 50
43.87655000000120
 51
223.87655000000123
 73
     0
 97
        0
 75
     0
 76
     0
 98
        1
 10
0.00000000000000
 20
0.00000000000000
  0
INSERT
  5
37
330
2A
100
AcDbEntity
  8
Details 10
 62
     5
370
    25
100
AcDbBlockReference
  2
*U10
 10
0.00000000000000
 20
0.00000000000000
 30
0.00000000000000
  0
INSERT
  5
38
330
2A
100
AcDbEntity
  8
Details 10
 62
     5
370
    25
100
AcDbBlockReference
  2
*U11
 10
0.00000000000000
 20
0.00000000000000
 30
0.00000000000000
  0
INSERT
  5
39
330
2A
100
AcDbEntity
  8
Details 10
 62
     7
370
    25
100
AcDbBlockReference
  2
*U12
 10
0.00000000000000
 20
0.00000000000000
 30
0.00000000000000
  0
INSERT
  5
3A
330
2A
100
AcDbEntity
  8
Details 10
 62
     7
370
    25
100
AcDbBlockReference
  2
*U13
 10
0.00000000000000
 20
0.00000000000000
 30
0.00000000000000
  0
LINE
  5
337
330
2A
100
AcDbEntity
  8
Details 10
  6
CONTINUOUS
 62
     7
370
    35
100
AcDbLine
 10
56.25000000000011
 20
-130.99999999999991
 30
0.00000000000000
 11
49.99999999999992
 21
-130.99999999999991
 31
0.00000000000000
  0
LINE
  5
338
330
2A
100
AcDbEntity
  8
Details 10
  6
CONTINUOUS
 62
     7
370
    35
100
AcDbLine
 10
56.25000000000011
 20
-133.99999999999980
 30
0.00000000000000
 11
56.25000000000011
 21
-130.99999999999991
 31
0.00000000000000
  0
LINE
  5
339
330
2A
100
AcDbEntity
  8
Details 10
  6
CONTINUOUS
 62
     7
370
    35
100
AcDbLine
 10
56.25000000000011
 20
-151.99999999999989
 30
0.00000000000000
 11
56.25000000000011
 21
-148.99999999999940
 31
0.00000000000000
  0
LINE
  5
33A
330
2A
100
AcDbEntity
  8
Details 10
  6
DC_VERDECKT
 62
     7
370
    18
100
AcDbLine
 10
56.25000000000011
 20
-148.99999999999940
 30
0.00000000000000
 11
56.25000000000011
 21
-148.49999999999986
 31
0.00000000000000
  0
LINE
  5
33B
330
2A
100
AcDbEntity
  8
Details 10
  6
CONTINUOUS
 62
     7
370
    35
100
AcDbLine
 10
49.99999999999982
 20
-154.99999999999991
 30
0.00000000000000
 11
56.25000000000011
 21
-154.99999999999991
 31
0.00000000000000
  0
LINE
  5
33C
330
2A
100
AcDbEntity
  8
Details 10
  6
CONTINUOUS
 62
     7
370
    35
100
AcDbLine
 10
53.25000000000007
 20
-133.99999999999986
 30
0.00000000000000
 11
49.99999999999993
 21
-133.99999999999989
 31
0.00000000000000
  0
LINE
  5
33D
330
2A
100
AcDbEntity
  8
Details 10
  6
CONTINUOUS
 62
     7
370
    35
100
AcDbLine
 10
49.99999999999984
 20
-151.99999999999991
 30
0.00000000000000
 11
53.25000000000007
 21
-151.99999999999991
 31
0.00000000000000
  0
LINE
  5
33E
330
2A
100
AcDbEntity
  8
Details 10
  6
CONTINUOUS
 62
     7
370
    35
100
AcDbLine
 10
53.25000000000007
 20
-151.99999999999991
 30
0.00000000000000
 11
53.25000000000007
 21
-148.99999999999943
 31
0.00000000000000
  0
LINE
  5
33F
330
2A
100
AcDbEntity
  8
Details 10
  6
DC_VERDECKT
 62
     7
370
    18
100
AcDbLine
 10
53.25000000000007
 20
-148.99999999999943
 30
0.00000000000000
 11
53.25000000000007
 21
-136.99999999999991
 31
0.00000000000000
  0
LINE
  5
340
330
2A
100
AcDbEntity
  8
Details 10
  6
CONTINUOUS
 62
     7
370
    35
100
AcDbLine
 10
53.25000000000007
 20
-136.99999999999991
 30
0.00000000000000
 11
53.25000000000007
 21
-133.99999999999986
 31
0.00000000000000
  0
LINE
  5
341
330
2A
100
AcDbEntity
  8
Details 10
  6
CONTINUOUS
 62
     7
370
    35
100
AcDbLine
 10
56.25000000000011
 20
-151.99999999999989
 30
0.00000000000000
 11
57.05000000000019
 21
-152.21435935394479
 31
0.00000000000000
  0
LINE
  5
342
330
2A
100
AcDbEntity
  8
Details 10
  6
CONTINUOUS
 62
     7
370
    35
100
AcDbLine
 10
57.05000000000010
 20
-152.21435935394481
 30
0.00000000000000
 11
57.05000000000010
 21
-154.19999999999993
 31
0.00000000000000
  0
LINE
  5
343
330
2A
100
AcDbEntity
  8
Details 10
  6
CONTINUOUS
 62
     7
370
    35
100
AcDbLine
 10
56.25000000000011
 20
-154.99999999999991
 30
0.00000000000000
 11
57.05000000000010
 21
-154.19999999999990
 31
0.00000000000000
  0
LINE
  5
344
330
2A
100
AcDbEntity
  8
Details 10
  6
DC_VERDECKT
 62
     7
370
    18
100
AcDbLine
 10
56.25000000000011
 20
-148.49999999999986
 30
0.00000000000000
 11
57.05000000000010
 21
-148.28564064605496
 31
0.00000000000000
  0
LINE
  5
345
330
2A
100
AcDbEntity
  8
Details 10
  6
DC_VERDECKT
 62
     7
370
    18
100
AcDbLine
 10
57.05000000000002
 20
-148.28564064605496
 30
0.00000000000000
 11
57.05000000000002
 21
-146.21435935394476
 31
0.00000000000000
  0
LINE
  5
346
330
2A
100
AcDbEntity
  8
Details 10
  6
DC_VERDECKT
 62
     7
370
    18
100
AcDbLine
 10
56.25000000000011
 20
-145.99999999999989
 30
0.00000000000000
 11
57.05000000000010
 21
-146.21435935394476
 31
0.00000000000000
  0
LINE
  5
347
330
2A
100
AcDbEntity
  8
Details 10
  6
DC_VERDECKT
 62
     7
370
    18
100
AcDbLine
 10
56.25000000000011
 20
-145.99999999999989
 30
0.00000000000000
 11
56.25000000000011
 21
-142.49999999999986
 31
0.00000000000000
  0
LINE
  5
348
330
2A
100
AcDbEntity
  8
Details 10
  6
DC_VERDECKT
 62
     7
370
    18
100
AcDbLine
 10
56.25000000000011
 20
-142.49999999999986
 30
0.00000000000000
 11
57.05000000000010
 21
-142.28564064605496
 31
0.00000000000000
  0
LINE
  5
349
330
2A
100
AcDbEntity
  8
Details 10
  6
DC_VERDECKT
 62
     7
370
    18
100
AcDbLine
 10
57.05000000000002
 20
-142.28564064605496
 30
0.00000000000000
 11
57.05000000000002
 21
-140.21435935394473
 31
0.00000000000000
  0
LINE
  5
34A
330
2A
100
AcDbEntity
  8
Details 10
  6
DC_VERDECKT
 62
     7
370
    18
100
AcDbLine
 10
56.25000000000011
 20
-139.99999999999986
 30
0.00000000000000
 11
57.05000000000010
 21
-140.21435935394473
 31
0.00000000000000
  0
LINE
  5
34B
330
2A
100
AcDbEntity
  8
Details 10
  6
DC_VERDECKT
 62
     7
370
    18
100
AcDbLine
 10
56.25000000000011
 20
-139.99999999999986
 30
0.00000000000000
 11
56.25000000000019
 21
-136.99999999999991
 31
0.00000000000000
  0
LINE
  5
34C
330
2A
100
AcDbEntity
  8
Details 10
  6
CONTINUOUS
 62
     7
370
    35
100
AcDbLine
 10
56.25000000000011
 20
-136.99999999999991
 30
0.00000000000000
 11
56.25000000000011
 21
-136.49999999999983
 31
0.00000000000000
  0
LINE
  5
34D
330
2A
100
AcDbEntity
  8
Details 10
  6
CONTINUOUS
 62
     7
370
    35
100
AcDbLine
 10
56.25000000000011
 20
-136.49999999999983
 30
0.00000000000000
 11
57.05000000000010
 21
-136.28564064605493
 31
0.00000000000000
  0
LINE
  5
34E
330
2A
100
AcDbEntity
  8
Details 10
  6
CONTINUOUS
 62
     7
370
    35
100
AcDbLine
 10
57.05000000000002
 20
-136.28564064605493
 30
0.00000000000000
 11
57.05000000000002
 21
-134.21435935394470
 31
0.00000000000000
  0
LINE
  5
34F
330
2A
100
AcDbEntity
  8
Details 10
  6
CONTINUOUS
 62
     7
370
    35
100
AcDbLine
 10
56.25000000000011
 20
-133.99999999999980
 30
0.00000000000000
 11
57.05000000000010
 21
-134.21435935394470
 31
0.00000000000000
  0
LINE
  5
350
330
2A
100
AcDbEntity
  8
Details 10
  6
CONTINUOUS
 62
     7
370
    35
100
AcDbLine
 10
53.25000000000007
 20
-136.99999999999991
 30
0.00000000000000
 11
56.25000000000011
 21
-136.99999999999991
 31
0.00000000000000
  0
LINE
  5
351
330
2A
100
AcDbEntity
  8
Details 10
  6
CONTINUOUS
 62
     7
370
    35
100
AcDbLine
 10
53.25000000000043
 20
-148.99999999999949
 30
0.00000000000000
 11
56.25000000000001
 21
-148.99999999999940
 31
0.00000000000000
  0
LINE
  5
352
330
2A
100
AcDbEntity
  8
Details 10
  6
CONTINUOUS
 62
     7
370
    35
100
AcDbLine
 10
172.00000000000017
 20
-130.99999999999991
 30
0.00000000000000
 11
167.75000000000017
 21
-130.99999999999991
 31
0.00000000000000
  0
LINE
  5
353
330
2A
100
AcDbEntity
  8
Details 10
  6
CONTINUOUS
 62
     7
370
    35
100
AcDbLine
 10
167.75000000000017
 20
-154.99999999999991
 30
0.00000000000000
 11
172.00000000000037
 21
-154.99999999999991
 31
0.00000000000000
  0
LINE
  5
354
330
2A
100
AcDbEntity
  8
Details 10
  6
CONTINUOUS
 62
     7
370
    35
100
AcDbLine
 10
172.00000000000020
 20
-133.99999999999994
 30
0.00000000000000
 11
169.95000000000010
 21
-133.99999999999994
 31
0.00000000000000
  0
LINE
  5
355
330
2A
100
AcDbEntity
  8
Details 10
  6
CONTINUOUS
 62
     7
370
    35
100
AcDbLine
 10
169.95000000000010
 20
-133.99999999999994
 30
0.00000000000000
 11
169.95000000000010
 21
-136.99999999999983
 31
0.00000000000000
  0
LINE
  5
356
330
2A
100
AcDbEntity
  8
Details 10
  6
DC_VERDECKT
 62
     7
370
    18
100
AcDbLine
 10
169.95000000000002
 20
-136.99999999999983
 30
0.00000000000000
 11
169.95000000000010
 21
-148.99999999999940
 31
0.00000000000000
  0
LINE
  5
357
330
2A
100
AcDbEntity
  8
Details 10
  6
CONTINUOUS
 62
     7
370
    35
100
AcDbLine
 10
169.95000000000010
 20
-148.99999999999935
 30
0.00000000000000
 11
169.95000000000010
 21
-151.99999999999991
 31
0.00000000000000
  0
LINE
  5
358
330
2A
100
AcDbEntity
  8
Details 10
  6
CONTINUOUS
 62
     7
370
    35
100
AcDbLine
 10
172.00000000000037
 20
-151.99999999999991
 30
0.00000000000000
 11
169.95000000000010
 21
-151.99999999999991
 31
0.00000000000000
  0
LINE
  5
359
330
2A
100
AcDbEntity
  8
Details 10
  6
CONTINUOUS
 62
     7
370
    35
100
AcDbLine
 10
167.75000000000006
 20
-151.49999999999989
 30
0.00000000000000
 11
167.75000000000006
 21
-154.99999999999991
 31
0.00000000000000
  0
LINE
  5
35A
330
2A
100
AcDbEntity
  8
Details 10
  6
CONTINUOUS
 62
     7
370
    35
100
AcDbLine
 10
167.75000000000006
 20
-133.99999999999989
 30
0.00000000000000
 11
167.75000000000017
 21
-136.99999999999983
 31
0.00000000000000
  0
LINE
  5
35B
330
2A
100
AcDbEntity
  8
Details 10
  6
CONTINUOUS
 62
     7
370
    35
100
AcDbLine
 10
167.75000000000006
 20
-133.99999999999989
 30
0.00000000000000
 11
166.94999999999999
 21
-133.78564064605499
 31
0.00000000000000
  0
LINE
  5
35C
330
2A
100
AcDbEntity
  8
Details 10
  6
CONTINUOUS
 62
     7
370
    35
100
AcDbLine
 10
166.95000000000007
 20
-133.78564064605499
 30
0.00000000000000
 11
166.95000000000007
 21
-131.79999999999984
 31
0.00000000000000
  0
LINE
  5
35D
330
2A
100
AcDbEntity
  8
Details 10
  6
CONTINUOUS
 62
     7
370
    35
100
AcDbLine
 10
167.75000000000006
 20
-130.99999999999991
 30
0.00000000000000
 11
166.95000000000007
 21
-131.79999999999990
 31
0.00000000000000
  0
LINE
  5
35E
330
2A
100
AcDbEntity
  8
Details 10
  6
DC_VERDECKT
 62
     7
370
    18
100
AcDbLine
 10
167.75000000000006
 20
-136.99999999999983
 30
0.00000000000000
 11
166.95000000000007
 21
-137.21435935394473
 31
0.00000000000000
  0
LINE
  5
35F
330
2A
100
AcDbEntity
  8
Details 10
  6
DC_VERDECKT
 62
     7
370
    18
100
AcDbLine
 10
166.95000000000016
 20
-137.21435935394473
 30
0.00000000000000
 11
166.95000000000016
 21
-139.28564064605496
 31
0.00000000000000
  0
LINE
  5
360
330
2A
100
AcDbEntity
  8
Details 10
  6
DC_VERDECKT
 62
     7
370
    18
100
AcDbLine
 10
167.75000000000006
 20
-139.49999999999983
 30
0.00000000000000
 11
166.95000000000007
 21
-139.28564064605496
 31
0.00000000000000
  0
LINE
  5
361
330
2A
100
AcDbEntity
  8
Details 10
  6
DC_VERDECKT
 62
     7
370
    18
100
AcDbLine
 10
167.75000000000006
 20
-139.49999999999983
 30
0.00000000000000
 11
167.75000000000006
 21
-142.99999999999986
 31
0.00000000000000
  0
LINE
  5
362
330
2A
100
AcDbEntity
  8
Details 10
  6
DC_VERDECKT
 62
     7
370
    18
100
AcDbLine
 10
167.75000000000006
 20
-142.99999999999986
 30
0.00000000000000
 11
166.95000000000007
 21
-143.21435935394476
 31
0.00000000000000
  0
LINE
  5
363
330
2A
100
AcDbEntity
  8
Details 10
  6
DC_VERDECKT
 62
     7
370
    18
100
AcDbLine
 10
166.95000000000016
 20
-143.21435935394476
 30
0.00000000000000
 11
166.95000000000016
 21
-145.28564064605496
 31
0.00000000000000
  0
LINE
  5
364
330
2A
100
AcDbEntity
  8
Details 10
  6
DC_VERDECKT
 62
     7
370
    18
100
AcDbLine
 10
167.75000000000006
 20
-145.49999999999983
 30
0.00000000000000
 11
166.95000000000007
 21
-145.28564064605496
 31
0.00000000000000
  0
LINE
  5
365
330
2A
100
AcDbEntity
  8
Details 10
  6
DC_VERDECKT
 62
     7
370
    18
100
AcDbLine
 10
167.75000000000006
 20
-145.49999999999983
 30
0.00000000000000
 11
167.75000000000017
 21
-148.99999999999986
 31
0.00000000000000
  0
LINE
  5
366
330
2A
100
AcDbEntity
  8
Details 10
  6
CONTINUOUS
 62
     7
370
    35
100
AcDbLine
 10
167.75000000000006
 20
-148.99999999999986
 30
0.00000000000000
 11
166.95000000000007
 21
-149.21435935394476
 31
0.00000000000000
  0
LINE
  5
367
330
2A
100
AcDbEntity
  8
Details 10
  6
CONTINUOUS
 62
     7
370
    35
100
AcDbLine
 10
166.95000000000016
 20
-149.21435935394476
 30
0.00000000000000
 11
166.95000000000016
 21
-151.28564064605499
 31
0.00000000000000
  0
LINE
  5
368
330
2A
100
AcDbEntity
  8
Details 10
  6
CONTINUOUS
 62
     7
370
    35
100
AcDbLine
 10
167.75000000000006
 20
-151.49999999999989
 30
0.00000000000000
 11
166.95000000000007
 21
-151.28564064605499
 31
0.00000000000000
  0
LINE
  5
369
330
2A
100
AcDbEntity
  8
Details 10
  6
CONTINUOUS
 62
     7
370
    35
100
AcDbLine
 10
169.95000000000002
 20
-136.99999999999983
 30
0.00000000000000
 11
167.75000000000017
 21
-136.99999999999977
 31
0.00000000000000
  0
LINE
  5
36A
330
2A
100
AcDbEntity
  8
Details 10
  6
CONTINUOUS
 62
     7
370
    35
100
AcDbLine
 10
169.95000000000010
 20
-148.99999999999935
 30
0.00000000000000
 11
167.75000000000017
 21
-148.99999999999935
 31
0.00000000000000
  0
MTEXT
  5
36B
330
2A
100
AcDbEntity
  8
Planrahmen
 62
     7
370
    25
100
AcDbMText
 10
25.00000000000030
 20
-282.99999999999960
 30
0.00000000000000
 40
2.50000000000000
 41
0.00000000000000
 71
     1
 72
     1
  3
\fArial Narrow|b0|i0;Wir übernehmen keine Haftung für die Vollständigkeit und Eignung der abgebildeten Darstellungen an konkreten Objekten. Die projektbezogene\PAusführbarkeit der Details muss in jedem Fall vom jeweiligen Fachplaner/Architekten geprü
  1
ft werden.
 11
1.00000000000000
 21
0.00000000000000
 31
0.00000000000000
 73
     1
 44
1.00000000000000
  0
INSERT
  5
3B
330
2A
100
AcDbEntity
  8
Planrahmen
 62
     5
370
    25
100
AcDbBlockReference
  2
*U14
 10
0.00000000000000
 20
0.00000000000000
 30
0.00000000000000
  0
INSERT
  5
3C
330
2A
100
AcDbEntity
  8
Planrahmen
 62
     5
370
    25
100
AcDbBlockReference
  2
*U15
 10
0.00000000000000
 20
0.00000000000000
 30
0.00000000000000
  0
ENDSEC
  0
SECTION
  2
OBJECTS
  0
DICTIONARY
  5
36C
330
0
100
AcDbDictionary
281
     1
  3
ACAD_GROUP
350
36D
  3
ACAD_PLOTSTYLENAME
350
36E
  3
ACAD_MLINESTYLE
350
36F
  3
ACAD_LAYOUT
350
370
  0
DICTIONARY
  5
36D
102
{ACAD_REACTORS
330
36C
102
}
330
36C
100
AcDbDictionary
281
     1
  0
ACDBDICTIONARYWDFLT
  5
36E
102
{ACAD_REACTORS
330
36C
102
}
330
36C
100
AcDbDictionary
281
     1
  3
Normal
350
1
100
AcDbDictionaryWithDefault
340
1
  0
DICTIONARY
  5
36F
102
{ACAD_REACTORS
330
36C
102
}
330
36C
100
AcDbDictionary
281
     1
  3
STANDARD
350
371
  0
DICTIONARY
  5
370
102
{ACAD_REACTORS
330
36C
102
}
330
36C
100
AcDbDictionary
281
     1
  0
ACDBPLACEHOLDER
  5
1
102
{ACAD_REACTORS
330
36E
102
}
330
36E
  0
MLINESTYLE
  5
371
102
{ACAD_REACTORS
330
36F
102
}
330
36F
100
AcDbMlineStyle
  2
STANDARD
 70
     0
  3

 62
   256
 51
90.00000000000000
 52
90.00000000000000
 71
     2
 49
0.50000000000000
 62
   256
  6
BYLAYER
 49
-0.50000000000000
 62
   256
  6
BYLAYER
  0
ENDSEC
  0
EOF
