  0
SECTION
  2
HEADER
  9
$ACADVER
  1
AC1015
  9
$INSBASE
 10
114.59353433611979
 20
-149.91199704510092
 30
0.00000000000000
  9
$EXTMIN
 10
23.20812931327757
 20
-293.64488603110385
 30
0.00000000000000
  9
$EXTMAX
 10
205.97893935896201
 20
-6.17910805909800
 30
0.00000000000000
  9
$LTSCALE
 40
1.00000000000000
  9
$CLAYER
  8
Planrahmen
  9
$TDCREATE
 40
2459083.30201388900000
  9
$TDINDWG
 40
0.02031334184606
  9
$HANDSEED
  5
FF0000
  0
ENDSEC
  0
SECTION
  2
CLASSES
  0
CLASS
  1
ACDBDICTIONARYWDFLT
  2
AcDbDictionaryWithDefault
  3
AutoCAD 2000
 90
        0
280
     0
281
     0
  0
CLASS
  1
ACDBPLACEHOLDER
  2
AcDbPlaceHolder
  3
AutoCAD 2000
 90
        0
280
     0
281
     0
  0
ENDSEC
  0
SECTION
  2
TABLES
  0
TABLE
  2
VPORT
  5
2
330
0
100
AcDbSymbolTable
 70
     0
  0
ENDTAB
  0
TABLE
  2
LTYPE
  5
3
330
0
100
AcDbSymbolTable
 70
     8
  0
LTYPE
  5
4
330
3
100
AcDbSymbolTableRecord
100
AcDbLinetypeTableRecord
  2
BYBLOCK
 70
     0
  3

 72
    65
 73
     0
 40
0.00000000000000
  0
LTYPE
  5
5
330
3
100
AcDbSymbolTableRecord
100
AcDbLinetypeTableRecord
  2
BYLAYER
 70
     0
  3

 72
    65
 73
     0
 40
0.00000000000000
  0
LTYPE
  5
6
330
3
100
AcDbSymbolTableRecord
100
AcDbLinetypeTableRecord
  2
CONTINUOUS
 70
     0
  3
Ausgezogene Linie
 72
    65
 73
     0
 40
0.00000000000000
  0
LTYPE
  5
7
330
3
100
AcDbSymbolTableRecord
100
AcDbLinetypeTableRecord
  2
DC_VERDECKT
 70
     0
  3
_ _ _ _ _ _ _ _ _ _
 72
    65
 73
     2
 40
7.00000000000000
 49
4.66900000000000
 74
     0
 49
-2.33100000000000
 74
     0
  0
LTYPE
  5
8
330
3
100
AcDbSymbolTableRecord
100
AcDbLinetypeTableRecord
  2
DC_GEPUNKTET
 70
     0
  3
...................
 72
    65
 73
     2
 40
2.00000000000000
 49
0.50000000000000
 74
     0
 49
-1.50000000000000
 74
     0
  0
LTYPE
  5
9
330
3
100
AcDbSymbolTableRecord
100
AcDbLinetypeTableRecord
  2
DC_MITTELLINIE
 70
     0
  3
____ _ ____ _ ____ 
 72
    65
 73
     4
 40
20.00000000000000
 49
15.00000000000000
 74
     0
 49
-2.00000000000000
 74
     0
 49
1.00000000000000
 74
     0
 49
-2.00000000000000
 74
     0
  0
LTYPE
  5
A
330
3
100
AcDbSymbolTableRecord
100
AcDbLinetypeTableRecord
  2
DC_PHANTOM
 70
     0
  3
_______ _ _ _______
 72
    65
 73
     6
 40
25.00000000000000
 49
17.00000000000000
 74
     0
 49
-2.00000000000000
 74
     0
 49
1.00000000000000
 74
     0
 49
-2.00000000000000
 74
     0
 49
1.00000000000000
 74
     0
 49
-2.00000000000000
 74
     0
  0
LTYPE
  5
B
330
3
100
AcDbSymbolTableRecord
100
AcDbLinetypeTableRecord
  2
DC_STRICHDREIPUNKTIERT
 70
     0
  3
______ _ _ _ ______
 72
    65
 73
     8
 40
28.00000000000000
 49
18.76000000000000
 74
     0
 49
-1.68000000000000
 74
     0
 49
0.84000000000000
 74
     0
 49
-1.68000000000000
 74
     0
 49
0.84000000000000
 74
     0
 49
-1.68000000000000
 74
     0
 49
0.84000000000000
 74
     0
 49
-1.68000000000000
 74
     0
  0
ENDTAB
  0
TABLE
  2
LAYER
  5
C
330
0
100
AcDbSymbolTable
 70
     3
  0
LAYER
  5
D
330
C
100
AcDbSymbolTableRecord
100
AcDbLayerTableRecord
  2
0
 70
     0
 62
     7
  6
CONTINUOUS
370
    25
390
1
  0
LAYER
  5
E
330
C
100
AcDbSymbolTableRecord
100
AcDbLayerTableRecord
  2
Planrahmen
 70
    64
 62
     7
  6
CONTINUOUS
370
    25
390
1
  0
LAYER
  5
F
330
C
100
AcDbSymbolTableRecord
100
AcDbLayerTableRecord
  2
# Zeichnungen 10
 70
    64
 62
     7
  6
CONTINUOUS
370
    25
390
1
  0
ENDTAB
  0
TABLE
  2
STYLE
  5
10
330
0
100
AcDbSymbolTable
 70
     2
  0
STYLE
  5
11
330
10
100
AcDbSymbolTableRecord
100
AcDbTextStyleTableRecord
  2
STANDARD
 70
     0
 40
0.00000000000000
 41
1.00000000000000
 50
0.00000000000000
 71
     0
 42
3.50000000000000
  3
txt
  4

  0
ENDTAB
  0
TABLE
  2
VIEW
  5
12
330
0
100
AcDbSymbolTable
 70
     0
  0
ENDTAB
  0
TABLE
  2
UCS
  5
13
330
0
100
AcDbSymbolTable
 70
     0
  0
ENDTAB
  0
TABLE
  2
APPID
  5
14
330
0
100
AcDbSymbolTable
 70
     2
  0
APPID
  5
15
330
14
100
AcDbSymbolTableRecord
100
AcDbRegAppTableRecord
  2
ACAD
 70
     0
  0
APPID
  5
16
330
14
100
AcDbSymbolTableRecord
100
AcDbRegAppTableRecord
  2
DIG-CAD
 70
     0
  0
ENDTAB
  0
TABLE
  2
DIMSTYLE
  5
17
330
0
100
AcDbSymbolTable
 70
     0
100
AcDbDimStyleTable
 71
     0
  0
ENDTAB
  0
TABLE
  2
BLOCK_RECORD
  5
2E
330
0
100
AcDbSymbolTable
 70
    22
  0
BLOCK_RECORD
  5
2F
330
2E
100
AcDbSymbolTableRecord
100
AcDbBlockTableRecord
  2
*MODEL_SPACE
340
0
  0
BLOCK_RECORD
  5
30
330
2E
100
AcDbSymbolTableRecord
100
AcDbBlockTableRecord
  2
*PAPER_SPACE
340
0
  0
BLOCK_RECORD
  5
18
330
2E
100
AcDbSymbolTableRecord
100
AcDbBlockTableRecord
  2
*U1
340
0
102
{BLKREFS
331
31
102
}
  0
BLOCK_RECORD
  5
19
330
2E
100
AcDbSymbolTableRecord
100
AcDbBlockTableRecord
  2
*U2
340
0
102
{BLKREFS
331
32
102
}
  0
BLOCK_RECORD
  5
1A
330
2E
100
AcDbSymbolTableRecord
100
AcDbBlockTableRecord
  2
*U3
340
0
102
{BLKREFS
331
33
102
}
  0
BLOCK_RECORD
  5
1B
330
2E
100
AcDbSymbolTableRecord
100
AcDbBlockTableRecord
  2
*U4
340
0
102
{BLKREFS
331
34
102
}
  0
BLOCK_RECORD
  5
1C
330
2E
100
AcDbSymbolTableRecord
100
AcDbBlockTableRecord
  2
*U5
340
0
102
{BLKREFS
331
35
102
}
  0
BLOCK_RECORD
  5
1D
330
2E
100
AcDbSymbolTableRecord
100
AcDbBlockTableRecord
  2
*U6
340
0
102
{BLKREFS
331
36
102
}
  0
BLOCK_RECORD
  5
1E
330
2E
100
AcDbSymbolTableRecord
100
AcDbBlockTableRecord
  2
*U7
340
0
102
{BLKREFS
331
37
102
}
  0
BLOCK_RECORD
  5
1F
330
2E
100
AcDbSymbolTableRecord
100
AcDbBlockTableRecord
  2
*U8
340
0
102
{BLKREFS
331
38
102
}
  0
BLOCK_RECORD
  5
20
330
2E
100
AcDbSymbolTableRecord
100
AcDbBlockTableRecord
  2
*U9
340
0
102
{BLKREFS
331
39
102
}
  0
BLOCK_RECORD
  5
21
330
2E
100
AcDbSymbolTableRecord
100
AcDbBlockTableRecord
  2
*U10
340
0
102
{BLKREFS
331
3A
102
}
  0
BLOCK_RECORD
  5
22
330
2E
100
AcDbSymbolTableRecord
100
AcDbBlockTableRecord
  2
*U11
340
0
102
{BLKREFS
331
3B
102
}
  0
BLOCK_RECORD
  5
23
330
2E
100
AcDbSymbolTableRecord
100
AcDbBlockTableRecord
  2
*U12
340
0
102
{BLKREFS
331
3C
102
}
  0
BLOCK_RECORD
  5
24
330
2E
100
AcDbSymbolTableRecord
100
AcDbBlockTableRecord
  2
*U13
340
0
102
{BLKREFS
331
3D
102
}
  0
BLOCK_RECORD
  5
25
330
2E
100
AcDbSymbolTableRecord
100
AcDbBlockTableRecord
  2
*U14
340
0
102
{BLKREFS
331
3E
102
}
  0
BLOCK_RECORD
  5
26
330
2E
100
AcDbSymbolTableRecord
100
AcDbBlockTableRecord
  2
*U15
340
0
102
{BLKREFS
331
3F
102
}
  0
BLOCK_RECORD
  5
27
330
2E
100
AcDbSymbolTableRecord
100
AcDbBlockTableRecord
  2
*U16
340
0
102
{BLKREFS
331
40
102
}
  0
BLOCK_RECORD
  5
28
330
2E
100
AcDbSymbolTableRecord
100
AcDbBlockTableRecord
  2
*U17
340
0
102
{BLKREFS
331
41
102
}
  0
BLOCK_RECORD
  5
29
330
2E
100
AcDbSymbolTableRecord
100
AcDbBlockTableRecord
  2
*U18
340
0
102
{BLKREFS
331
42
102
}
  0
BLOCK_RECORD
  5
2A
330
2E
100
AcDbSymbolTableRecord
100
AcDbBlockTableRecord
  2
*U19
340
0
102
{BLKREFS
331
43
102
}
  0
BLOCK_RECORD
  5
2B
330
2E
100
AcDbSymbolTableRecord
100
AcDbBlockTableRecord
  2
*U20
340
0
102
{BLKREFS
331
44
102
}
  0
BLOCK_RECORD
  5
2C
330
2E
100
AcDbSymbolTableRecord
100
AcDbBlockTableRecord
  2
*U21
340
0
102
{BLKREFS
331
45
102
}
  0
BLOCK_RECORD
  5
2D
330
2E
100
AcDbSymbolTableRecord
100
AcDbBlockTableRecord
  2
*U22
340
0
102
{BLKREFS
331
46
102
}
  0
ENDTAB
  0
ENDSEC
  0
SECTION
  2
BLOCKS
  0
BLOCK
  5
47
330
2F
100
AcDbEntity
  8
0
100
AcDbBlockBegin
  2
*MODEL_SPACE
 70
     0
 10
0.00000000000000
 20
0.00000000000000
 30
0.00000000000000
  3
*MODEL_SPACE
  1

  0
ENDBLK
  5
48
330
2F
100
AcDbEntity
  8
0
100
AcDbBlockEnd
  0
BLOCK
  5
49
330
30
100
AcDbEntity
 67
     1
  8
0
100
AcDbBlockBegin
  2
*PAPER_SPACE
 70
     0
 10
0.00000000000000
 20
0.00000000000000
 30
0.00000000000000
  3
*PAPER_SPACE
  1

  0
ENDBLK
  5
4A
330
30
100
AcDbEntity
 67
     1
  8
0
100
AcDbBlockEnd
  0
BLOCK
  5
4B
330
18
100
AcDbEntity
  8
0
100
AcDbBlockBegin
  2
*U1
 70
     1
 10
0.00000000000000
 20
0.00000000000000
 30
0.00000000000000
  3
*U1
  1

  0
MTEXT
  5
4C
330
18
100
AcDbEntity
  8
# Zeichnungen 10
 62
     7
370
    30
100
AcDbMText
 10
116.24999999999986
 20
-152.19999999999996
 30
0.00000000000000
 40
2.80000000000000
 41
0.00000000000000
 71
     7
 72
     1
  1
\fArial Narrow|b0|i0;Gewindestange als Zuganker;
 11
1.00000000000000
 21
0.00000000000000
 31
0.00000000000000
 73
     1
 44
1.00000000000000
  0
MTEXT
  5
4D
330
18
100
AcDbEntity
  8
# Zeichnungen 10
 62
     7
370
    30
100
AcDbMText
 10
116.24999999999986
 20
-153.79999999999995
 30
0.00000000000000
 40
2.80000000000000
 41
0.00000000000000
 71
     1
 72
     1
  1
\fArial Narrow|b0|i0;Güte, Gewindedurchmesser und\PFestigkeitsklasse nach Ang.\Pstatischer Berechnung
 11
1.00000000000000
 21
0.00000000000000
 31
0.00000000000000
 73
     1
 44
1.00000000000000
  0
LINE
  5
4E
330
18
100
AcDbEntity
  8
# Zeichnungen 10
  6
CONTINUOUS
 62
    12
370
    25
100
AcDbLine
 10
81.49999999999974
 20
-166.00000000000003
 30
0.00000000000000
 11
114.99999999999986
 21
-152.99999999999997
 31
0.00000000000000
  0
HATCH
  5
4F
330
18
100
AcDbEntity
  8
# Zeichnungen 10
 62
    12
100
AcDbHatch
 10
0.00000000000000
 20
0.00000000000000
 30
0.00000000000000
210
0.00000000000000
220
0.00000000000000
230
1.00000000000000
  2
SOLID
 70
     1
 71
     0
 91
        1
 92
        0
 93
       16
 72
     1
 10
81.99999999999974
 20
-166.00000000000003
 11
81.96193976625537
 21
-165.80865828381752
 72
     1
 10
81.96193976625537
 20
-165.80865828381752
 11
81.85355339059301
 21
-165.64644660940678
 72
     1
 10
81.85355339059301
 20
-165.64644660940678
 11
81.69134171618228
 21
-165.53806023374440
 72
     1
 10
81.69134171618228
 20
-165.53806023374440
 11
81.49999999999974
 21
-165.50000000000006
 72
     1
 10
81.49999999999974
 20
-165.50000000000006
 11
81.30865828381718
 21
-165.53806023374440
 72
     1
 10
81.30865828381718
 20
-165.53806023374440
 11
81.14644660940645
 21
-165.64644660940678
 72
     1
 10
81.14644660940645
 20
-165.64644660940678
 11
81.03806023374409
 21
-165.80865828381752
 72
     1
 10
81.03806023374409
 20
-165.80865828381752
 11
80.99999999999974
 21
-166.00000000000003
 72
     1
 10
80.99999999999974
 20
-166.00000000000003
 11
81.03806023374409
 21
-166.19134171618256
 72
     1
 10
81.03806023374409
 20
-166.19134171618256
 11
81.14644660940645
 21
-166.35355339059333
 72
     1
 10
81.14644660940645
 20
-166.35355339059333
 11
81.30865828381718
 21
-166.46193976625568
 72
     1
 10
81.30865828381718
 20
-166.46193976625568
 11
81.49999999999974
 21
-166.50000000000003
 72
     1
 10
81.49999999999974
 20
-166.50000000000003
 11
81.69134171618228
 21
-166.46193976625568
 72
     1
 10
81.69134171618228
 20
-166.46193976625568
 11
81.85355339059301
 21
-166.35355339059333
 72
     1
 10
81.85355339059301
 20
-166.35355339059333
 11
81.96193976625537
 21
-166.19134171618256
 72
     1
 10
81.96193976625537
 20
-166.19134171618256
 11
81.99999999999974
 21
-166.00000000000003
 97
        0
 75
     0
 76
     0
 98
        1
 10
0.00000000000000
 20
0.00000000000000
  0
LWPOLYLINE
  5
50
330
18
100
AcDbEntity
  8
# Zeichnungen 10
  6
CONTINUOUS
 62
    12
370
    25
100
AcDbPolyline
 90
       17
 70
   128
 10
81.99999999999974
 20
-166.00000000000003
 10
81.96193976625537
 20
-165.80865828381752
 10
81.85355339059301
 20
-165.64644660940678
 10
81.69134171618228
 20
-165.53806023374440
 10
81.49999999999974
 20
-165.50000000000006
 10
81.30865828381718
 20
-165.53806023374440
 10
81.14644660940645
 20
-165.64644660940678
 10
81.03806023374409
 20
-165.80865828381752
 10
80.99999999999974
 20
-166.00000000000003
 10
81.03806023374409
 20
-166.19134171618256
 10
81.14644660940645
 20
-166.35355339059333
 10
81.30865828381718
 20
-166.46193976625568
 10
81.49999999999974
 20
-166.50000000000003
 10
81.69134171618228
 20
-166.46193976625568
 10
81.85355339059301
 20
-166.35355339059333
 10
81.96193976625537
 20
-166.19134171618256
 10
81.99999999999974
 20
-166.00000000000003
  0
LINE
  5
51
330
18
100
AcDbEntity
  8
# Zeichnungen 10
  6
CONTINUOUS
 62
    12
370
    25
100
AcDbLine
 10
114.99999999999986
 20
-152.99999999999997
 30
0.00000000000000
 11
162.96067748833579
 21
-152.99999999999997
 31
0.00000000000000
  0
ENDBLK
  5
52
330
18
100
AcDbEntity
  8
0
100
AcDbBlockEnd
  0
BLOCK
  5
53
330
19
100
AcDbEntity
  8
0
100
AcDbBlockBegin
  2
*U2
 70
     1
 10
0.00000000000000
 20
0.00000000000000
 30
0.00000000000000
  3
*U2
  1

  0
MTEXT
  5
54
330
19
100
AcDbEntity
  8
# Zeichnungen 10
 62
     7
370
    30
100
AcDbMText
 10
31.78131075038872
 20
-99.20000000000005
 30
0.00000000000000
 40
2.80000000000000
 41
0.00000000000000
 71
     7
 72
     1
  1
\fArial Narrow|b0|i0;Ankerplatte aus nicht
 11
1.00000000000000
 21
0.00000000000000
 31
0.00000000000000
 73
     1
 44
1.00000000000000
  0
MTEXT
  5
55
330
19
100
AcDbEntity
  8
# Zeichnungen 10
 62
     7
370
    30
100
AcDbMText
 10
31.78131075038872
 20
-100.80000000000005
 30
0.00000000000000
 40
2.80000000000000
 41
0.00000000000000
 71
     1
 72
     1
  1
\fArial Narrow|b0|i0;rostendem Stahl nach Ang.\Pstat. Berechnung
 11
1.00000000000000
 21
0.00000000000000
 31
0.00000000000000
 73
     1
 44
1.00000000000000
  0
LINE
  5
56
330
19
100
AcDbEntity
  8
# Zeichnungen 10
  6
CONTINUOUS
 62
    12
370
    25
100
AcDbLine
 10
79.18758620689650
 20
-109.21103448275866
 30
0.00000000000000
 11
70.99999999999992
 21
-100.00000000000004
 31
0.00000000000000
  0
HATCH
  5
57
330
19
100
AcDbEntity
  8
# Zeichnungen 10
 62
    12
100
AcDbHatch
 10
0.00000000000000
 20
0.00000000000000
 30
0.00000000000000
210
0.00000000000000
220
0.00000000000000
230
1.00000000000000
  2
SOLID
 70
     1
 71
     0
 91
        1
 92
        0
 93
       16
 72
     1
 10
79.68758620689650
 20
-109.21103448275866
 11
79.64952597315215
 21
-109.01969276657613
 72
     1
 10
79.64952597315215
 20
-109.01969276657613
 11
79.54113959748977
 21
-108.85748109216540
 72
     1
 10
79.54113959748977
 20
-108.85748109216540
 11
79.37892792307905
 21
-108.74909471650302
 72
     1
 10
79.37892792307905
 20
-108.74909471650302
 11
79.18758620689650
 21
-108.71103448275868
 72
     1
 10
79.18758620689650
 20
-108.71103448275868
 11
78.99624449071396
 21
-108.74909471650302
 72
     1
 10
78.99624449071396
 20
-108.74909471650302
 11
78.83403281630324
 21
-108.85748109216540
 72
     1
 10
78.83403281630324
 20
-108.85748109216540
 11
78.72564644064086
 21
-109.01969276657613
 72
     1
 10
78.72564644064086
 20
-109.01969276657613
 11
78.68758620689650
 21
-109.21103448275866
 72
     1
 10
78.68758620689650
 20
-109.21103448275866
 11
78.72564644064086
 21
-109.40237619894120
 72
     1
 10
78.72564644064086
 20
-109.40237619894120
 11
78.83403281630324
 21
-109.56458787335194
 72
     1
 10
78.83403281630324
 20
-109.56458787335194
 11
78.99624449071396
 21
-109.67297424901430
 72
     1
 10
78.99624449071396
 20
-109.67297424901430
 11
79.18758620689650
 21
-109.71103448275865
 72
     1
 10
79.18758620689650
 20
-109.71103448275865
 11
79.37892792307905
 21
-109.67297424901430
 72
     1
 10
79.37892792307905
 20
-109.67297424901430
 11
79.54113959748977
 21
-109.56458787335194
 72
     1
 10
79.54113959748977
 20
-109.56458787335194
 11
79.64952597315215
 21
-109.40237619894120
 72
     1
 10
79.64952597315215
 20
-109.40237619894120
 11
79.68758620689650
 21
-109.21103448275866
 97
        0
 75
     0
 76
     0
 98
        1
 10
0.00000000000000
 20
0.00000000000000
  0
LWPOLYLINE
  5
58
330
19
100
AcDbEntity
  8
# Zeichnungen 10
  6
CONTINUOUS
 62
    12
370
    25
100
AcDbPolyline
 90
       17
 70
   128
 10
79.68758620689650
 20
-109.21103448275866
 10
79.64952597315215
 20
-109.01969276657613
 10
79.54113959748977
 20
-108.85748109216540
 10
79.37892792307905
 20
-108.74909471650302
 10
79.18758620689650
 20
-108.71103448275868
 10
78.99624449071396
 20
-108.74909471650302
 10
78.83403281630324
 20
-108.85748109216540
 10
78.72564644064086
 20
-109.01969276657613
 10
78.68758620689650
 20
-109.21103448275866
 10
78.72564644064086
 20
-109.40237619894120
 10
78.83403281630324
 20
-109.56458787335194
 10
78.99624449071396
 20
-109.67297424901430
 10
79.18758620689650
 20
-109.71103448275865
 10
79.37892792307905
 20
-109.67297424901430
 10
79.54113959748977
 20
-109.56458787335194
 10
79.64952597315215
 20
-109.40237619894120
 10
79.68758620689650
 20
-109.21103448275866
  0
LINE
  5
59
330
19
100
AcDbEntity
  8
# Zeichnungen 10
  6
CONTINUOUS
 62
    12
370
    25
100
AcDbLine
 10
30.38131075038871
 20
-100.00000000000004
 30
0.00000000000000
 11
70.99999999999992
 21
-100.00000000000004
 31
0.00000000000000
  0
ENDBLK
  5
5A
330
19
100
AcDbEntity
  8
0
100
AcDbBlockEnd
  0
BLOCK
  5
5B
330
1A
100
AcDbEntity
  8
0
100
AcDbBlockBegin
  2
*U3
 70
     1
 10
0.00000000000000
 20
0.00000000000000
 30
0.00000000000000
  3
*U3
  1

  0
MTEXT
  5
5C
330
1A
100
AcDbEntity
  8
# Zeichnungen 10
 62
     7
370
    30
100
AcDbMText
 10
121.07009850168481
 20
-239.51698729810752
 30
0.00000000000000
 40
2.80000000000000
 41
0.00000000000000
 71
     7
 72
     1
  1
\fArial Narrow|b0|i0;Ankerplatte auf oberster
 11
1.00000000000000
 21
0.00000000000000
 31
0.00000000000000
 73
     1
 44
1.00000000000000
  0
MTEXT
  5
5D
330
1A
100
AcDbEntity
  8
# Zeichnungen 10
 62
     7
370
    30
100
AcDbMText
 10
121.07009850168481
 20
-241.11698729810752
 30
0.00000000000000
 40
2.80000000000000
 41
0.00000000000000
 71
     1
 72
     1
  1
\fArial Narrow|b0|i0;Geschossdecke
 11
1.00000000000000
 21
0.00000000000000
 31
0.00000000000000
 73
     1
 44
1.00000000000000
  0
LINE
  5
5E
330
1A
100
AcDbEntity
  8
# Zeichnungen 10
  6
CONTINUOUS
 62
    12
370
    25
100
AcDbLine
 10
161.99999999999966
 20
-228.99999999999991
 30
0.00000000000000
 11
155.91506350946088
 21
-240.31698729810751
 31
0.00000000000000
  0
HATCH
  5
5F
330
1A
100
AcDbEntity
  8
# Zeichnungen 10
 62
    12
100
AcDbHatch
 10
0.00000000000000
 20
0.00000000000000
 30
0.00000000000000
210
0.00000000000000
220
0.00000000000000
230
1.00000000000000
  2
SOLID
 70
     1
 71
     0
 91
        1
 92
        0
 93
       16
 72
     1
 10
162.49999999999963
 20
-228.99999999999991
 11
162.46193976625531
 21
-228.80865828381735
 72
     1
 10
162.46193976625531
 20
-228.80865828381735
 11
162.35355339059294
 21
-228.64644660940667
 72
     1
 10
162.35355339059294
 20
-228.64644660940667
 11
162.19134171618222
 21
-228.53806023374426
 72
     1
 10
162.19134171618222
 20
-228.53806023374426
 11
161.99999999999966
 21
-228.49999999999991
 72
     1
 10
161.99999999999966
 20
-228.49999999999991
 11
161.80865828381712
 21
-228.53806023374426
 72
     1
 10
161.80865828381712
 20
-228.53806023374426
 11
161.64644660940641
 21
-228.64644660940667
 72
     1
 10
161.64644660940641
 20
-228.64644660940667
 11
161.53806023374403
 21
-228.80865828381735
 72
     1
 10
161.53806023374403
 20
-228.80865828381735
 11
161.49999999999966
 21
-228.99999999999991
 72
     1
 10
161.49999999999966
 20
-228.99999999999991
 11
161.53806023374403
 21
-229.19134171618248
 72
     1
 10
161.53806023374403
 20
-229.19134171618248
 11
161.64644660940641
 21
-229.35355339059319
 72
     1
 10
161.64644660940641
 20
-229.35355339059319
 11
161.80865828381712
 21
-229.46193976625560
 72
     1
 10
161.80865828381712
 20
-229.46193976625560
 11
161.99999999999966
 21
-229.49999999999991
 72
     1
 10
161.99999999999966
 20
-229.49999999999991
 11
162.19134171618222
 21
-229.46193976625560
 72
     1
 10
162.19134171618222
 20
-229.46193976625560
 11
162.35355339059294
 21
-229.35355339059319
 72
     1
 10
162.35355339059294
 20
-229.35355339059319
 11
162.46193976625531
 21
-229.19134171618248
 72
     1
 10
162.46193976625531
 20
-229.19134171618248
 11
162.49999999999963
 21
-228.99999999999991
 97
        0
 75
     0
 76
     0
 98
        1
 10
0.00000000000000
 20
0.00000000000000
  0
LWPOLYLINE
  5
60
330
1A
100
AcDbEntity
  8
# Zeichnungen 10
  6
CONTINUOUS
 62
    12
370
    25
100
AcDbPolyline
 90
       17
 70
   128
 10
162.49999999999963
 20
-228.99999999999991
 10
162.46193976625531
 20
-228.80865828381735
 10
162.35355339059294
 20
-228.64644660940667
 10
162.19134171618222
 20
-228.53806023374426
 10
161.99999999999966
 20
-228.49999999999991
 10
161.80865828381712
 20
-228.53806023374426
 10
161.64644660940641
 20
-228.64644660940667
 10
161.53806023374403
 20
-228.80865828381735
 10
161.49999999999966
 20
-228.99999999999991
 10
161.53806023374403
 20
-229.19134171618248
 10
161.64644660940641
 20
-229.35355339059319
 10
161.80865828381712
 20
-229.46193976625560
 10
161.99999999999966
 20
-229.49999999999991
 10
162.19134171618222
 20
-229.46193976625560
 10
162.35355339059294
 20
-229.35355339059319
 10
162.46193976625531
 20
-229.19134171618248
 10
162.49999999999963
 20
-228.99999999999991
  0
LINE
  5
61
330
1A
100
AcDbEntity
  8
# Zeichnungen 10
  6
CONTINUOUS
 62
    12
370
    25
100
AcDbLine
 10
119.67009850168482
 20
-240.31698729810751
 30
0.00000000000000
 11
155.91506350946088
 21
-240.31698729810751
 31
0.00000000000000
  0
ENDBLK
  5
62
330
1A
100
AcDbEntity
  8
0
100
AcDbBlockEnd
  0
BLOCK
  5
63
330
1B
100
AcDbEntity
  8
0
100
AcDbBlockBegin
  2
*U4
 70
     1
 10
0.00000000000000
 20
0.00000000000000
 30
0.00000000000000
  3
*U4
  1

  0
MTEXT
  5
64
330
1B
100
AcDbEntity
  8
# Zeichnungen 10
 62
     7
370
    30
100
AcDbMText
 10
124.74640828006740
 20
-212.88301270189226
 30
0.00000000000000
 40
2.80000000000000
 41
0.00000000000000
 71
     7
 72
     1
  1
\fArial Narrow|b0|i0;Gewindestange
 11
1.00000000000000
 21
0.00000000000000
 31
0.00000000000000
 73
     1
 44
1.00000000000000
  0
MTEXT
  5
65
330
1B
100
AcDbEntity
  8
# Zeichnungen 10
 62
     7
370
    30
100
AcDbMText
 10
124.74640828006740
 20
-214.48301270189222
 30
0.00000000000000
 40
2.80000000000000
 41
0.00000000000000
 71
     1
 72
     1
  1
\fArial Narrow|b0|i0;nach stat. Erfordernis
 11
1.00000000000000
 21
0.00000000000000
 31
0.00000000000000
 73
     1
 44
1.00000000000000
  0
LINE
  5
66
330
1B
100
AcDbEntity
  8
# Zeichnungen 10
  6
CONTINUOUS
 62
    12
370
    25
100
AcDbLine
 10
166.49999999999974
 20
-224.50000000000011
 30
0.00000000000000
 11
155.91506350946088
 21
-213.68301270189224
 31
0.00000000000000
  0
HATCH
  5
67
330
1B
100
AcDbEntity
  8
# Zeichnungen 10
 62
    12
100
AcDbHatch
 10
0.00000000000000
 20
0.00000000000000
 30
0.00000000000000
210
0.00000000000000
220
0.00000000000000
230
1.00000000000000
  2
SOLID
 70
     1
 71
     0
 91
        1
 92
        0
 93
       16
 72
     1
 10
166.99999999999972
 20
-224.50000000000011
 11
166.96193976625540
 21
-224.30865828381755
 72
     1
 10
166.96193976625540
 20
-224.30865828381755
 11
166.85355339059302
 21
-224.14644660940687
 72
     1
 10
166.85355339059302
 20
-224.14644660940687
 11
166.69134171618228
 21
-224.03806023374446
 72
     1
 10
166.69134171618228
 20
-224.03806023374446
 11
166.49999999999974
 21
-224.00000000000011
 72
     1
 10
166.49999999999974
 20
-224.00000000000011
 11
166.30865828381721
 21
-224.03806023374446
 72
     1
 10
166.30865828381721
 20
-224.03806023374446
 11
166.14644660940647
 21
-224.14644660940687
 72
     1
 10
166.14644660940647
 20
-224.14644660940687
 11
166.03806023374412
 21
-224.30865828381755
 72
     1
 10
166.03806023374412
 20
-224.30865828381755
 11
165.99999999999974
 21
-224.50000000000011
 72
     1
 10
165.99999999999974
 20
-224.50000000000011
 11
166.03806023374412
 21
-224.69134171618265
 72
     1
 10
166.03806023374412
 20
-224.69134171618265
 11
166.14644660940647
 21
-224.85355339059336
 72
     1
 10
166.14644660940647
 20
-224.85355339059336
 11
166.30865828381721
 21
-224.96193976625577
 72
     1
 10
166.30865828381721
 20
-224.96193976625577
 11
166.49999999999974
 21
-225.00000000000009
 72
     1
 10
166.49999999999974
 20
-225.00000000000009
 11
166.69134171618228
 21
-224.96193976625577
 72
     1
 10
166.69134171618228
 20
-224.96193976625577
 11
166.85355339059302
 21
-224.85355339059336
 72
     1
 10
166.85355339059302
 20
-224.85355339059336
 11
166.96193976625540
 21
-224.69134171618265
 72
     1
 10
166.96193976625540
 20
-224.69134171618265
 11
166.99999999999972
 21
-224.50000000000011
 97
        0
 75
     0
 76
     0
 98
        1
 10
0.00000000000000
 20
0.00000000000000
  0
LWPOLYLINE
  5
68
330
1B
100
AcDbEntity
  8
# Zeichnungen 10
  6
CONTINUOUS
 62
    12
370
    25
100
AcDbPolyline
 90
       17
 70
   128
 10
166.99999999999972
 20
-224.50000000000011
 10
166.96193976625540
 20
-224.30865828381755
 10
166.85355339059302
 20
-224.14644660940687
 10
166.69134171618228
 20
-224.03806023374446
 10
166.49999999999974
 20
-224.00000000000011
 10
166.30865828381721
 20
-224.03806023374446
 10
166.14644660940647
 20
-224.14644660940687
 10
166.03806023374412
 20
-224.30865828381755
 10
165.99999999999974
 20
-224.50000000000011
 10
166.03806023374412
 20
-224.69134171618265
 10
166.14644660940647
 20
-224.85355339059336
 10
166.30865828381721
 20
-224.96193976625577
 10
166.49999999999974
 20
-225.00000000000009
 10
166.69134171618228
 20
-224.96193976625577
 10
166.85355339059302
 20
-224.85355339059336
 10
166.96193976625540
 20
-224.69134171618265
 10
166.99999999999972
 20
-224.50000000000011
  0
LINE
  5
69
330
1B
100
AcDbEntity
  8
# Zeichnungen 10
  6
CONTINUOUS
 62
    12
370
    25
100
AcDbLine
 10
123.34640828006741
 20
-213.68301270189224
 30
0.00000000000000
 11
155.91506350946088
 21
-213.68301270189224
 31
0.00000000000000
  0
ENDBLK
  5
6A
330
1B
100
AcDbEntity
  8
0
100
AcDbBlockEnd
  0
BLOCK
  5
6B
330
1C
100
AcDbEntity
  8
0
100
AcDbBlockBegin
  2
*U5
 70
     1
 10
0.00000000000000
 20
0.00000000000000
 30
0.00000000000000
  3
*U5
  1

  0
ARC
  5
6C
330
1C
100
AcDbEntity
  8
# Zeichnungen 10
  6
CONTINUOUS
 62
     7
370
    18
100
AcDbCircle
 10
101.49999999999980
 20
-199.99999999999974
 30
0.00000000000000
 40
2.49999999999999
100
AcDbArc
 50
57.67616330307097
 51
180.00000000000000
  0
LINE
  5
6D
330
1C
100
AcDbEntity
  8
# Zeichnungen 10
  6
CONTINUOUS
 62
     7
370
    18
100
AcDbLine
 10
102.83675989110073
 20
-197.88740136477722
 30
0.00000000000000
 11
105.56324010889823
 21
-199.61259863522235
 31
0.00000000000000
  0
ARC
  5
6E
330
1C
100
AcDbEntity
  8
# Zeichnungen 10
  6
CONTINUOUS
 62
     7
370
    18
100
AcDbCircle
 10
106.89999999999911
 20
-197.49999999999989
 30
0.00000000000000
 40
2.49999999999996
100
AcDbArc
 50
237.67616330307072
 51
122.32383669692558
  0
LINE
  5
6F
330
1C
100
AcDbEntity
  8
# Zeichnungen 10
  6
CONTINUOUS
 62
     7
370
    18
100
AcDbLine
 10
105.56324010889836
 20
-195.38740136477739
 30
0.00000000000000
 11
102.83675989110060
 21
-197.11259863522241
 31
0.00000000000000
  0
ARC
  5
70
330
1C
100
AcDbEntity
  8
# Zeichnungen 10
  6
CONTINUOUS
 62
     7
370
    18
100
AcDbCircle
 10
101.49999999999980
 20
-194.99999999999977
 30
0.00000000000000
 40
2.49999999999996
100
AcDbArc
 50
57.67616330307183
 51
302.32383669692558
  0
LINE
  5
71
330
1C
100
AcDbEntity
  8
# Zeichnungen 10
  6
CONTINUOUS
 62
     7
370
    18
100
AcDbLine
 10
102.83675989110064
 20
-192.88740136477733
 30
0.00000000000000
 11
105.56324010889823
 21
-194.61259863522235
 31
0.00000000000000
  0
ARC
  5
72
330
1C
100
AcDbEntity
  8
# Zeichnungen 10
  6
CONTINUOUS
 62
     7
370
    18
100
AcDbCircle
 10
106.89999999999911
 20
-192.49999999999983
 30
0.00000000000000
 40
2.50000000000003
100
AcDbArc
 50
237.67616330307180
 51
122.32383669692649
  0
LINE
  5
73
330
1C
100
AcDbEntity
  8
# Zeichnungen 10
  6
CONTINUOUS
 62
     7
370
    18
100
AcDbLine
 10
105.56324010889831
 20
-190.38740136477730
 30
0.00000000000000
 11
102.83675989110064
 21
-192.11259863522233
 31
0.00000000000000
  0
ARC
  5
74
330
1C
100
AcDbEntity
  8
# Zeichnungen 10
  6
CONTINUOUS
 62
     7
370
    18
100
AcDbCircle
 10
101.49999999999980
 20
-189.99999999999980
 30
0.00000000000000
 40
2.50000000000001
100
AcDbArc
 50
57.67616330307160
 51
302.32383669692729
  0
LINE
  5
75
330
1C
100
AcDbEntity
  8
# Zeichnungen 10
  6
CONTINUOUS
 62
     7
370
    18
100
AcDbLine
 10
102.83675989110064
 20
-187.88740136477736
 30
0.00000000000000
 11
105.56324010889823
 21
-189.61259863522238
 31
0.00000000000000
  0
ARC
  5
76
330
1C
100
AcDbEntity
  8
# Zeichnungen 10
  6
CONTINUOUS
 62
     7
370
    18
100
AcDbCircle
 10
106.89999999999911
 20
-187.49999999999986
 30
0.00000000000000
 40
2.50000000000003
100
AcDbArc
 50
237.67616330307180
 51
122.32383669692649
  0
LINE
  5
77
330
1C
100
AcDbEntity
  8
# Zeichnungen 10
  6
CONTINUOUS
 62
     7
370
    18
100
AcDbLine
 10
105.56324010889831
 20
-185.38740136477733
 30
0.00000000000000
 11
102.83675989110064
 21
-187.11259863522233
 31
0.00000000000000
  0
ARC
  5
78
330
1C
100
AcDbEntity
  8
# Zeichnungen 10
  6
CONTINUOUS
 62
     7
370
    18
100
AcDbCircle
 10
101.49999999999980
 20
-184.99999999999983
 30
0.00000000000000
 40
2.50000000000001
100
AcDbArc
 50
57.67616330306902
 51
302.32383669692729
  0
LINE
  5
79
330
1C
100
AcDbEntity
  8
# Zeichnungen 10
  6
CONTINUOUS
 62
     7
370
    18
100
AcDbLine
 10
102.83675989110077
 20
-182.88740136477739
 30
0.00000000000000
 11
105.56324010889813
 21
-184.61259863522250
 31
0.00000000000000
  0
ARC
  5
7A
330
1C
100
AcDbEntity
  8
# Zeichnungen 10
  6
CONTINUOUS
 62
     7
370
    18
100
AcDbCircle
 10
106.89999999999911
 20
-182.50000000000006
 30
0.00000000000000
 40
2.50000000000000
100
AcDbArc
 50
237.67616330306902
 51
122.32383669692365
  0
LINE
  5
7B
330
1C
100
AcDbEntity
  8
# Zeichnungen 10
  6
CONTINUOUS
 62
     7
370
    18
100
AcDbLine
 10
105.56324010889838
 20
-180.38740136477742
 30
0.00000000000000
 11
102.83675989110051
 21
-182.11259863522235
 31
0.00000000000000
  0
ARC
  5
7C
330
1C
100
AcDbEntity
  8
# Zeichnungen 10
  6
CONTINUOUS
 62
     7
370
    18
100
AcDbCircle
 10
101.49999999999980
 20
-179.99999999999983
 30
0.00000000000000
 40
2.50000000000004
100
AcDbArc
 50
179.99999999999977
 51
302.32383669692450
  0
ENDBLK
  5
7D
330
1C
100
AcDbEntity
  8
0
100
AcDbBlockEnd
  0
BLOCK
  5
7E
330
1D
100
AcDbEntity
  8
0
100
AcDbBlockBegin
  2
*U6
 70
     1
 10
0.00000000000000
 20
0.00000000000000
 30
0.00000000000000
  3
*U6
  1

  0
ARC
  5
7F
330
1D
100
AcDbEntity
  8
# Zeichnungen 10
  6
CONTINUOUS
 62
     7
370
    18
100
AcDbCircle
 10
101.49999999999980
 20
-130.00000000000000
 30
0.00000000000000
 40
2.49999999999999
100
AcDbArc
 50
57.67616330307097
 51
180.00000000000000
  0
LINE
  5
80
330
1D
100
AcDbEntity
  8
# Zeichnungen 10
  6
CONTINUOUS
 62
     7
370
    18
100
AcDbLine
 10
102.83675989110073
 20
-127.88740136477746
 30
0.00000000000000
 11
105.56324010889844
 21
-129.61259863522267
 31
0.00000000000000
  0
ARC
  5
81
330
1D
100
AcDbEntity
  8
# Zeichnungen 10
  6
CONTINUOUS
 62
     7
370
    18
100
AcDbCircle
 10
106.89999999999932
 20
-127.50000000000026
 30
0.00000000000000
 40
2.49999999999998
100
AcDbArc
 50
237.67616330306987
 51
122.32383669692194
  0
LINE
  5
82
330
1D
100
AcDbEntity
  8
# Zeichnungen 10
  6
CONTINUOUS
 62
     7
370
    18
100
AcDbLine
 10
105.56324010889867
 20
-125.38740136477763
 30
0.00000000000000
 11
102.83675989110047
 21
-127.11259863522264
 31
0.00000000000000
  0
ARC
  5
83
330
1D
100
AcDbEntity
  8
# Zeichnungen 10
  6
CONTINUOUS
 62
     7
370
    18
100
AcDbCircle
 10
101.49999999999980
 20
-125.00000000000003
 30
0.00000000000000
 40
2.49999999999999
100
AcDbArc
 50
57.67616330307354
 51
302.32383669692280
  0
LINE
  5
84
330
1D
100
AcDbEntity
  8
# Zeichnungen 10
  6
CONTINUOUS
 62
     7
370
    18
100
AcDbLine
 10
102.83675989110060
 20
-122.88740136477749
 30
0.00000000000000
 11
105.56324010889848
 21
-124.61259863522261
 31
0.00000000000000
  0
ARC
  5
85
330
1D
100
AcDbEntity
  8
# Zeichnungen 10
  6
CONTINUOUS
 62
     7
370
    18
100
AcDbCircle
 10
106.89999999999932
 20
-122.50000000000009
 30
0.00000000000000
 40
2.50000000000001
100
AcDbArc
 50
237.67616330307266
 51
122.32383669692450
  0
LINE
  5
86
330
1D
100
AcDbEntity
  8
# Zeichnungen 10
  6
CONTINUOUS
 62
     7
370
    18
100
AcDbLine
 10
105.56324010889857
 20
-120.38740136477746
 30
0.00000000000000
 11
102.83675989110056
 21
-122.11259863522257
 31
0.00000000000000
  0
ARC
  5
87
330
1D
100
AcDbEntity
  8
# Zeichnungen 10
  6
CONTINUOUS
 62
     7
370
    18
100
AcDbCircle
 10
101.49999999999980
 20
-120.00000000000004
 30
0.00000000000000
 40
2.49999999999996
100
AcDbArc
 50
57.67616330307442
 51
302.32383669692558
  0
LINE
  5
88
330
1D
100
AcDbEntity
  8
# Zeichnungen 10
  6
CONTINUOUS
 62
     7
370
    18
100
AcDbLine
 10
102.83675989110056
 20
-117.88740136477752
 30
0.00000000000000
 11
105.56324010889857
 21
-119.61259863522262
 31
0.00000000000000
  0
ARC
  5
89
330
1D
100
AcDbEntity
  8
# Zeichnungen 10
  6
CONTINUOUS
 62
     7
370
    18
100
AcDbCircle
 10
106.89999999999932
 20
-117.50000000000000
 30
0.00000000000000
 40
2.50000000000004
100
AcDbArc
 50
237.67616330307550
 51
122.32383669692450
  0
LINE
  5
8A
330
1D
100
AcDbEntity
  8
# Zeichnungen 10
  6
CONTINUOUS
 62
     7
370
    18
100
AcDbLine
 10
105.56324010889857
 20
-115.38740136477739
 30
0.00000000000000
 11
102.83675989110056
 21
-117.11259863522250
 31
0.00000000000000
  0
ARC
  5
8B
330
1D
100
AcDbEntity
  8
# Zeichnungen 10
  6
CONTINUOUS
 62
     7
370
    18
100
AcDbCircle
 10
101.49999999999980
 20
-114.99999999999997
 30
0.00000000000000
 40
2.49999999999996
100
AcDbArc
 50
57.67616330307268
 51
302.32383669692558
  0
LINE
  5
8C
330
1D
100
AcDbEntity
  8
# Zeichnungen 10
  6
CONTINUOUS
 62
     7
370
    18
100
AcDbLine
 10
102.83675989110064
 20
-112.88740136477745
 30
0.00000000000000
 11
105.56324010889838
 21
-114.61259863522255
 31
0.00000000000000
  0
ARC
  5
8D
330
1D
100
AcDbEntity
  8
# Zeichnungen 10
  6
CONTINUOUS
 62
     7
370
    18
100
AcDbCircle
 10
106.89999999999924
 20
-112.50000000000003
 30
0.00000000000000
 40
2.50000000000001
100
AcDbArc
 50
237.67616330307266
 51
122.32383669692649
  0
LINE
  5
8E
330
1D
100
AcDbEntity
  8
# Zeichnungen 10
  6
CONTINUOUS
 62
     7
370
    18
100
AcDbLine
 10
105.56324010889844
 20
-110.38740136477749
 30
0.00000000000000
 11
102.83675989110060
 21
-112.11259863522260
 31
0.00000000000000
  0
ARC
  5
8F
330
1D
100
AcDbEntity
  8
# Zeichnungen 10
  6
CONTINUOUS
 62
     7
370
    18
100
AcDbCircle
 10
101.49999999999980
 20
-109.99999999999999
 30
0.00000000000000
 40
2.49999999999996
100
AcDbArc
 50
180.00000000000023
 51
302.32383669692558
  0
ENDBLK
  5
90
330
1D
100
AcDbEntity
  8
0
100
AcDbBlockEnd
  0
BLOCK
  5
91
330
1E
100
AcDbEntity
  8
0
100
AcDbBlockBegin
  2
*U7
 70
     1
 10
0.00000000000000
 20
0.00000000000000
 30
0.00000000000000
  3
*U7
  1

  0
ARC
  5
92
330
1E
100
AcDbEntity
  8
# Zeichnungen 10
  6
CONTINUOUS
 62
     7
370
    18
100
AcDbCircle
 10
194.39999999999966
 20
-199.03333333333325
 30
0.00000000000000
 40
2.43333333333329
100
AcDbArc
 50
90.00000000000000
 51
179.99999999999790
  0
ARC
  5
93
330
1E
100
AcDbEntity
  8
# Zeichnungen 10
  6
CONTINUOUS
 62
     7
370
    18
100
AcDbCircle
 10
189.53333333333299
 20
-199.03333333333325
 30
0.00000000000000
 40
2.43333333333338
100
AcDbArc
 50
0.00000000000209
 51
209.88272266695736
  0
LINE
  5
94
330
1E
100
AcDbEntity
  8
# Zeichnungen 10
  6
CONTINUOUS
 62
     7
370
    18
100
AcDbLine
 10
187.42351890175232
 20
-200.24568401502762
 30
0.00000000000000
 11
188.63901962996465
 21
-202.36098037003521
 31
0.00000000000000
  0
ARC
  5
95
330
1E
100
AcDbEntity
  8
# Zeichnungen 10
  6
CONTINUOUS
 62
     7
370
    18
100
AcDbCircle
 10
187.09999999999960
 20
-204.56666666666666
 30
0.00000000000000
 40
2.43333333333335
100
AcDbArc
 50
150.11727733304082
 51
213.82958023124422
  0
LINE
  5
96
330
1E
100
AcDbEntity
  8
# Zeichnungen 10
  6
CONTINUOUS
 62
     7
370
    18
100
AcDbLine
 10
184.99018556841895
 20
-203.35431598497220
 30
0.00000000000000
 11
186.77648109824699
 21
-200.24568401502762
 31
0.00000000000000
  0
ARC
  5
97
330
1E
100
AcDbEntity
  8
# Zeichnungen 10
  6
CONTINUOUS
 62
     7
370
    18
100
AcDbCircle
 10
184.66666666666632
 20
-199.03333333333325
 30
0.00000000000000
 40
2.43333333333328
100
AcDbArc
 50
330.11727733304309
 51
209.88272266695856
  0
LINE
  5
98
330
1E
100
AcDbEntity
  8
# Zeichnungen 10
  6
CONTINUOUS
 62
     7
370
    18
100
AcDbLine
 10
182.55685223508556
 20
-200.24568401502771
 30
0.00000000000000
 11
184.34314776491371
 21
-203.35431598497226
 31
0.00000000000000
  0
ARC
  5
99
330
1E
100
AcDbEntity
  8
# Zeichnungen 10
  6
CONTINUOUS
 62
     7
370
    18
100
AcDbCircle
 10
182.23333333333301
 20
-204.56666666666666
 30
0.00000000000000
 40
2.43333333333329
100
AcDbArc
 50
150.11727733304366
 51
29.88272266695738
  0
LINE
  5
9A
330
1E
100
AcDbEntity
  8
# Zeichnungen 10
  6
CONTINUOUS
 62
     7
370
    18
100
AcDbLine
 10
180.12351890175225
 20
-203.35431598497226
 30
0.00000000000000
 11
181.90981443158032
 21
-200.24568401502762
 31
0.00000000000000
  0
ARC
  5
9B
330
1E
100
AcDbEntity
  8
# Zeichnungen 10
  6
CONTINUOUS
 62
     7
370
    18
100
AcDbCircle
 10
179.79999999999964
 20
-199.03333333333325
 30
0.00000000000000
 40
2.43333333333328
100
AcDbArc
 50
330.11727733304309
 51
209.88272266695776
  0
LINE
  5
9C
330
1E
100
AcDbEntity
  8
# Zeichnungen 10
  6
CONTINUOUS
 62
     7
370
    18
100
AcDbLine
 10
177.69018556841897
 20
-200.24568401502762
 30
0.00000000000000
 11
179.47648109824704
 21
-203.35431598497226
 31
0.00000000000000
  0
ARC
  5
9D
330
1E
100
AcDbEntity
  8
# Zeichnungen 10
  6
CONTINUOUS
 62
     7
370
    18
100
AcDbCircle
 10
177.36666666666628
 20
-204.56666666666666
 30
0.00000000000000
 40
2.43333333333337
100
AcDbArc
 50
150.11727733304082
 51
29.88272266695634
  0
LINE
  5
9E
330
1E
100
AcDbEntity
  8
# Zeichnungen 10
  6
CONTINUOUS
 62
     7
370
    18
100
AcDbLine
 10
175.25685223508560
 20
-203.35431598497220
 30
0.00000000000000
 11
177.04314776491367
 21
-200.24568401502762
 31
0.00000000000000
  0
ARC
  5
9F
330
1E
100
AcDbEntity
  8
# Zeichnungen 10
  6
CONTINUOUS
 62
     7
370
    18
100
AcDbCircle
 10
174.93333333333300
 20
-199.03333333333325
 30
0.00000000000000
 40
2.43333333333328
100
AcDbArc
 50
330.11727733304309
 51
209.88272266695856
  0
LINE
  5
A0
330
1E
100
AcDbEntity
  8
# Zeichnungen 10
  6
CONTINUOUS
 62
     7
370
    18
100
AcDbLine
 10
172.82351890175224
 20
-200.24568401502771
 30
0.00000000000000
 11
174.60981443158039
 21
-203.35431598497226
 31
0.00000000000000
  0
ARC
  5
A1
330
1E
100
AcDbEntity
  8
# Zeichnungen 10
  6
CONTINUOUS
 62
     7
370
    18
100
AcDbCircle
 10
172.49999999999972
 20
-204.56666666666666
 30
0.00000000000000
 40
2.43333333333329
100
AcDbArc
 50
150.11727733304366
 51
29.88272266695738
  0
LINE
  5
A2
330
1E
100
AcDbEntity
  8
# Zeichnungen 10
  6
CONTINUOUS
 62
     7
370
    18
100
AcDbLine
 10
170.39018556841896
 20
-203.35431598497226
 30
0.00000000000000
 11
172.17648109824702
 21
-200.24568401502762
 31
0.00000000000000
  0
ARC
  5
A3
330
1E
100
AcDbEntity
  8
# Zeichnungen 10
  6
CONTINUOUS
 62
     7
370
    18
100
AcDbCircle
 10
170.06666666666632
 20
-199.03333333333325
 30
0.00000000000000
 40
2.43333333333328
100
AcDbArc
 50
330.11727733304309
 51
209.88272266695776
  0
LINE
  5
A4
330
1E
100
AcDbEntity
  8
# Zeichnungen 10
  6
CONTINUOUS
 62
     7
370
    18
100
AcDbLine
 10
167.95685223508565
 20
-200.24568401502762
 30
0.00000000000000
 11
169.74314776491372
 21
-203.35431598497226
 31
0.00000000000000
  0
ARC
  5
A5
330
1E
100
AcDbEntity
  8
# Zeichnungen 10
  6
CONTINUOUS
 62
     7
370
    18
100
AcDbCircle
 10
167.63333333333296
 20
-204.56666666666666
 30
0.00000000000000
 40
2.43333333333337
100
AcDbArc
 50
150.11727733304082
 51
29.88272266695634
  0
LINE
  5
A6
330
1E
100
AcDbEntity
  8
# Zeichnungen 10
  6
CONTINUOUS
 62
     7
370
    18
100
AcDbLine
 10
165.52351890175228
 20
-203.35431598497220
 30
0.00000000000000
 11
167.30981443158032
 21
-200.24568401502762
 31
0.00000000000000
  0
ARC
  5
A7
330
1E
100
AcDbEntity
  8
# Zeichnungen 10
  6
CONTINUOUS
 62
     7
370
    18
100
AcDbCircle
 10
165.19999999999968
 20
-199.03333333333325
 30
0.00000000000000
 40
2.43333333333328
100
AcDbArc
 50
330.11727733304309
 51
209.88272266695856
  0
LINE
  5
A8
330
1E
100
AcDbEntity
  8
# Zeichnungen 10
  6
CONTINUOUS
 62
     7
370
    18
100
AcDbLine
 10
163.09018556841892
 20
-200.24568401502771
 30
0.00000000000000
 11
164.87648109824704
 21
-203.35431598497226
 31
0.00000000000000
  0
ARC
  5
A9
330
1E
100
AcDbEntity
  8
# Zeichnungen 10
  6
CONTINUOUS
 62
     7
370
    18
100
AcDbCircle
 10
162.76666666666640
 20
-204.56666666666666
 30
0.00000000000000
 40
2.43333333333329
100
AcDbArc
 50
150.11727733304366
 51
29.88272266695738
  0
LINE
  5
AA
330
1E
100
AcDbEntity
  8
# Zeichnungen 10
  6
CONTINUOUS
 62
     7
370
    18
100
AcDbLine
 10
160.65685223508564
 20
-203.35431598497226
 30
0.00000000000000
 11
162.44314776491368
 21
-200.24568401502762
 31
0.00000000000000
  0
ARC
  5
AB
330
1E
100
AcDbEntity
  8
# Zeichnungen 10
  6
CONTINUOUS
 62
     7
370
    18
100
AcDbCircle
 10
160.33333333333300
 20
-199.03333333333325
 30
0.00000000000000
 40
2.43333333333328
100
AcDbArc
 50
330.11727733304309
 51
209.88272266695776
  0
LINE
  5
AC
330
1E
100
AcDbEntity
  8
# Zeichnungen 10
  6
CONTINUOUS
 62
     7
370
    18
100
AcDbLine
 10
158.22351890175236
 20
-200.24568401502762
 30
0.00000000000000
 11
160.00981443158037
 21
-203.35431598497226
 31
0.00000000000000
  0
ARC
  5
AD
330
1E
100
AcDbEntity
  8
# Zeichnungen 10
  6
CONTINUOUS
 62
     7
370
    18
100
AcDbCircle
 10
157.89999999999961
 20
-204.56666666666666
 30
0.00000000000000
 40
2.43333333333337
100
AcDbArc
 50
150.11727733304082
 51
29.88272266695634
  0
LINE
  5
AE
330
1E
100
AcDbEntity
  8
# Zeichnungen 10
  6
CONTINUOUS
 62
     7
370
    18
100
AcDbLine
 10
155.79018556841893
 20
-203.35431598497220
 30
0.00000000000000
 11
157.57648109824700
 21
-200.24568401502762
 31
0.00000000000000
  0
ARC
  5
AF
330
1E
100
AcDbEntity
  8
# Zeichnungen 10
  6
CONTINUOUS
 62
     7
370
    18
100
AcDbCircle
 10
155.46666666666633
 20
-199.03333333333325
 30
0.00000000000000
 40
2.43333333333328
100
AcDbArc
 50
330.11727733304309
 51
209.88272266695856
  0
LINE
  5
B0
330
1E
100
AcDbEntity
  8
# Zeichnungen 10
  6
CONTINUOUS
 62
     7
370
    18
100
AcDbLine
 10
153.35685223508557
 20
-200.24568401502771
 30
0.00000000000000
 11
155.14314776491372
 21
-203.35431598497226
 31
0.00000000000000
  0
ARC
  5
B1
330
1E
100
AcDbEntity
  8
# Zeichnungen 10
  6
CONTINUOUS
 62
     7
370
    18
100
AcDbCircle
 10
153.03333333333305
 20
-204.56666666666666
 30
0.00000000000000
 40
2.43333333333329
100
AcDbArc
 50
150.11727733304366
 51
29.88272266695738
  0
LINE
  5
B2
330
1E
100
AcDbEntity
  8
# Zeichnungen 10
  6
CONTINUOUS
 62
     7
370
    18
100
AcDbLine
 10
150.92351890175229
 20
-203.35431598497226
 30
0.00000000000000
 11
152.70981443158036
 21
-200.24568401502762
 31
0.00000000000000
  0
ARC
  5
B3
330
1E
100
AcDbEntity
  8
# Zeichnungen 10
  6
CONTINUOUS
 62
     7
370
    18
100
AcDbCircle
 10
150.59999999999968
 20
-199.03333333333325
 30
0.00000000000000
 40
2.43333333333328
100
AcDbArc
 50
330.11727733304309
 51
209.88272266695776
  0
LINE
  5
B4
330
1E
100
AcDbEntity
  8
# Zeichnungen 10
  6
CONTINUOUS
 62
     7
370
    18
100
AcDbLine
 10
148.49018556841901
 20
-200.24568401502762
 30
0.00000000000000
 11
150.27648109824707
 21
-203.35431598497226
 31
0.00000000000000
  0
ARC
  5
B5
330
1E
100
AcDbEntity
  8
# Zeichnungen 10
  6
CONTINUOUS
 62
     7
370
    18
100
AcDbCircle
 10
148.16666666666632
 20
-204.56666666666666
 30
0.00000000000000
 40
2.43333333333337
100
AcDbArc
 50
150.11727733304082
 51
29.88272266695634
  0
LINE
  5
B6
330
1E
100
AcDbEntity
  8
# Zeichnungen 10
  6
CONTINUOUS
 62
     7
370
    18
100
AcDbLine
 10
146.05685223508564
 20
-203.35431598497220
 30
0.00000000000000
 11
147.84314776491365
 21
-200.24568401502762
 31
0.00000000000000
  0
ARC
  5
B7
330
1E
100
AcDbEntity
  8
# Zeichnungen 10
  6
CONTINUOUS
 62
     7
370
    18
100
AcDbCircle
 10
145.73333333333301
 20
-199.03333333333325
 30
0.00000000000000
 40
2.43333333333328
100
AcDbArc
 50
330.11727733304309
 51
209.88272266695856
  0
LINE
  5
B8
330
1E
100
AcDbEntity
  8
# Zeichnungen 10
  6
CONTINUOUS
 62
     7
370
    18
100
AcDbLine
 10
143.62351890175225
 20
-200.24568401502771
 30
0.00000000000000
 11
145.40981443158037
 21
-203.35431598497226
 31
0.00000000000000
  0
ARC
  5
B9
330
1E
100
AcDbEntity
  8
# Zeichnungen 10
  6
CONTINUOUS
 62
     7
370
    18
100
AcDbCircle
 10
143.29999999999973
 20
-204.56666666666666
 30
0.00000000000000
 40
2.43333333333329
100
AcDbArc
 50
150.11727733304366
 51
29.88272266695738
  0
LINE
  5
BA
330
1E
100
AcDbEntity
  8
# Zeichnungen 10
  6
CONTINUOUS
 62
     7
370
    18
100
AcDbLine
 10
141.19018556841897
 20
-203.35431598497226
 30
0.00000000000000
 11
142.97648109824701
 21
-200.24568401502762
 31
0.00000000000000
  0
ARC
  5
BB
330
1E
100
AcDbEntity
  8
# Zeichnungen 10
  6
CONTINUOUS
 62
     7
370
    18
100
AcDbCircle
 10
140.86666666666633
 20
-199.03333333333325
 30
0.00000000000000
 40
2.43333333333328
100
AcDbArc
 50
330.11727733304309
 51
209.88272266695856
  0
LINE
  5
BC
330
1E
100
AcDbEntity
  8
# Zeichnungen 10
  6
CONTINUOUS
 62
     7
370
    18
100
AcDbLine
 10
138.75685223508557
 20
-200.24568401502771
 30
0.00000000000000
 11
140.54314776491373
 21
-203.35431598497226
 31
0.00000000000000
  0
ARC
  5
BD
330
1E
100
AcDbEntity
  8
# Zeichnungen 10
  6
CONTINUOUS
 62
     7
370
    18
100
AcDbCircle
 10
138.43333333333305
 20
-204.56666666666666
 30
0.00000000000000
 40
2.43333333333329
100
AcDbArc
 50
150.11727733304366
 51
29.88272266695738
  0
LINE
  5
BE
330
1E
100
AcDbEntity
  8
# Zeichnungen 10
  6
CONTINUOUS
 62
     7
370
    18
100
AcDbLine
 10
136.32351890175229
 20
-203.35431598497226
 30
0.00000000000000
 11
138.10981443158036
 21
-200.24568401502762
 31
0.00000000000000
  0
ARC
  5
BF
330
1E
100
AcDbEntity
  8
# Zeichnungen 10
  6
CONTINUOUS
 62
     7
370
    18
100
AcDbCircle
 10
135.99999999999969
 20
-199.03333333333325
 30
0.00000000000000
 40
2.43333333333328
100
AcDbArc
 50
330.11727733304309
 51
90.00000000000046
  0
ENDBLK
  5
C0
330
1E
100
AcDbEntity
  8
0
100
AcDbBlockEnd
  0
BLOCK
  5
C1
330
1F
100
AcDbEntity
  8
0
100
AcDbBlockBegin
  2
*U8
 70
     1
 10
0.00000000000000
 20
0.00000000000000
 30
0.00000000000000
  3
*U8
  1

  0
ARC
  5
C2
330
1F
100
AcDbEntity
  8
# Zeichnungen 10
  6
CONTINUOUS
 62
     7
370
    18
100
AcDbCircle
 10
191.96666666666690
 20
-196.60000000000051
 30
0.00000000000000
 40
2.43333333333329
100
AcDbArc
 50
270.00000000000000
 51
359.99999999999790
  0
ARC
  5
C3
330
1F
100
AcDbEntity
  8
# Zeichnungen 10
  6
CONTINUOUS
 62
     7
370
    18
100
AcDbCircle
 10
191.96666666666690
 20
-201.46666666666712
 30
0.00000000000000
 40
2.43333333333337
100
AcDbArc
 50
240.11727733304366
 51
89.99999999999892
  0
LINE
  5
C4
330
1F
100
AcDbEntity
  8
# Zeichnungen 10
  6
CONTINUOUS
 62
     7
370
    18
100
AcDbLine
 10
188.63901962996491
 20
-202.36098037003546
 30
0.00000000000000
 11
190.75431598497249
 21
-203.57648109824780
 31
0.00000000000000
  0
ARC
  5
C5
330
1F
100
AcDbEntity
  8
# Zeichnungen 10
  6
CONTINUOUS
 62
     7
370
    18
100
AcDbCircle
 10
186.43333333333345
 20
-203.90000000000052
 30
0.00000000000000
 40
2.43333333333329
100
AcDbArc
 50
236.17041976875396
 51
299.88272266695736
  0
LINE
  5
C6
330
1F
100
AcDbEntity
  8
# Zeichnungen 10
  6
CONTINUOUS
 62
     7
370
    18
100
AcDbLine
 10
190.75431598497249
 20
-204.22351890175312
 30
0.00000000000000
 11
187.64568401502785
 21
-206.00981443158116
 31
0.00000000000000
  0
ARC
  5
C7
330
1F
100
AcDbEntity
  8
# Zeichnungen 10
  6
CONTINUOUS
 62
     7
370
    18
100
AcDbCircle
 10
191.96666666666681
 20
-206.33333333333380
 30
0.00000000000000
 40
2.43333333333321
100
AcDbArc
 50
240.11727733304159
 51
119.88272266695708
  0
LINE
  5
C8
330
1F
100
AcDbEntity
  8
# Zeichnungen 10
  6
CONTINUOUS
 62
     7
370
    18
100
AcDbLine
 10
187.64568401502777
 20
-206.65685223508643
 30
0.00000000000000
 11
190.75431598497232
 21
-208.44314776491456
 31
0.00000000000000
  0
ARC
  5
C9
330
1F
100
AcDbEntity
  8
# Zeichnungen 10
  6
CONTINUOUS
 62
     7
370
    18
100
AcDbCircle
 10
186.43333333333337
 20
-208.76666666666711
 30
0.00000000000000
 40
2.43333333333329
100
AcDbArc
 50
60.11727733304366
 51
299.88272266695736
  0
LINE
  5
CA
330
1F
100
AcDbEntity
  8
# Zeichnungen 10
  6
CONTINUOUS
 62
     7
370
    18
100
AcDbLine
 10
190.75431598497241
 20
-209.09018556841980
 30
0.00000000000000
 11
187.64568401502777
 21
-210.87648109824787
 31
0.00000000000000
  0
ARC
  5
CB
330
1F
100
AcDbEntity
  8
# Zeichnungen 10
  6
CONTINUOUS
 62
     7
370
    18
100
AcDbCircle
 10
191.96666666666681
 20
-211.20000000000047
 30
0.00000000000000
 40
2.43333333333329
100
AcDbArc
 50
240.11727733304261
 51
119.88272266695731
  0
LINE
  5
CC
330
1F
100
AcDbEntity
  8
# Zeichnungen 10
  6
CONTINUOUS
 62
     7
370
    18
100
AcDbLine
 10
187.64568401502777
 20
-211.52351890175308
 30
0.00000000000000
 11
190.75431598497241
 21
-213.30981443158115
 31
0.00000000000000
  0
ARC
  5
CD
330
1F
100
AcDbEntity
  8
# Zeichnungen 10
  6
CONTINUOUS
 62
     7
370
    18
100
AcDbCircle
 10
186.43333333333337
 20
-213.63333333333384
 30
0.00000000000000
 40
2.43333333333334
100
AcDbArc
 50
60.11727733304366
 51
299.88272266695918
  0
LINE
  5
CE
330
1F
100
AcDbEntity
  8
# Zeichnungen 10
  6
CONTINUOUS
 62
     7
370
    18
100
AcDbLine
 10
190.75431598497241
 20
-213.95685223508644
 30
0.00000000000000
 11
187.64568401502785
 21
-215.74314776491451
 31
0.00000000000000
  0
ARC
  5
CF
330
1F
100
AcDbEntity
  8
# Zeichnungen 10
  6
CONTINUOUS
 62
     7
370
    18
100
AcDbCircle
 10
191.96666666666681
 20
-216.06666666666712
 30
0.00000000000000
 40
2.43333333333334
100
AcDbArc
 50
240.11727733304082
 51
119.88272266695628
  0
LINE
  5
D0
330
1F
100
AcDbEntity
  8
# Zeichnungen 10
  6
CONTINUOUS
 62
     7
370
    18
100
AcDbLine
 10
187.64568401502777
 20
-216.39018556841972
 30
0.00000000000000
 11
190.75431598497232
 21
-218.17648109824788
 31
0.00000000000000
  0
ARC
  5
D1
330
1F
100
AcDbEntity
  8
# Zeichnungen 10
  6
CONTINUOUS
 62
     7
370
    18
100
AcDbCircle
 10
186.43333333333337
 20
-218.50000000000040
 30
0.00000000000000
 40
2.43333333333332
100
AcDbArc
 50
60.11727733304082
 51
299.88272266695452
  0
LINE
  5
D2
330
1F
100
AcDbEntity
  8
# Zeichnungen 10
  6
CONTINUOUS
 62
     7
370
    18
100
AcDbLine
 10
190.75431598497232
 20
-218.82351890175312
 30
0.00000000000000
 11
187.64568401502768
 21
-220.60981443158116
 31
0.00000000000000
  0
ARC
  5
D3
330
1F
100
AcDbEntity
  8
# Zeichnungen 10
  6
CONTINUOUS
 62
     7
370
    18
100
AcDbCircle
 10
191.96666666666673
 20
-220.93333333333371
 30
0.00000000000000
 40
2.43333333333317
100
AcDbArc
 50
240.11727733304338
 51
119.88272266695810
  0
LINE
  5
D4
330
1F
100
AcDbEntity
  8
# Zeichnungen 10
  6
CONTINUOUS
 62
     7
370
    18
100
AcDbLine
 10
187.64568401502768
 20
-221.25685223508640
 30
0.00000000000000
 11
190.75431598497232
 21
-223.04314776491447
 31
0.00000000000000
  0
ARC
  5
D5
330
1F
100
AcDbEntity
  8
# Zeichnungen 10
  6
CONTINUOUS
 62
     7
370
    18
100
AcDbCircle
 10
186.43333333333328
 20
-223.36666666666716
 30
0.00000000000000
 40
2.43333333333341
100
AcDbArc
 50
60.11727733304264
 51
299.88272266695816
  0
LINE
  5
D6
330
1F
100
AcDbEntity
  8
# Zeichnungen 10
  6
CONTINUOUS
 62
     7
370
    18
100
AcDbLine
 10
190.75431598497232
 20
-223.69018556841988
 30
0.00000000000000
 11
187.64568401502777
 21
-225.47648109824792
 31
0.00000000000000
  0
ARC
  5
D7
330
1F
100
AcDbEntity
  8
# Zeichnungen 10
  6
CONTINUOUS
 62
     7
370
    18
100
AcDbCircle
 10
191.96666666666673
 20
-225.80000000000044
 30
0.00000000000000
 40
2.43333333333326
100
AcDbArc
 50
240.11727733303977
 51
119.88272266695526
  0
LINE
  5
D8
330
1F
100
AcDbEntity
  8
# Zeichnungen 10
  6
CONTINUOUS
 62
     7
370
    18
100
AcDbLine
 10
187.64568401502768
 20
-226.12351890175296
 30
0.00000000000000
 11
190.75431598497224
 21
-227.90981443158120
 31
0.00000000000000
  0
ARC
  5
D9
330
1F
100
AcDbEntity
  8
# Zeichnungen 10
  6
CONTINUOUS
 62
     7
370
    18
100
AcDbCircle
 10
186.43333333333328
 20
-228.23333333333372
 30
0.00000000000000
 40
2.43333333333337
100
AcDbArc
 50
60.11727733304264
 51
299.88272266695634
  0
LINE
  5
DA
330
1F
100
AcDbEntity
  8
# Zeichnungen 10
  6
CONTINUOUS
 62
     7
370
    18
100
AcDbLine
 10
190.75431598497232
 20
-228.55685223508644
 30
0.00000000000000
 11
187.64568401502768
 21
-230.34314776491448
 31
0.00000000000000
  0
ARC
  5
DB
330
1F
100
AcDbEntity
  8
# Zeichnungen 10
  6
CONTINUOUS
 62
     7
370
    18
100
AcDbCircle
 10
191.96666666666673
 20
-230.66666666666720
 30
0.00000000000000
 40
2.43333333333346
100
AcDbArc
 50
240.11727733304005
 51
119.88272266695481
  0
LINE
  5
DC
330
1F
100
AcDbEntity
  8
# Zeichnungen 10
  6
CONTINUOUS
 62
     7
370
    18
100
AcDbLine
 10
187.64568401502768
 20
-230.99018556841975
 30
0.00000000000000
 11
190.75431598497224
 21
-232.77648109824779
 31
0.00000000000000
  0
ARC
  5
DD
330
1F
100
AcDbEntity
  8
# Zeichnungen 10
  6
CONTINUOUS
 62
     7
370
    18
100
AcDbCircle
 10
186.43333333333320
 20
-233.10000000000051
 30
0.00000000000000
 40
2.43333333333346
100
AcDbArc
 50
60.11727733304446
 51
299.88272266695998
  0
LINE
  5
DE
330
1F
100
AcDbEntity
  8
# Zeichnungen 10
  6
CONTINUOUS
 62
     7
370
    18
100
AcDbLine
 10
190.75431598497224
 20
-233.42351890175303
 30
0.00000000000000
 11
187.64568401502768
 21
-235.20981443158107
 31
0.00000000000000
  0
ARC
  5
DF
330
1F
100
AcDbEntity
  8
# Zeichnungen 10
  6
CONTINUOUS
 62
     7
370
    18
100
AcDbCircle
 10
191.96666666666661
 20
-235.53333333333379
 30
0.00000000000000
 40
2.43333333333341
100
AcDbArc
 50
240.11727733304184
 51
119.88272266695731
  0
LINE
  5
E0
330
1F
100
AcDbEntity
  8
# Zeichnungen 10
  6
CONTINUOUS
 62
     7
370
    18
100
AcDbLine
 10
187.64568401502757
 20
-235.85685223508648
 30
0.00000000000000
 11
190.75431598497215
 21
-237.64314776491454
 31
0.00000000000000
  0
ARC
  5
E1
330
1F
100
AcDbEntity
  8
# Zeichnungen 10
  6
CONTINUOUS
 62
     7
370
    18
100
AcDbCircle
 10
186.43333333333320
 20
-237.96666666666707
 30
0.00000000000000
 40
2.43333333333325
100
AcDbArc
 50
60.11727733304184
 51
299.88272266695554
  0
LINE
  5
E2
330
1F
100
AcDbEntity
  8
# Zeichnungen 10
  6
CONTINUOUS
 62
     7
370
    18
100
AcDbLine
 10
190.75431598497224
 20
-238.29018556841976
 30
0.00000000000000
 11
187.64568401502757
 21
-240.07648109824774
 31
0.00000000000000
  0
ARC
  5
E3
330
1F
100
AcDbEntity
  8
# Zeichnungen 10
  6
CONTINUOUS
 62
     7
370
    18
100
AcDbCircle
 10
191.96666666666661
 20
-240.40000000000043
 30
0.00000000000000
 40
2.43333333333302
100
AcDbArc
 50
240.11727733304133
 51
119.88272266695606
  0
LINE
  5
E4
330
1F
100
AcDbEntity
  8
# Zeichnungen 10
  6
CONTINUOUS
 62
     7
370
    18
100
AcDbLine
 10
187.64568401502757
 20
-240.72351890175312
 30
0.00000000000000
 11
190.75431598497224
 21
-242.50981443158119
 31
0.00000000000000
  0
ARC
  5
E5
330
1F
100
AcDbEntity
  8
# Zeichnungen 10
  6
CONTINUOUS
 62
     7
370
    18
100
AcDbCircle
 10
186.43333333333320
 20
-242.83333333333388
 30
0.00000000000000
 40
2.43333333333341
100
AcDbArc
 50
60.11727733304264
 51
299.88272266695816
  0
LINE
  5
E6
330
1F
100
AcDbEntity
  8
# Zeichnungen 10
  6
CONTINUOUS
 62
     7
370
    18
100
AcDbLine
 10
190.75431598497224
 20
-243.15685223508663
 30
0.00000000000000
 11
187.64568401502768
 21
-244.94314776491464
 31
0.00000000000000
  0
ARC
  5
E7
330
1F
100
AcDbEntity
  8
# Zeichnungen 10
  6
CONTINUOUS
 62
     7
370
    18
100
AcDbCircle
 10
191.96666666666653
 20
-245.26666666666702
 30
0.00000000000000
 40
2.43333333333341
100
AcDbArc
 50
240.11727733304184
 51
119.88272266695731
  0
LINE
  5
E8
330
1F
100
AcDbEntity
  8
# Zeichnungen 10
  6
CONTINUOUS
 62
     7
370
    18
100
AcDbLine
 10
187.64568401502748
 20
-245.59018556841971
 30
0.00000000000000
 11
190.75431598497204
 21
-247.37648109824778
 31
0.00000000000000
  0
ARC
  5
E9
330
1F
100
AcDbEntity
  8
# Zeichnungen 10
  6
CONTINUOUS
 62
     7
370
    18
100
AcDbCircle
 10
186.43333333333311
 20
-247.70000000000047
 30
0.00000000000000
 40
2.43333333333337
100
AcDbArc
 50
60.11727733304264
 51
299.88272266695634
  0
LINE
  5
EA
330
1F
100
AcDbEntity
  8
# Zeichnungen 10
  6
CONTINUOUS
 62
     7
370
    18
100
AcDbLine
 10
190.75431598497215
 20
-248.02351890175319
 30
0.00000000000000
 11
187.64568401502748
 21
-249.80981443158123
 31
0.00000000000000
  0
ARC
  5
EB
330
1F
100
AcDbEntity
  8
# Zeichnungen 10
  6
CONTINUOUS
 62
     7
370
    18
100
AcDbCircle
 10
191.96666666666653
 20
-250.13333333333375
 30
0.00000000000000
 40
2.43333333333346
100
AcDbArc
 50
240.11727733304005
 51
119.88272266695554
  0
LINE
  5
EC
330
1F
100
AcDbEntity
  8
# Zeichnungen 10
  6
CONTINUOUS
 62
     7
370
    18
100
AcDbLine
 10
187.64568401502748
 20
-250.45685223508644
 30
0.00000000000000
 11
190.75431598497204
 21
-252.24314776491451
 31
0.00000000000000
  0
ARC
  5
ED
330
1F
100
AcDbEntity
  8
# Zeichnungen 10
  6
CONTINUOUS
 62
     7
370
    18
100
AcDbCircle
 10
186.43333333333311
 20
-252.56666666666689
 30
0.00000000000000
 40
2.43333333333332
100
AcDbArc
 50
60.11727733304082
 51
299.88272266695452
  0
LINE
  5
EE
330
1F
100
AcDbEntity
  8
# Zeichnungen 10
  6
CONTINUOUS
 62
     7
370
    18
100
AcDbLine
 10
190.75431598497215
 20
-252.89018556841958
 30
0.00000000000000
 11
187.64568401502748
 21
-254.67648109824765
 31
0.00000000000000
  0
ARC
  5
EF
330
1F
100
AcDbEntity
  8
# Zeichnungen 10
  6
CONTINUOUS
 62
     7
370
    18
100
AcDbCircle
 10
191.96666666666653
 20
-255.00000000000034
 30
0.00000000000000
 40
2.43333333333338
100
AcDbArc
 50
0.00000000000000
 51
119.88272266695736
  0
ENDBLK
  5
F0
330
1F
100
AcDbEntity
  8
0
100
AcDbBlockEnd
  0
BLOCK
  5
F1
330
20
100
AcDbEntity
  8
0
100
AcDbBlockBegin
  2
*U9
 70
     1
 10
0.00000000000000
 20
0.00000000000000
 30
0.00000000000000
  3
*U9
  1

  0
MTEXT
  5
F2
330
20
100
AcDbEntity
  8
# Zeichnungen 10
 62
     7
370
    30
100
AcDbMText
 10
139.38333495334334
 20
-191.19999999999993
 30
0.00000000000000
 40
2.80000000000000
 41
0.00000000000000
 71
     7
 72
     1
  1
\fArial Narrow|b0|i0;Deckenkante
 11
1.00000000000000
 21
0.00000000000000
 31
0.00000000000000
 73
     1
 44
1.00000000000000
  0
LINE
  5
F3
330
20
100
AcDbEntity
  8
# Zeichnungen 10
  6
CONTINUOUS
 62
    12
370
    25
100
AcDbLine
 10
164.99999999999969
 20
-206.99999999999997
 30
0.00000000000000
 11
158.99999999999963
 21
-191.99999999999994
 31
0.00000000000000
  0
HATCH
  5
F4
330
20
100
AcDbEntity
  8
# Zeichnungen 10
 62
    12
100
AcDbHatch
 10
0.00000000000000
 20
0.00000000000000
 30
0.00000000000000
210
0.00000000000000
220
0.00000000000000
230
1.00000000000000
  2
SOLID
 70
     1
 71
     0
 91
        1
 92
        0
 93
       16
 72
     1
 10
165.49999999999966
 20
-206.99999999999997
 11
165.46193976625534
 21
-206.80865828381738
 72
     1
 10
165.46193976625534
 20
-206.80865828381738
 11
165.35355339059296
 21
-206.64644660940667
 72
     1
 10
165.35355339059296
 20
-206.64644660940667
 11
165.19134171618222
 21
-206.53806023374429
 72
     1
 10
165.19134171618222
 20
-206.53806023374429
 11
164.99999999999969
 21
-206.49999999999994
 72
     1
 10
164.99999999999969
 20
-206.49999999999994
 11
164.80865828381715
 21
-206.53806023374429
 72
     1
 10
164.80865828381715
 20
-206.53806023374429
 11
164.64644660940641
 21
-206.64644660940667
 72
     1
 10
164.64644660940641
 20
-206.64644660940667
 11
164.53806023374406
 21
-206.80865828381738
 72
     1
 10
164.53806023374406
 20
-206.80865828381738
 11
164.49999999999969
 21
-206.99999999999997
 72
     1
 10
164.49999999999969
 20
-206.99999999999997
 11
164.53806023374406
 21
-207.19134171618251
 72
     1
 10
164.53806023374406
 20
-207.19134171618251
 11
164.64644660940641
 21
-207.35355339059322
 72
     1
 10
164.64644660940641
 20
-207.35355339059322
 11
164.80865828381715
 21
-207.46193976625560
 72
     1
 10
164.80865828381715
 20
-207.46193976625560
 11
164.99999999999969
 21
-207.49999999999994
 72
     1
 10
164.99999999999969
 20
-207.49999999999994
 11
165.19134171618222
 21
-207.46193976625560
 72
     1
 10
165.19134171618222
 20
-207.46193976625560
 11
165.35355339059296
 21
-207.35355339059322
 72
     1
 10
165.35355339059296
 20
-207.35355339059322
 11
165.46193976625534
 21
-207.19134171618251
 72
     1
 10
165.46193976625534
 20
-207.19134171618251
 11
165.49999999999966
 21
-206.99999999999997
 97
        0
 75
     0
 76
     0
 98
        1
 10
0.00000000000000
 20
0.00000000000000
  0
LWPOLYLINE
  5
F5
330
20
100
AcDbEntity
  8
# Zeichnungen 10
  6
CONTINUOUS
 62
    12
370
    25
100
AcDbPolyline
 90
       17
 70
   128
 10
165.49999999999966
 20
-206.99999999999997
 10
165.46193976625534
 20
-206.80865828381738
 10
165.35355339059296
 20
-206.64644660940667
 10
165.19134171618222
 20
-206.53806023374429
 10
164.99999999999969
 20
-206.49999999999994
 10
164.80865828381715
 20
-206.53806023374429
 10
164.64644660940641
 20
-206.64644660940667
 10
164.53806023374406
 20
-206.80865828381738
 10
164.49999999999969
 20
-206.99999999999997
 10
164.53806023374406
 20
-207.19134171618251
 10
164.64644660940641
 20
-207.35355339059322
 10
164.80865828381715
 20
-207.46193976625560
 10
164.99999999999969
 20
-207.49999999999994
 10
165.19134171618222
 20
-207.46193976625560
 10
165.35355339059296
 20
-207.35355339059322
 10
165.46193976625534
 20
-207.19134171618251
 10
165.49999999999966
 20
-206.99999999999997
  0
LINE
  5
F6
330
20
100
AcDbEntity
  8
# Zeichnungen 10
  6
CONTINUOUS
 62
    12
370
    25
100
AcDbLine
 10
137.98333495334333
 20
-191.99999999999994
 30
0.00000000000000
 11
158.99999999999963
 21
-191.99999999999994
 31
0.00000000000000
  0
ENDBLK
  5
F7
330
20
100
AcDbEntity
  8
0
100
AcDbBlockEnd
  0
BLOCK
  5
F8
330
21
100
AcDbEntity
  8
0
100
AcDbBlockBegin
  2
*U10
 70
     1
 10
0.00000000000000
 20
0.00000000000000
 30
0.00000000000000
  3
*U10
  1

  0
MTEXT
  5
F9
330
21
100
AcDbEntity
  8
# Zeichnungen 10
 62
     7
370
    30
100
AcDbMText
 10
35.99999999999977
 20
-166.20000000000013
 30
0.00000000000000
 40
2.80000000000000
 41
0.00000000000000
 71
     7
 72
     1
  1
\fArial Narrow|b0|i0;Mauerwerk im Bereich
 11
1.00000000000000
 21
0.00000000000000
 31
0.00000000000000
 73
     1
 44
1.00000000000000
  0
MTEXT
  5
FA
330
21
100
AcDbEntity
  8
# Zeichnungen 10
 62
     7
370
    30
100
AcDbMText
 10
35.99999999999977
 20
-167.80000000000013
 30
0.00000000000000
 40
2.80000000000000
 41
0.00000000000000
 71
     1
 72
     1
  1
\fArial Narrow|b0|i0;der Gewindestange\Pausnehmen
 11
1.00000000000000
 21
0.00000000000000
 31
0.00000000000000
 73
     1
 44
1.00000000000000
  0
LINE
  5
FB
330
21
100
AcDbEntity
  8
# Zeichnungen 10
  6
CONTINUOUS
 62
    12
370
    25
100
AcDbLine
 10
74.49999999999974
 20
-168.69999999999996
 30
0.00000000000000
 11
68.99999999999977
 21
-167.00000000000011
 31
0.00000000000000
  0
HATCH
  5
FC
330
21
100
AcDbEntity
  8
# Zeichnungen 10
 62
    12
100
AcDbHatch
 10
0.00000000000000
 20
0.00000000000000
 30
0.00000000000000
210
0.00000000000000
220
0.00000000000000
230
1.00000000000000
  2
SOLID
 70
     1
 71
     0
 91
        1
 92
        0
 93
       16
 72
     1
 10
74.99999999999974
 20
-168.69999999999996
 11
74.96193976625540
 21
-168.50865828381745
 72
     1
 10
74.96193976625540
 20
-168.50865828381745
 11
74.85355339059302
 21
-168.34644660940671
 72
     1
 10
74.85355339059302
 20
-168.34644660940671
 11
74.69134171618229
 21
-168.23806023374433
 72
     1
 10
74.69134171618229
 20
-168.23806023374433
 11
74.49999999999974
 21
-168.19999999999999
 72
     1
 10
74.49999999999974
 20
-168.19999999999999
 11
74.30865828381721
 21
-168.23806023374433
 72
     1
 10
74.30865828381721
 20
-168.23806023374433
 11
74.14644660940647
 21
-168.34644660940671
 72
     1
 10
74.14644660940647
 20
-168.34644660940671
 11
74.03806023374409
 21
-168.50865828381745
 72
     1
 10
74.03806023374409
 20
-168.50865828381745
 11
73.99999999999974
 21
-168.69999999999996
 72
     1
 10
73.99999999999974
 20
-168.69999999999996
 11
74.03806023374409
 21
-168.89134171618250
 72
     1
 10
74.03806023374409
 20
-168.89134171618250
 11
74.14644660940647
 21
-169.05355339059324
 72
     1
 10
74.14644660940647
 20
-169.05355339059324
 11
74.30865828381721
 21
-169.16193976625559
 72
     1
 10
74.30865828381721
 20
-169.16193976625559
 11
74.49999999999974
 21
-169.19999999999996
 72
     1
 10
74.49999999999974
 20
-169.19999999999996
 11
74.69134171618229
 21
-169.16193976625559
 72
     1
 10
74.69134171618229
 20
-169.16193976625559
 11
74.85355339059302
 21
-169.05355339059324
 72
     1
 10
74.85355339059302
 20
-169.05355339059324
 11
74.96193976625540
 21
-168.89134171618250
 72
     1
 10
74.96193976625540
 20
-168.89134171618250
 11
74.99999999999974
 21
-168.69999999999996
 97
        0
 75
     0
 76
     0
 98
        1
 10
0.00000000000000
 20
0.00000000000000
  0
LWPOLYLINE
  5
FD
330
21
100
AcDbEntity
  8
# Zeichnungen 10
  6
CONTINUOUS
 62
    12
370
    25
100
AcDbPolyline
 90
       17
 70
   128
 10
74.99999999999974
 20
-168.69999999999996
 10
74.96193976625540
 20
-168.50865828381745
 10
74.85355339059302
 20
-168.34644660940671
 10
74.69134171618229
 20
-168.23806023374433
 10
74.49999999999974
 20
-168.19999999999999
 10
74.30865828381721
 20
-168.23806023374433
 10
74.14644660940647
 20
-168.34644660940671
 10
74.03806023374409
 20
-168.50865828381745
 10
73.99999999999974
 20
-168.69999999999996
 10
74.03806023374409
 20
-168.89134171618250
 10
74.14644660940647
 20
-169.05355339059324
 10
74.30865828381721
 20
-169.16193976625559
 10
74.49999999999974
 20
-169.19999999999996
 10
74.69134171618229
 20
-169.16193976625559
 10
74.85355339059302
 20
-169.05355339059324
 10
74.96193976625540
 20
-168.89134171618250
 10
74.99999999999974
 20
-168.69999999999996
  0
LINE
  5
FE
330
21
100
AcDbEntity
  8
# Zeichnungen 10
  6
CONTINUOUS
 62
    12
370
    25
100
AcDbLine
 10
34.59999999999976
 20
-167.00000000000011
 30
0.00000000000000
 11
68.99999999999977
 21
-167.00000000000011
 31
0.00000000000000
  0
ENDBLK
  5
FF
330
21
100
AcDbEntity
  8
0
100
AcDbBlockEnd
  0
BLOCK
  5
100
330
22
100
AcDbEntity
  8
0
100
AcDbBlockBegin
  2
*U11
 70
     1
 10
0.00000000000000
 20
0.00000000000000
 30
0.00000000000000
  3
*U11
  1

  0
LINE
  5
101
330
22
100
AcDbEntity
  8
# Zeichnungen 10
  6
CONTINUOUS
 62
     7
370
    13
100
AcDbLine
 10
167.36602540378468
 20
-225.99999999999997
 30
0.00000000000000
 11
165.63397459621481
 21
-225.99999999999997
 31
0.00000000000000
  0
LINE
  5
102
330
22
100
AcDbEntity
  8
# Zeichnungen 10
  6
CONTINUOUS
 62
     7
370
    13
100
AcDbLine
 10
165.63397459621481
 20
-225.99999999999997
 30
0.00000000000000
 11
164.76794919243130
 21
-224.50000000000011
 31
0.00000000000000
  0
LINE
  5
103
330
22
100
AcDbEntity
  8
# Zeichnungen 10
  6
CONTINUOUS
 62
     7
370
    13
100
AcDbLine
 10
164.76794919243130
 20
-224.50000000000011
 30
0.00000000000000
 11
165.63397459621481
 21
-223.00000000000006
 31
0.00000000000000
  0
LINE
  5
104
330
22
100
AcDbEntity
  8
# Zeichnungen 10
  6
CONTINUOUS
 62
     7
370
    13
100
AcDbLine
 10
165.63397459621481
 20
-223.00000000000006
 30
0.00000000000000
 11
167.36602540378468
 21
-223.00000000000006
 31
0.00000000000000
  0
LINE
  5
105
330
22
100
AcDbEntity
  8
# Zeichnungen 10
  6
CONTINUOUS
 62
     7
370
    13
100
AcDbLine
 10
167.36602540378468
 20
-223.00000000000006
 30
0.00000000000000
 11
168.23205080756819
 21
-224.50000000000011
 31
0.00000000000000
  0
LINE
  5
106
330
22
100
AcDbEntity
  8
# Zeichnungen 10
  6
CONTINUOUS
 62
     7
370
    13
100
AcDbLine
 10
168.23205080756819
 20
-224.50000000000011
 30
0.00000000000000
 11
167.36602540378468
 21
-225.99999999999997
 31
0.00000000000000
  0
LINE
  5
107
330
22
100
AcDbEntity
  8
# Zeichnungen 10
  6
DC_MITTELLINIE
 62
     7
 48
0.10000000000000
370
    13
100
AcDbLine
 10
166.49999999999974
 20
-222.42153903091653
 30
0.00000000000000
 11
166.49999999999974
 21
-226.57846096908207
 31
0.00000000000000
  0
LINE
  5
108
330
22
100
AcDbEntity
  8
# Zeichnungen 10
  6
DC_MITTELLINIE
 62
     7
 48
0.10000000000000
370
    13
100
AcDbLine
 10
164.42153903091761
 20
-224.50000000000011
 30
0.00000000000000
 11
168.57846096908187
 21
-224.50000000000011
 31
0.00000000000000
  0
CIRCLE
  5
109
330
22
100
AcDbEntity
  8
# Zeichnungen 10
  6
CONTINUOUS
 62
     7
370
    13
100
AcDbCircle
 10
166.49999999999974
 20
-224.50000000000011
 30
0.00000000000000
 40
1.00000000000051
  0
CIRCLE
  5
10A
330
22
100
AcDbEntity
  8
# Zeichnungen 10
  6
CONTINUOUS
 62
     7
370
    13
100
AcDbCircle
 10
166.49999999999974
 20
-224.50000000000011
 30
0.00000000000000
 40
1.50000000000006
  0
ARC
  5
10B
330
22
100
AcDbEntity
  8
# Zeichnungen 10
  6
CONTINUOUS
 62
     7
370
    13
100
AcDbCircle
 10
166.49999999999974
 20
-224.50000000000011
 30
0.00000000000000
 40
0.79999999999969
100
AcDbArc
 50
170.00000000002649
 51
100.00000000002694
  0
CIRCLE
  5
10C
330
22
100
AcDbEntity
  8
# Zeichnungen 10
  6
CONTINUOUS
 62
     7
370
    13
100
AcDbCircle
 10
166.49999999999974
 20
-224.50000000000011
 30
0.00000000000000
 40
1.85000000000031
  0
ENDBLK
  5
10D
330
22
100
AcDbEntity
  8
0
100
AcDbBlockEnd
  0
BLOCK
  5
10E
330
23
100
AcDbEntity
  8
0
100
AcDbBlockBegin
  2
*U12
 70
     1
 10
0.00000000000000
 20
0.00000000000000
 30
0.00000000000000
  3
*U12
  1

  0
LINE
  5
10F
330
23
100
AcDbEntity
  8
# Zeichnungen 10
  6
DC_MITTELLINIE
 62
     7
 48
0.10000000000000
370
    13
100
AcDbLine
 10
81.49999999999982
 20
-254.42153903091656
 30
0.00000000000000
 11
81.49999999999982
 21
-258.57846096908207
 31
0.00000000000000
  0
CIRCLE
  5
110
330
23
100
AcDbEntity
  8
# Zeichnungen 10
  6
CONTINUOUS
 62
     7
370
    35
100
AcDbCircle
 10
81.49999999999982
 20
-256.50000000000011
 30
0.00000000000000
 40
1.00000000000051
  0
ARC
  5
111
330
23
100
AcDbEntity
  8
# Zeichnungen 10
  6
CONTINUOUS
 62
     7
370
    35
100
AcDbCircle
 10
81.49999999999982
 20
-256.50000000000011
 30
0.00000000000000
 40
0.79999999999969
100
AcDbArc
 50
170.00000000002649
 51
100.00000000002694
  0
LINE
  5
112
330
23
100
AcDbEntity
  8
# Zeichnungen 10
  6
DC_MITTELLINIE
 62
     7
 48
0.10000000000000
370
    13
100
AcDbLine
 10
79.42153903091716
 20
-256.50000000000011
 30
0.00000000000000
 11
83.57846096908267
 21
-256.50000000000011
 31
0.00000000000000
  0
ENDBLK
  5
113
330
23
100
AcDbEntity
  8
0
100
AcDbBlockEnd
  0
BLOCK
  5
114
330
24
100
AcDbEntity
  8
0
100
AcDbBlockBegin
  2
*U13
 70
     1
 10
0.00000000000000
 20
0.00000000000000
 30
0.00000000000000
  3
*U13
  1

  0
ARC
  5
115
330
24
100
AcDbEntity
  8
# Zeichnungen 10
  6
CONTINUOUS
 62
     7
370
    18
100
AcDbCircle
 10
74.49999999999993
 20
-254.75000000000031
 30
0.00000000000000
 40
1.75000000000001
100
AcDbArc
 50
270.00000000000000
 51
36.86989764583905
  0
LINE
  5
116
330
24
100
AcDbEntity
  8
# Zeichnungen 10
  6
CONTINUOUS
 62
     7
370
    18
100
AcDbLine
 10
75.89999999999999
 20
-253.70000000000041
 30
0.00000000000000
 11
74.84999999999974
 21
-252.29999999999978
 31
0.00000000000000
  0
ARC
  5
117
330
24
100
AcDbEntity
  8
# Zeichnungen 10
  6
CONTINUOUS
 62
     7
370
    18
100
AcDbCircle
 10
76.24999999999980
 20
-251.24999999999991
 30
0.00000000000000
 40
1.74999999999997
100
AcDbArc
 50
323.13010235416732
 51
216.86989764583907
  0
LINE
  5
118
330
24
100
AcDbEntity
  8
# Zeichnungen 10
  6
CONTINUOUS
 62
     7
370
    18
100
AcDbLine
 10
77.64999999999995
 20
-252.29999999999964
 30
0.00000000000000
 11
76.59999999999970
 21
-253.70000000000041
 31
0.00000000000000
  0
ARC
  5
119
330
24
100
AcDbEntity
  8
# Zeichnungen 10
  6
CONTINUOUS
 62
     7
370
    18
100
AcDbCircle
 10
77.99999999999990
 20
-254.75000000000031
 30
0.00000000000000
 40
1.75000000000004
100
AcDbArc
 50
143.13010235416269
 51
36.86989764583268
  0
LINE
  5
11A
330
24
100
AcDbEntity
  8
# Zeichnungen 10
  6
CONTINUOUS
 62
     7
370
    18
100
AcDbLine
 10
79.40000000000001
 20
-253.70000000000064
 30
0.00000000000000
 11
78.34999999999975
 21
-252.29999999999978
 31
0.00000000000000
  0
ARC
  5
11B
330
24
100
AcDbEntity
  8
# Zeichnungen 10
  6
CONTINUOUS
 62
     7
370
    18
100
AcDbCircle
 10
79.74999999999990
 20
-251.24999999999991
 30
0.00000000000000
 40
1.75000000000001
100
AcDbArc
 50
323.13010235416357
 51
216.86989764583819
  0
LINE
  5
11C
330
24
100
AcDbEntity
  8
# Zeichnungen 10
  6
CONTINUOUS
 62
     7
370
    18
100
AcDbLine
 10
81.15000000000005
 20
-252.29999999999978
 30
0.00000000000000
 11
80.09999999999980
 21
-253.70000000000064
 31
0.00000000000000
  0
ARC
  5
11D
330
24
100
AcDbEntity
  8
# Zeichnungen 10
  6
CONTINUOUS
 62
     7
370
    18
100
AcDbCircle
 10
81.49999999999990
 20
-254.75000000000031
 30
0.00000000000000
 40
1.74999999999997
100
AcDbArc
 50
143.13010235416820
 51
236.79690080193922
  0
ARC
  5
11E
330
24
100
AcDbEntity
  8
# Zeichnungen 10
  6
CONTINUOUS
 62
     7
370
    18
100
AcDbCircle
 10
81.49999999999990
 20
-254.75000000000031
 30
0.00000000000000
 40
1.74999999999992
100
AcDbArc
 50
303.20309919806130
 51
36.86989764583296
  0
LINE
  5
11F
330
24
100
AcDbEntity
  8
# Zeichnungen 10
  6
CONTINUOUS
 62
     7
370
    18
100
AcDbLine
 10
82.90000000000006
 20
-253.70000000000064
 30
0.00000000000000
 11
81.84999999999981
 21
-252.29999999999978
 31
0.00000000000000
  0
ARC
  5
120
330
24
100
AcDbEntity
  8
# Zeichnungen 10
  6
CONTINUOUS
 62
     7
370
    18
100
AcDbCircle
 10
83.24999999999996
 20
-251.24999999999991
 30
0.00000000000000
 40
1.75000000000001
100
AcDbArc
 50
323.13010235416266
 51
216.86989764583819
  0
LINE
  5
121
330
24
100
AcDbEntity
  8
# Zeichnungen 10
  6
CONTINUOUS
 62
     7
370
    18
100
AcDbLine
 10
84.65000000000008
 20
-252.29999999999978
 30
0.00000000000000
 11
83.59999999999981
 21
-253.70000000000041
 31
0.00000000000000
  0
ARC
  5
122
330
24
100
AcDbEntity
  8
# Zeichnungen 10
  6
CONTINUOUS
 62
     7
370
    18
100
AcDbCircle
 10
84.99999999999992
 20
-254.75000000000031
 30
0.00000000000000
 40
1.75000000000001
100
AcDbArc
 50
143.13010235416181
 51
36.86989764583359
  0
LINE
  5
123
330
24
100
AcDbEntity
  8
# Zeichnungen 10
  6
CONTINUOUS
 62
     7
370
    18
100
AcDbLine
 10
86.40000000000003
 20
-253.70000000000064
 30
0.00000000000000
 11
85.34999999999977
 21
-252.29999999999978
 31
0.00000000000000
  0
ARC
  5
124
330
24
100
AcDbEntity
  8
# Zeichnungen 10
  6
CONTINUOUS
 62
     7
370
    18
100
AcDbCircle
 10
86.74999999999994
 20
-251.24999999999991
 30
0.00000000000000
 40
1.75000000000001
100
AcDbArc
 50
323.13010235416266
 51
216.86989764583819
  0
LINE
  5
125
330
24
100
AcDbEntity
  8
# Zeichnungen 10
  6
CONTINUOUS
 62
     7
370
    18
100
AcDbLine
 10
88.15000000000005
 20
-252.29999999999978
 30
0.00000000000000
 11
87.09999999999978
 21
-253.70000000000041
 31
0.00000000000000
  0
ARC
  5
126
330
24
100
AcDbEntity
  8
# Zeichnungen 10
  6
CONTINUOUS
 62
     7
370
    18
100
AcDbCircle
 10
88.49999999999990
 20
-254.75000000000031
 30
0.00000000000000
 40
1.75000000000001
100
AcDbArc
 50
143.13010235416181
 51
270.00000000000000
  0
ENDBLK
  5
127
330
24
100
AcDbEntity
  8
0
100
AcDbBlockEnd
  0
BLOCK
  5
128
330
25
100
AcDbEntity
  8
0
100
AcDbBlockBegin
  2
*U14
 70
     1
 10
0.00000000000000
 20
0.00000000000000
 30
0.00000000000000
  3
*U14
  1

  0
ARC
  5
129
330
25
100
AcDbEntity
  8
# Zeichnungen 10
  6
CONTINUOUS
 62
     7
370
    18
100
AcDbCircle
 10
74.49999999999993
 20
-258.25000000000028
 30
0.00000000000000
 40
1.75000000000001
100
AcDbArc
 50
323.13010235416181
 51
90.00000000000091
  0
LINE
  5
12A
330
25
100
AcDbEntity
  8
# Zeichnungen 10
  6
CONTINUOUS
 62
     7
370
    18
100
AcDbLine
 10
74.84999999999974
 20
-260.70000000000084
 30
0.00000000000000
 11
75.89999999999999
 21
-259.30000000000018
 31
0.00000000000000
  0
ARC
  5
12B
330
25
100
AcDbEntity
  8
# Zeichnungen 10
  6
CONTINUOUS
 62
     7
370
    18
100
AcDbCircle
 10
76.24999999999980
 20
-261.75000000000068
 30
0.00000000000000
 40
1.74999999999997
100
AcDbArc
 50
143.13010235416004
 51
36.86989764583181
  0
LINE
  5
12C
330
25
100
AcDbEntity
  8
# Zeichnungen 10
  6
CONTINUOUS
 62
     7
370
    18
100
AcDbLine
 10
76.59999999999970
 20
-259.30000000000018
 30
0.00000000000000
 11
77.64999999999995
 21
-260.70000000000095
 31
0.00000000000000
  0
ARC
  5
12D
330
25
100
AcDbEntity
  8
# Zeichnungen 10
  6
CONTINUOUS
 62
     7
370
    18
100
AcDbCircle
 10
77.99999999999990
 20
-258.25000000000028
 30
0.00000000000000
 40
1.75000000000001
100
AcDbArc
 50
323.13010235416908
 51
216.86989764583905
  0
LINE
  5
12E
330
25
100
AcDbEntity
  8
# Zeichnungen 10
  6
CONTINUOUS
 62
     7
370
    18
100
AcDbLine
 10
78.34999999999975
 20
-260.70000000000084
 30
0.00000000000000
 11
79.40000000000001
 21
-259.30000000000001
 31
0.00000000000000
  0
ARC
  5
12F
330
25
100
AcDbEntity
  8
# Zeichnungen 10
  6
CONTINUOUS
 62
     7
370
    18
100
AcDbCircle
 10
79.74999999999990
 20
-261.75000000000068
 30
0.00000000000000
 40
1.75000000000001
100
AcDbArc
 50
143.13010235416357
 51
36.86989764583821
  0
LINE
  5
130
330
25
100
AcDbEntity
  8
# Zeichnungen 10
  6
CONTINUOUS
 62
     7
370
    18
100
AcDbLine
 10
80.09999999999980
 20
-259.30000000000001
 30
0.00000000000000
 11
81.15000000000005
 21
-260.70000000000084
 31
0.00000000000000
  0
ARC
  5
131
330
25
100
AcDbEntity
  8
# Zeichnungen 10
  6
CONTINUOUS
 62
     7
370
    18
100
AcDbCircle
 10
81.49999999999990
 20
-258.25000000000028
 30
0.00000000000000
 40
1.74999999999997
100
AcDbArc
 50
123.20309919806374
 51
216.86989764583475
  0
ARC
  5
132
330
25
100
AcDbEntity
  8
# Zeichnungen 10
  6
CONTINUOUS
 62
     7
370
    18
100
AcDbCircle
 10
81.49999999999990
 20
-258.25000000000028
 30
0.00000000000000
 40
1.74999999999994
100
AcDbArc
 50
323.13010235416732
 51
56.79690080193899
  0
LINE
  5
133
330
25
100
AcDbEntity
  8
# Zeichnungen 10
  6
CONTINUOUS
 62
     7
370
    18
100
AcDbLine
 10
81.84999999999981
 20
-260.70000000000084
 30
0.00000000000000
 11
82.90000000000006
 21
-259.30000000000001
 31
0.00000000000000
  0
ARC
  5
134
330
25
100
AcDbEntity
  8
# Zeichnungen 10
  6
CONTINUOUS
 62
     7
370
    18
100
AcDbCircle
 10
83.24999999999996
 20
-261.75000000000068
 30
0.00000000000000
 40
1.75000000000001
100
AcDbArc
 50
143.13010235416272
 51
36.86989764583821
  0
LINE
  5
135
330
25
100
AcDbEntity
  8
# Zeichnungen 10
  6
CONTINUOUS
 62
     7
370
    18
100
AcDbLine
 10
83.59999999999981
 20
-259.30000000000018
 30
0.00000000000000
 11
84.65000000000008
 21
-260.70000000000084
 31
0.00000000000000
  0
ARC
  5
136
330
25
100
AcDbEntity
  8
# Zeichnungen 10
  6
CONTINUOUS
 62
     7
370
    18
100
AcDbCircle
 10
84.99999999999992
 20
-258.25000000000028
 30
0.00000000000000
 40
1.75000000000001
100
AcDbArc
 50
323.13010235416908
 51
216.86989764584087
  0
LINE
  5
137
330
25
100
AcDbEntity
  8
# Zeichnungen 10
  6
CONTINUOUS
 62
     7
370
    18
100
AcDbLine
 10
85.34999999999977
 20
-260.70000000000084
 30
0.00000000000000
 11
86.40000000000003
 21
-259.30000000000001
 31
0.00000000000000
  0
ARC
  5
138
330
25
100
AcDbEntity
  8
# Zeichnungen 10
  6
CONTINUOUS
 62
     7
370
    18
100
AcDbCircle
 10
86.74999999999994
 20
-261.75000000000068
 30
0.00000000000000
 40
1.75000000000001
100
AcDbArc
 50
143.13010235416272
 51
36.86989764583821
  0
LINE
  5
139
330
25
100
AcDbEntity
  8
# Zeichnungen 10
  6
CONTINUOUS
 62
     7
370
    18
100
AcDbLine
 10
87.09999999999978
 20
-259.30000000000018
 30
0.00000000000000
 11
88.15000000000005
 21
-260.70000000000084
 31
0.00000000000000
  0
ARC
  5
13A
330
25
100
AcDbEntity
  8
# Zeichnungen 10
  6
CONTINUOUS
 62
     7
370
    18
100
AcDbCircle
 10
88.49999999999990
 20
-258.25000000000028
 30
0.00000000000000
 40
1.75000000000001
100
AcDbArc
 50
90.00000000000000
 51
216.86989764583819
  0
ENDBLK
  5
13B
330
25
100
AcDbEntity
  8
0
100
AcDbBlockEnd
  0
BLOCK
  5
13C
330
26
100
AcDbEntity
  8
0
100
AcDbBlockBegin
  2
*U15
 70
     1
 10
0.00000000000000
 20
0.00000000000000
 30
0.00000000000000
  3
*U15
  1

  0
MTEXT
  5
13D
330
26
100
AcDbEntity
  8
# Zeichnungen 10
 62
     7
370
    30
100
AcDbMText
 10
26.99999999999999
 20
-245.20000000000005
 30
0.00000000000000
 40
2.80000000000000
 41
0.00000000000000
 71
     7
 72
     1
  1
\fArial Narrow|b0|i0;Mauerwerk im Bereich
 11
1.00000000000000
 21
0.00000000000000
 31
0.00000000000000
 73
     1
 44
1.00000000000000
  0
MTEXT
  5
13E
330
26
100
AcDbEntity
  8
# Zeichnungen 10
 62
     7
370
    30
100
AcDbMText
 10
26.99999999999999
 20
-246.80000000000004
 30
0.00000000000000
 40
2.80000000000000
 41
0.00000000000000
 71
     1
 72
     1
  1
\fArial Narrow|b0|i0;der Gewindestange\Pausnehmen und mit\PDämmung ausstopfen
 11
1.00000000000000
 21
0.00000000000000
 31
0.00000000000000
 73
     1
 44
1.00000000000000
  0
LINE
  5
13F
330
26
100
AcDbEntity
  8
# Zeichnungen 10
  6
CONTINUOUS
 62
    12
370
    25
100
AcDbLine
 10
81.49999999999982
 20
-256.50000000000011
 30
0.00000000000000
 11
60.00000000000000
 21
-246.00000000000006
 31
0.00000000000000
  0
HATCH
  5
140
330
26
100
AcDbEntity
  8
# Zeichnungen 10
 62
    12
100
AcDbHatch
 10
0.00000000000000
 20
0.00000000000000
 30
0.00000000000000
210
0.00000000000000
220
0.00000000000000
230
1.00000000000000
  2
SOLID
 70
     1
 71
     0
 91
        1
 92
        0
 93
       16
 72
     1
 10
81.74999999999982
 20
-256.50000000000011
 11
81.73096988312764
 21
-256.40432914190887
 72
     1
 10
81.73096988312764
 20
-256.40432914190887
 11
81.67677669529645
 21
-256.32322330470339
 72
     1
 10
81.67677669529645
 20
-256.32322330470339
 11
81.59567085809110
 21
-256.26903011687227
 72
     1
 10
81.59567085809110
 20
-256.26903011687227
 11
81.49999999999982
 21
-256.25000000000006
 72
     1
 10
81.49999999999982
 20
-256.25000000000006
 11
81.40432914190855
 21
-256.26903011687227
 72
     1
 10
81.40432914190855
 20
-256.26903011687227
 11
81.32322330470319
 21
-256.32322330470339
 72
     1
 10
81.32322330470319
 20
-256.32322330470339
 11
81.26903011687200
 21
-256.40432914190887
 72
     1
 10
81.26903011687200
 20
-256.40432914190887
 11
81.24999999999982
 21
-256.50000000000011
 72
     1
 10
81.24999999999982
 20
-256.50000000000011
 11
81.26903011687200
 21
-256.59567085809135
 72
     1
 10
81.26903011687200
 20
-256.59567085809135
 11
81.32322330470319
 21
-256.67677669529678
 72
     1
 10
81.32322330470319
 20
-256.67677669529678
 11
81.40432914190855
 21
-256.73096988312790
 72
     1
 10
81.40432914190855
 20
-256.73096988312790
 11
81.49999999999982
 21
-256.75000000000006
 72
     1
 10
81.49999999999982
 20
-256.75000000000006
 11
81.59567085809110
 21
-256.73096988312790
 72
     1
 10
81.59567085809110
 20
-256.73096988312790
 11
81.67677669529645
 21
-256.67677669529678
 72
     1
 10
81.67677669529645
 20
-256.67677669529678
 11
81.73096988312764
 21
-256.59567085809135
 72
     1
 10
81.73096988312764
 20
-256.59567085809135
 11
81.74999999999982
 21
-256.50000000000011
 97
        0
 75
     0
 76
     0
 98
        1
 10
0.00000000000000
 20
0.00000000000000
  0
LWPOLYLINE
  5
141
330
26
100
AcDbEntity
  8
# Zeichnungen 10
  6
CONTINUOUS
 62
    12
370
    25
100
AcDbPolyline
 90
       17
 70
   128
 10
81.74999999999982
 20
-256.50000000000011
 10
81.73096988312764
 20
-256.40432914190887
 10
81.67677669529645
 20
-256.32322330470339
 10
81.59567085809110
 20
-256.26903011687227
 10
81.49999999999982
 20
-256.25000000000006
 10
81.40432914190855
 20
-256.26903011687227
 10
81.32322330470319
 20
-256.32322330470339
 10
81.26903011687200
 20
-256.40432914190887
 10
81.24999999999982
 20
-256.50000000000011
 10
81.26903011687200
 20
-256.59567085809135
 10
81.32322330470319
 20
-256.67677669529678
 10
81.40432914190855
 20
-256.73096988312790
 10
81.49999999999982
 20
-256.75000000000006
 10
81.59567085809110
 20
-256.73096988312790
 10
81.67677669529645
 20
-256.67677669529678
 10
81.73096988312764
 20
-256.59567085809135
 10
81.74999999999982
 20
-256.50000000000011
  0
LINE
  5
142
330
26
100
AcDbEntity
  8
# Zeichnungen 10
  6
CONTINUOUS
 62
    12
370
    25
100
AcDbLine
 10
25.59999999999999
 20
-246.00000000000006
 30
0.00000000000000
 11
60.00000000000000
 21
-246.00000000000006
 31
0.00000000000000
  0
ENDBLK
  5
143
330
26
100
AcDbEntity
  8
0
100
AcDbBlockEnd
  0
BLOCK
  5
144
330
27
100
AcDbEntity
  8
0
100
AcDbBlockBegin
  2
*U16
 70
     1
 10
0.00000000000000
 20
0.00000000000000
 30
0.00000000000000
  3
*U16
  1

  0
MTEXT
  5
145
330
27
100
AcDbEntity
  8
# Zeichnungen 10
 62
     7
370
    30
100
AcDbMText
 10
47.88137879082417
 20
-135.30441163501746
 30
0.00000000000000
 40
2.80000000000000
 41
0.00000000000000
 71
     7
 72
     1
  1
\fArial Narrow|b0|i0;Hüllrohr für
 11
1.00000000000000
 21
0.00000000000000
 31
0.00000000000000
 73
     1
 44
1.00000000000000
  0
MTEXT
  5
146
330
27
100
AcDbEntity
  8
# Zeichnungen 10
 62
     7
370
    30
100
AcDbMText
 10
47.88137879082417
 20
-136.90441163501748
 30
0.00000000000000
 40
2.80000000000000
 41
0.00000000000000
 71
     1
 72
     1
  1
\fArial Narrow|b0|i0;Gewindestange
 11
1.00000000000000
 21
0.00000000000000
 31
0.00000000000000
 73
     1
 44
1.00000000000000
  0
LINE
  5
147
330
27
100
AcDbEntity
  8
# Zeichnungen 10
  6
CONTINUOUS
 62
    12
370
    25
100
AcDbLine
 10
79.89691338072258
 20
-127.20749825429483
 30
0.00000000000000
 11
70.99999999999992
 21
-136.10441163501750
 31
0.00000000000000
  0
HATCH
  5
148
330
27
100
AcDbEntity
  8
# Zeichnungen 10
 62
    12
100
AcDbHatch
 10
0.00000000000000
 20
0.00000000000000
 30
0.00000000000000
210
0.00000000000000
220
0.00000000000000
230
1.00000000000000
  2
SOLID
 70
     1
 71
     0
 91
        1
 92
        0
 93
       16
 72
     1
 10
80.39691338072258
 20
-127.20749825429483
 11
80.35885314697823
 21
-127.01615653811230
 72
     1
 10
80.35885314697823
 20
-127.01615653811230
 11
80.25046677131586
 21
-126.85394486370157
 72
     1
 10
80.25046677131586
 20
-126.85394486370157
 11
80.08825509690513
 21
-126.74555848803919
 72
     1
 10
80.08825509690513
 20
-126.74555848803919
 11
79.89691338072258
 21
-126.70749825429483
 72
     1
 10
79.89691338072258
 20
-126.70749825429483
 11
79.70557166454003
 21
-126.74555848803919
 72
     1
 10
79.70557166454003
 20
-126.74555848803919
 11
79.54335999012930
 21
-126.85394486370157
 72
     1
 10
79.54335999012930
 20
-126.85394486370157
 11
79.43497361446694
 21
-127.01615653811230
 72
     1
 10
79.43497361446694
 20
-127.01615653811230
 11
79.39691338072258
 21
-127.20749825429483
 72
     1
 10
79.39691338072258
 20
-127.20749825429483
 11
79.43497361446694
 21
-127.39883997047738
 72
     1
 10
79.43497361446694
 20
-127.39883997047738
 11
79.54335999012930
 21
-127.56105164488810
 72
     1
 10
79.54335999012930
 20
-127.56105164488810
 11
79.70557166454003
 21
-127.66943802055047
 72
     1
 10
79.70557166454003
 20
-127.66943802055047
 11
79.89691338072258
 21
-127.70749825429480
 72
     1
 10
79.89691338072258
 20
-127.70749825429480
 11
80.08825509690513
 21
-127.66943802055047
 72
     1
 10
80.08825509690513
 20
-127.66943802055047
 11
80.25046677131586
 21
-127.56105164488810
 72
     1
 10
80.25046677131586
 20
-127.56105164488810
 11
80.35885314697823
 21
-127.39883997047738
 72
     1
 10
80.35885314697823
 20
-127.39883997047738
 11
80.39691338072258
 21
-127.20749825429483
 97
        0
 75
     0
 76
     0
 98
        1
 10
0.00000000000000
 20
0.00000000000000
  0
LWPOLYLINE
  5
149
330
27
100
AcDbEntity
  8
# Zeichnungen 10
  6
CONTINUOUS
 62
    12
370
    25
100
AcDbPolyline
 90
       17
 70
   128
 10
80.39691338072258
 20
-127.20749825429483
 10
80.35885314697823
 20
-127.01615653811230
 10
80.25046677131586
 20
-126.85394486370157
 10
80.08825509690513
 20
-126.74555848803919
 10
79.89691338072258
 20
-126.70749825429483
 10
79.70557166454003
 20
-126.74555848803919
 10
79.54335999012930
 20
-126.85394486370157
 10
79.43497361446694
 20
-127.01615653811230
 10
79.39691338072258
 20
-127.20749825429483
 10
79.43497361446694
 20
-127.39883997047738
 10
79.54335999012930
 20
-127.56105164488810
 10
79.70557166454003
 20
-127.66943802055047
 10
79.89691338072258
 20
-127.70749825429480
 10
80.08825509690513
 20
-127.66943802055047
 10
80.25046677131586
 20
-127.56105164488810
 10
80.35885314697823
 20
-127.39883997047738
 10
80.39691338072258
 20
-127.20749825429483
  0
LINE
  5
14A
330
27
100
AcDbEntity
  8
# Zeichnungen 10
  6
CONTINUOUS
 62
    12
370
    25
100
AcDbLine
 10
46.48137879082417
 20
-136.10441163501750
 30
0.00000000000000
 11
70.99999999999992
 21
-136.10441163501750
 31
0.00000000000000
  0
ENDBLK
  5
14B
330
27
100
AcDbEntity
  8
0
100
AcDbBlockEnd
  0
BLOCK
  5
14C
330
28
100
AcDbEntity
  8
0
100
AcDbBlockBegin
  2
*U17
 70
     1
 10
0.00000000000000
 20
0.00000000000000
 30
0.00000000000000
  3
*U17
  1

  0
MTEXT
  5
14D
330
28
100
AcDbEntity
  8
# Zeichnungen 10
 62
     7
370
    30
100
AcDbMText
 10
95.24999999999972
 20
-92.20000000000000
 30
0.00000000000000
 40
2.80000000000000
 41
0.00000000000000
 71
     7
 72
     1
  1
\fArial Narrow|b0|i0;Gewindestange nach Erhärten
 11
1.00000000000000
 21
0.00000000000000
 31
0.00000000000000
 73
     1
 44
1.00000000000000
  0
MTEXT
  5
14E
330
28
100
AcDbEntity
  8
# Zeichnungen 10
 62
     7
370
    30
100
AcDbMText
 10
95.24999999999972
 20
-93.80000000000000
 30
0.00000000000000
 40
2.80000000000000
 41
0.00000000000000
 71
     1
 72
     1
  1
\fArial Narrow|b0|i0;des Betons und vor dem Ausschalen\Pder obersten Geschossdecke\Pvoll vorspannen!!
 11
1.00000000000000
 21
0.00000000000000
 31
0.00000000000000
 73
     1
 44
1.00000000000000
  0
LINE
  5
14F
330
28
100
AcDbEntity
  8
# Zeichnungen 10
  6
CONTINUOUS
 62
    12
370
    25
100
AcDbLine
 10
81.99999999999984
 20
-107.00000000000006
 30
0.00000000000000
 11
93.99999999999973
 21
-93.00000000000000
 31
0.00000000000000
  0
HATCH
  5
150
330
28
100
AcDbEntity
  8
# Zeichnungen 10
 62
    12
100
AcDbHatch
 10
0.00000000000000
 20
0.00000000000000
 30
0.00000000000000
210
0.00000000000000
220
0.00000000000000
230
1.00000000000000
  2
SOLID
 70
     1
 71
     0
 91
        1
 92
        0
 93
       16
 72
     1
 10
82.49999999999984
 20
-107.00000000000006
 11
82.46193976625550
 21
-106.80865828381752
 72
     1
 10
82.46193976625550
 20
-106.80865828381752
 11
82.35355339059314
 21
-106.64644660940679
 72
     1
 10
82.35355339059314
 20
-106.64644660940679
 11
82.19134171618241
 21
-106.53806023374442
 72
     1
 10
82.19134171618241
 20
-106.53806023374442
 11
81.99999999999984
 21
-106.50000000000007
 72
     1
 10
81.99999999999984
 20
-106.50000000000007
 11
81.80865828381731
 21
-106.53806023374442
 72
     1
 10
81.80865828381731
 20
-106.53806023374442
 11
81.64644660940658
 21
-106.64644660940679
 72
     1
 10
81.64644660940658
 20
-106.64644660940679
 11
81.53806023374422
 21
-106.80865828381752
 72
     1
 10
81.53806023374422
 20
-106.80865828381752
 11
81.49999999999984
 21
-107.00000000000006
 72
     1
 10
81.49999999999984
 20
-107.00000000000006
 11
81.53806023374422
 21
-107.19134171618259
 72
     1
 10
81.53806023374422
 20
-107.19134171618259
 11
81.64644660940658
 21
-107.35355339059332
 72
     1
 10
81.64644660940658
 20
-107.35355339059332
 11
81.80865828381731
 21
-107.46193976625568
 72
     1
 10
81.80865828381731
 20
-107.46193976625568
 11
81.99999999999984
 21
-107.50000000000004
 72
     1
 10
81.99999999999984
 20
-107.50000000000004
 11
82.19134171618241
 21
-107.46193976625568
 72
     1
 10
82.19134171618241
 20
-107.46193976625568
 11
82.35355339059314
 21
-107.35355339059332
 72
     1
 10
82.35355339059314
 20
-107.35355339059332
 11
82.46193976625550
 21
-107.19134171618259
 72
     1
 10
82.46193976625550
 20
-107.19134171618259
 11
82.49999999999984
 21
-107.00000000000006
 97
        0
 75
     0
 76
     0
 98
        1
 10
0.00000000000000
 20
0.00000000000000
  0
LWPOLYLINE
  5
151
330
28
100
AcDbEntity
  8
# Zeichnungen 10
  6
CONTINUOUS
 62
    12
370
    25
100
AcDbPolyline
 90
       17
 70
   128
 10
82.49999999999984
 20
-107.00000000000006
 10
82.46193976625550
 20
-106.80865828381752
 10
82.35355339059314
 20
-106.64644660940679
 10
82.19134171618241
 20
-106.53806023374442
 10
81.99999999999984
 20
-106.50000000000007
 10
81.80865828381731
 20
-106.53806023374442
 10
81.64644660940658
 20
-106.64644660940679
 10
81.53806023374422
 20
-106.80865828381752
 10
81.49999999999984
 20
-107.00000000000006
 10
81.53806023374422
 20
-107.19134171618259
 10
81.64644660940658
 20
-107.35355339059332
 10
81.80865828381731
 20
-107.46193976625568
 10
81.99999999999984
 20
-107.50000000000004
 10
82.19134171618241
 20
-107.46193976625568
 10
82.35355339059314
 20
-107.35355339059332
 10
82.46193976625550
 20
-107.19134171618259
 10
82.49999999999984
 20
-107.00000000000006
  0
LINE
  5
152
330
28
100
AcDbEntity
  8
# Zeichnungen 10
  6
CONTINUOUS
 62
    12
370
    25
100
AcDbLine
 10
93.99999999999973
 20
-93.00000000000000
 30
0.00000000000000
 11
147.91208932737140
 21
-93.00000000000000
 31
0.00000000000000
  0
ENDBLK
  5
153
330
28
100
AcDbEntity
  8
0
100
AcDbBlockEnd
  0
BLOCK
  5
154
330
29
100
AcDbEntity
  8
0
100
AcDbBlockBegin
  2
*U18
 70
     1
 10
0.00000000000000
 20
0.00000000000000
 30
0.00000000000000
  3
*U18
  1

  0
MTEXT
  5
155
330
29
100
AcDbEntity
  8
# Zeichnungen 10
 62
     7
370
    30
100
AcDbMText
 10
31.78131075038870
 20
-206.20000000000005
 30
0.00000000000000
 40
2.80000000000000
 41
0.00000000000000
 71
     7
 72
     1
  1
\fArial Narrow|b0|i0;Endplatte aus nicht
 11
1.00000000000000
 21
0.00000000000000
 31
0.00000000000000
 73
     1
 44
1.00000000000000
  0
MTEXT
  5
156
330
29
100
AcDbEntity
  8
# Zeichnungen 10
 62
     7
370
    30
100
AcDbMText
 10
31.78131075038870
 20
-207.80000000000004
 30
0.00000000000000
 40
2.80000000000000
 41
0.00000000000000
 71
     1
 72
     1
  1
\fArial Narrow|b0|i0;rostendem Stahl nach Ang.\Pstat. Berechnung
 11
1.00000000000000
 21
0.00000000000000
 31
0.00000000000000
 73
     1
 44
1.00000000000000
  0
LINE
  5
157
330
29
100
AcDbEntity
  8
# Zeichnungen 10
  6
CONTINUOUS
 62
    12
370
    25
100
AcDbLine
 10
78.74999999999994
 20
-199.24999999999991
 30
0.00000000000000
 11
70.99999999999989
 21
-207.00000000000003
 31
0.00000000000000
  0
HATCH
  5
158
330
29
100
AcDbEntity
  8
# Zeichnungen 10
 62
    12
100
AcDbHatch
 10
0.00000000000000
 20
0.00000000000000
 30
0.00000000000000
210
0.00000000000000
220
0.00000000000000
230
1.00000000000000
  2
SOLID
 70
     1
 71
     0
 91
        1
 92
        0
 93
       16
 72
     1
 10
79.24999999999994
 20
-199.24999999999991
 11
79.21193976625560
 21
-199.05865828381741
 72
     1
 10
79.21193976625560
 20
-199.05865828381741
 11
79.10355339059322
 21
-198.89644660940667
 72
     1
 10
79.10355339059322
 20
-198.89644660940667
 11
78.94134171618249
 21
-198.78806023374429
 72
     1
 10
78.94134171618249
 20
-198.78806023374429
 11
78.74999999999994
 21
-198.74999999999994
 72
     1
 10
78.74999999999994
 20
-198.74999999999994
 11
78.55865828381741
 21
-198.78806023374429
 72
     1
 10
78.55865828381741
 20
-198.78806023374429
 11
78.39644660940667
 21
-198.89644660940667
 72
     1
 10
78.39644660940667
 20
-198.89644660940667
 11
78.28806023374429
 21
-199.05865828381741
 72
     1
 10
78.28806023374429
 20
-199.05865828381741
 11
78.24999999999994
 21
-199.24999999999991
 72
     1
 10
78.24999999999994
 20
-199.24999999999991
 11
78.28806023374429
 21
-199.44134171618248
 72
     1
 10
78.28806023374429
 20
-199.44134171618248
 11
78.39644660940667
 21
-199.60355339059322
 72
     1
 10
78.39644660940667
 20
-199.60355339059322
 11
78.55865828381741
 21
-199.71193976625557
 72
     1
 10
78.55865828381741
 20
-199.71193976625557
 11
78.74999999999994
 21
-199.74999999999991
 72
     1
 10
78.74999999999994
 20
-199.74999999999991
 11
78.94134171618249
 21
-199.71193976625557
 72
     1
 10
78.94134171618249
 20
-199.71193976625557
 11
79.10355339059322
 21
-199.60355339059322
 72
     1
 10
79.10355339059322
 20
-199.60355339059322
 11
79.21193976625560
 21
-199.44134171618248
 72
     1
 10
79.21193976625560
 20
-199.44134171618248
 11
79.24999999999994
 21
-199.24999999999991
 97
        0
 75
     0
 76
     0
 98
        1
 10
0.00000000000000
 20
0.00000000000000
  0
LWPOLYLINE
  5
159
330
29
100
AcDbEntity
  8
# Zeichnungen 10
  6
CONTINUOUS
 62
    12
370
    25
100
AcDbPolyline
 90
       17
 70
   128
 10
79.24999999999994
 20
-199.24999999999991
 10
79.21193976625560
 20
-199.05865828381741
 10
79.10355339059322
 20
-198.89644660940667
 10
78.94134171618249
 20
-198.78806023374429
 10
78.74999999999994
 20
-198.74999999999994
 10
78.55865828381741
 20
-198.78806023374429
 10
78.39644660940667
 20
-198.89644660940667
 10
78.28806023374429
 20
-199.05865828381741
 10
78.24999999999994
 20
-199.24999999999991
 10
78.28806023374429
 20
-199.44134171618248
 10
78.39644660940667
 20
-199.60355339059322
 10
78.55865828381741
 20
-199.71193976625557
 10
78.74999999999994
 20
-199.74999999999991
 10
78.94134171618249
 20
-199.71193976625557
 10
79.10355339059322
 20
-199.60355339059322
 10
79.21193976625560
 20
-199.44134171618248
 10
79.24999999999994
 20
-199.24999999999991
  0
LINE
  5
15A
330
29
100
AcDbEntity
  8
# Zeichnungen 10
  6
CONTINUOUS
 62
    12
370
    25
100
AcDbLine
 10
30.38131075038869
 20
-207.00000000000003
 30
0.00000000000000
 11
70.99999999999989
 21
-207.00000000000003
 31
0.00000000000000
  0
ENDBLK
  5
15B
330
29
100
AcDbEntity
  8
0
100
AcDbBlockEnd
  0
BLOCK
  5
15C
330
2A
100
AcDbEntity
  8
0
100
AcDbBlockBegin
  2
*U19
 70
     1
 10
0.00000000000000
 20
0.00000000000000
 30
0.00000000000000
  3
*U19
  1

  0
LINE
  5
15D
330
2A
100
AcDbEntity
  8
# Zeichnungen 10
  6
CONTINUOUS
 62
     7
370
    13
100
AcDbLine
 10
83.23205080756942
 20
-147.59807621135266
 30
0.00000000000000
 11
83.00000000000104
 21
-147.73205080756821
 31
0.00000000000000
  0
LINE
  5
15E
330
2A
100
AcDbEntity
  8
# Zeichnungen 10
  6
CONTINUOUS
 62
     7
370
    13
100
AcDbLine
 10
79.76794919243254
 20
-147.59807621135266
 30
0.00000000000000
 11
80.00000000000092
 21
-147.73205080756821
 31
0.00000000000000
  0
LINE
  5
15F
330
2A
100
AcDbEntity
  8
# Zeichnungen 10
  6
CONTINUOUS
 62
     7
370
    13
100
AcDbLine
 10
83.00000000000104
 20
-147.73205080756821
 30
0.00000000000000
 11
80.00000000000092
 21
-147.73205080756821
 31
0.00000000000000
  0
LINE
  5
160
330
2A
100
AcDbEntity
  8
# Zeichnungen 10
  6
CONTINUOUS
 62
     7
370
    13
100
AcDbLine
 10
83.23205080756942
 20
-147.59807621135266
 30
0.00000000000000
 11
83.23205080756942
 21
-141.86602540378377
 31
0.00000000000000
  0
LINE
  5
161
330
2A
100
AcDbEntity
  8
# Zeichnungen 10
  6
CONTINUOUS
 62
     7
370
    13
100
AcDbLine
 10
82.36602540378591
 20
-147.59807621135266
 30
0.00000000000000
 11
82.36602540378591
 21
-141.86602540378377
 31
0.00000000000000
  0
LINE
  5
162
330
2A
100
AcDbEntity
  8
# Zeichnungen 10
  6
CONTINUOUS
 62
     7
370
    13
100
AcDbLine
 10
80.63397459621606
 20
-147.59807621135266
 30
0.00000000000000
 11
80.63397459621606
 21
-141.86602540378377
 31
0.00000000000000
  0
LINE
  5
163
330
2A
100
AcDbEntity
  8
# Zeichnungen 10
  6
CONTINUOUS
 62
     7
370
    13
100
AcDbLine
 10
79.76794919243254
 20
-147.59807621135266
 30
0.00000000000000
 11
79.76794919243254
 21
-141.86602540378377
 31
0.00000000000000
  0
LINE
  5
164
330
2A
100
AcDbEntity
  8
# Zeichnungen 10
  6
CONTINUOUS
 62
     7
370
    13
100
AcDbLine
 10
83.23205080756942
 20
-141.86602540378377
 30
0.00000000000000
 11
83.00000000000104
 21
-141.73205080756821
 31
0.00000000000000
  0
LINE
  5
165
330
2A
100
AcDbEntity
  8
# Zeichnungen 10
  6
CONTINUOUS
 62
     7
370
    13
100
AcDbLine
 10
79.76794919243254
 20
-141.86602540378377
 30
0.00000000000000
 11
80.00000000000092
 21
-141.73205080756821
 31
0.00000000000000
  0
LINE
  5
166
330
2A
100
AcDbEntity
  8
# Zeichnungen 10
  6
CONTINUOUS
 62
     7
370
    13
100
AcDbLine
 10
83.00000000000104
 20
-141.73205080756821
 30
0.00000000000000
 11
80.00000000000092
 21
-141.73205080756821
 31
0.00000000000000
  0
ARC
  5
167
330
2A
100
AcDbEntity
  8
# Zeichnungen 10
  6
CONTINUOUS
 62
     7
370
    13
100
AcDbCircle
 10
82.79903810567768
 20
-146.96530398304088
 30
0.00000000000000
 40
0.76674682452699
100
AcDbArc
 50
235.61575253200215
 51
304.38424746808482
  0
ARC
  5
168
330
2A
100
AcDbEntity
  8
# Zeichnungen 10
  6
CONTINUOUS
 62
     7
370
    13
100
AcDbCircle
 10
81.50000000000098
 20
-144.86602540378368
 30
0.00000000000000
 40
2.86602540378466
100
AcDbArc
 50
252.41204622599730
 51
287.58795377398485
  0
ARC
  5
169
330
2A
100
AcDbEntity
  8
# Zeichnungen 10
  6
CONTINUOUS
 62
     7
370
    13
100
AcDbCircle
 10
80.20096189432429
 20
-146.96530398304088
 30
0.00000000000000
 40
0.76674682452699
100
AcDbArc
 50
235.61575253200215
 51
304.38424746808585
  0
ARC
  5
16A
330
2A
100
AcDbEntity
  8
# Zeichnungen 10
  6
CONTINUOUS
 62
     7
370
    13
100
AcDbCircle
 10
82.79903810567768
 20
-142.49879763209552
 30
0.00000000000000
 40
0.76674682452699
100
AcDbArc
 50
55.61575253200217
 51
124.38424746808482
  0
ARC
  5
16B
330
2A
100
AcDbEntity
  8
# Zeichnungen 10
  6
CONTINUOUS
 62
     7
370
    13
100
AcDbCircle
 10
81.50000000000098
 20
-144.59807621135272
 30
0.00000000000000
 40
2.86602540378466
100
AcDbArc
 50
72.41204622599730
 51
107.58795377398485
  0
ARC
  5
16C
330
2A
100
AcDbEntity
  8
# Zeichnungen 10
  6
CONTINUOUS
 62
     7
370
    13
100
AcDbCircle
 10
80.20096189432429
 20
-142.49879763209552
 30
0.00000000000000
 40
0.76674682452699
100
AcDbArc
 50
55.61575253200217
 51
124.38424746808587
  0
ENDBLK
  5
16D
330
2A
100
AcDbEntity
  8
0
100
AcDbBlockEnd
  0
BLOCK
  5
16E
330
2B
100
AcDbEntity
  8
0
100
AcDbBlockBegin
  2
*U20
 70
     1
 10
0.00000000000000
 20
0.00000000000000
 30
0.00000000000000
  3
*U20
  1

  0
MTEXT
  5
16F
330
2B
100
AcDbEntity
  8
# Zeichnungen 10
 62
     7
370
    30
100
AcDbMText
 10
31.25612363919120
 20
-148.30284169661326
 30
0.00000000000000
 40
2.80000000000000
 41
0.00000000000000
 71
     7
 72
     1
  1
\fArial Narrow|b0|i0;ggf. Gewindestange stoßen
 11
1.00000000000000
 21
0.00000000000000
 31
0.00000000000000
 73
     1
 44
1.00000000000000
  0
MTEXT
  5
170
330
2B
100
AcDbEntity
  8
# Zeichnungen 10
 62
     7
370
    30
100
AcDbMText
 10
31.25612363919120
 20
-149.90284169661325
 30
0.00000000000000
 40
2.80000000000000
 41
0.00000000000000
 71
     1
 72
     1
  1
\fArial Narrow|b0|i0;(z.B. mit Sechskantmutter\Pnach DIN 6334; 3×d hoch)
 11
1.00000000000000
 21
0.00000000000000
 31
0.00000000000000
 73
     1
 44
1.00000000000000
  0
LINE
  5
171
330
2B
100
AcDbEntity
  8
# Zeichnungen 10
  6
CONTINUOUS
 62
    12
370
    25
100
AcDbLine
 10
80.12161599713987
 20
-144.32365557728920
 30
0.00000000000000
 11
70.99999999999992
 21
-149.10284169661324
 31
0.00000000000000
  0
HATCH
  5
172
330
2B
100
AcDbEntity
  8
# Zeichnungen 10
 62
    12
100
AcDbHatch
 10
0.00000000000000
 20
0.00000000000000
 30
0.00000000000000
210
0.00000000000000
220
0.00000000000000
230
1.00000000000000
  2
SOLID
 70
     1
 71
     0
 91
        1
 92
        0
 93
       16
 72
     1
 10
80.62161599713987
 20
-144.32365557728920
 11
80.58355576339552
 21
-144.13231386110667
 72
     1
 10
80.58355576339552
 20
-144.13231386110667
 11
80.47516938773315
 21
-143.97010218669595
 72
     1
 10
80.47516938773315
 20
-143.97010218669595
 11
80.31295771332242
 21
-143.86171581103358
 72
     1
 10
80.31295771332242
 20
-143.86171581103358
 11
80.12161599713987
 21
-143.82365557728923
 72
     1
 10
80.12161599713987
 20
-143.82365557728923
 11
79.93027428095734
 21
-143.86171581103358
 72
     1
 10
79.93027428095734
 20
-143.86171581103358
 11
79.76806260654661
 21
-143.97010218669595
 72
     1
 10
79.76806260654661
 20
-143.97010218669595
 11
79.65967623088423
 21
-144.13231386110667
 72
     1
 10
79.65967623088423
 20
-144.13231386110667
 11
79.62161599713987
 21
-144.32365557728920
 72
     1
 10
79.62161599713987
 20
-144.32365557728920
 11
79.65967623088423
 21
-144.51499729347174
 72
     1
 10
79.65967623088423
 20
-144.51499729347174
 11
79.76806260654661
 21
-144.67720896788248
 72
     1
 10
79.76806260654661
 20
-144.67720896788248
 11
79.93027428095734
 21
-144.78559534354486
 72
     1
 10
79.93027428095734
 20
-144.78559534354486
 11
80.12161599713987
 21
-144.82365557728920
 72
     1
 10
80.12161599713987
 20
-144.82365557728920
 11
80.31295771332242
 21
-144.78559534354486
 72
     1
 10
80.31295771332242
 20
-144.78559534354486
 11
80.47516938773315
 21
-144.67720896788248
 72
     1
 10
80.47516938773315
 20
-144.67720896788248
 11
80.58355576339552
 21
-144.51499729347174
 72
     1
 10
80.58355576339552
 20
-144.51499729347174
 11
80.62161599713987
 21
-144.32365557728920
 97
        0
 75
     0
 76
     0
 98
        1
 10
0.00000000000000
 20
0.00000000000000
  0
LWPOLYLINE
  5
173
330
2B
100
AcDbEntity
  8
# Zeichnungen 10
  6
CONTINUOUS
 62
    12
370
    25
100
AcDbPolyline
 90
       17
 70
   128
 10
80.62161599713987
 20
-144.32365557728920
 10
80.58355576339552
 20
-144.13231386110667
 10
80.47516938773315
 20
-143.97010218669595
 10
80.31295771332242
 20
-143.86171581103358
 10
80.12161599713987
 20
-143.82365557728923
 10
79.93027428095734
 20
-143.86171581103358
 10
79.76806260654661
 20
-143.97010218669595
 10
79.65967623088423
 20
-144.13231386110667
 10
79.62161599713987
 20
-144.32365557728920
 10
79.65967623088423
 20
-144.51499729347174
 10
79.76806260654661
 20
-144.67720896788248
 10
79.93027428095734
 20
-144.78559534354486
 10
80.12161599713987
 20
-144.82365557728920
 10
80.31295771332242
 20
-144.78559534354486
 10
80.47516938773315
 20
-144.67720896788248
 10
80.58355576339552
 20
-144.51499729347174
 10
80.62161599713987
 20
-144.32365557728920
  0
LINE
  5
174
330
2B
100
AcDbEntity
  8
# Zeichnungen 10
  6
CONTINUOUS
 62
    12
370
    25
100
AcDbLine
 10
29.85612363919120
 20
-149.10284169661324
 30
0.00000000000000
 11
70.99999999999992
 21
-149.10284169661324
 31
0.00000000000000
  0
ENDBLK
  5
175
330
2B
100
AcDbEntity
  8
0
100
AcDbBlockEnd
  0
BLOCK
  5
176
330
2C
100
AcDbEntity
  8
0
100
AcDbBlockBegin
  2
*U21
 70
     1
 10
0.00000000000000
 20
0.00000000000000
 30
0.00000000000000
  3
*U21
  1

  0
LWPOLYLINE
  5
177
330
2C
100
AcDbEntity
  8
Planrahmen
  6
CONTINUOUS
 62
     7
370
     0
100
AcDbPolyline
 90
       29
 70
   129
 10
173.38640000000004
 20
-12.97660000000002
 10
173.30445000000006
 20
-12.97660000000002
 10
173.05955000000006
 20
-12.91145000000002
 10
172.80640000000008
 20
-12.71565000000002
 10
172.64285000000007
 20
-12.38820000000002
 10
172.58480000000009
 20
-12.04320000000002
 10
172.58480000000009
 20
-11.92815000000002
 10
172.58480000000009
 20
-11.81585000000002
 10
172.64040000000008
 20
-11.47945000000002
 10
172.79960000000005
 20
-11.16235000000002
 10
173.05030000000005
 20
-10.97410000000002
 10
173.29795000000004
 20
-10.91195000000002
 10
173.38070000000005
 20
-10.91195000000002
 10
173.45800000000006
 20
-10.91195000000002
 10
173.68995000000010
 20
-10.97140000000002
 10
173.93105000000008
 20
-11.15425000000002
 10
174.08790000000008
 20
-11.46565000000002
 10
174.14405000000005
 20
-11.79990000000002
 10
174.14405000000005
 20
-11.91135000000002
 10
174.14405000000005
 20
-11.97835000000002
 10
174.12940000000003
 20
-12.17930000000002
 10
174.08730000000006
 20
-12.40425000000002
 10
174.02010000000007
 20
-12.58840000000002
 10
173.92975000000004
 20
-12.73410000000002
 10
173.81905000000009
 20
-12.84340000000002
 10
173.68995000000010
 20
-12.91885000000002
 10
173.54480000000004
 20
-12.96250000000002
 10
173.42600000000007
 20
-12.97660000000002
 10
173.38640000000004
 20
-12.97660000000002
  0
LWPOLYLINE
  5
178
330
2C
100
AcDbEntity
  8
Planrahmen
  6
CONTINUOUS
 62
     7
370
     0
100
AcDbPolyline
 90
       41
 70
   129
 10
173.40835000000004
 20
-9.89635000000002
 10
173.29635000000005
 20
-9.89635000000002
 10
172.96080000000009
 20
-9.93190000000002
 10
172.56010000000003
 20
-10.03690000000002
 10
172.21015000000006
 20
-10.20780000000002
 10
171.91475000000005
 20
-10.44105000000002
 10
171.67820000000006
 20
-10.73375000000002
 10
171.50405000000006
 20
-11.08210000000002
 10
171.39690000000007
 20
-11.48300000000002
 10
171.36030000000008
 20
-11.82070000000002
 10
171.36030000000008
 20
-11.93330000000002
 10
171.36030000000008
 20
-12.05020000000002
 10
171.39690000000007
 20
-12.40100000000002
 10
171.50490000000008
 20
-12.81140000000002
 10
171.67935000000006
 20
-13.16245000000002
 10
171.91615000000004
 20
-13.45320000000002
 10
172.21130000000005
 20
-13.68190000000002
 10
172.56010000000003
 20
-13.84710000000002
 10
172.95855000000003
 20
-13.94715000000002
 10
173.29140000000004
 20
-13.98110000000002
 10
173.40265000000005
 20
-13.98110000000002
 10
173.50415000000007
 20
-13.98110000000002
 10
173.80880000000005
 20
-13.95070000000002
 10
174.18310000000008
 20
-13.85875000000002
 10
174.51835000000003
 20
-13.70390000000002
 10
174.80810000000008
 20
-13.48465000000002
 10
175.04545000000005
 20
-13.19985000000002
 10
175.22345000000004
 20
-12.84830000000002
 10
175.33515000000006
 20
-12.42805000000002
 10
175.37400000000008
 20
-12.06105000000002
 10
175.37400000000008
 20
-11.93875000000002
 10
175.37400000000008
 20
-11.82320000000002
 10
175.33790000000005
 20
-11.47730000000002
 10
175.23345000000006
 20
-11.07070000000002
 10
175.06475000000003
 20
-10.72080000000002
 10
174.83580000000003
 20
-10.42965000000002
 10
174.55120000000008
 20
-10.19940000000001
 10
174.21565000000004
 20
-10.03225000000002
 10
173.83315000000005
 20
-9.93055000000002
 10
173.51440000000005
 20
-9.89635000000002
 10
173.40835000000004
 20
-9.89635000000002
  0
LWPOLYLINE
  5
179
330
2C
100
AcDbEntity
  8
Planrahmen
  6
CONTINUOUS
 62
     7
370
     0
100
AcDbPolyline
 90
        5
 70
   129
 10
173.68940000000003
 20
-8.99740000000001
 10
174.60245000000006
 20
-8.99740000000001
 10
174.60245000000006
 20
-9.77210000000001
 10
173.68940000000003
 20
-9.77210000000001
 10
173.68940000000003
 20
-8.99740000000001
  0
LWPOLYLINE
  5
17A
330
2C
100
AcDbEntity
  8
Planrahmen
  6
CONTINUOUS
 62
     7
370
     0
100
AcDbPolyline
 90
        7
 70
   129
 10
179.80650000000014
 20
-13.87670000000002
 10
179.80650000000014
 20
-10.00050000000002
 10
180.99760000000015
 20
-10.00050000000002
 10
180.99760000000015
 20
-12.99285000000002
 10
182.46925000000007
 20
-12.99285000000002
 10
182.46925000000007
 20
-13.87670000000002
 10
179.80650000000014
 20
-13.87670000000002
  0
LWPOLYLINE
  5
17B
330
2C
100
AcDbEntity
  8
Planrahmen
  6
CONTINUOUS
 62
     7
370
     0
100
AcDbPolyline
 90
       13
 70
   129
 10
184.16600000000000
 20
-13.87670000000002
 10
184.16600000000000
 20
-12.43840000000002
 10
182.82105000000010
 20
-12.43840000000002
 10
182.82105000000010
 20
-11.43475000000002
 10
184.16600000000000
 20
-11.43475000000002
 10
184.16600000000000
 20
-10.00105000000002
 10
185.33730000000008
 20
-10.00105000000002
 10
185.33730000000008
 20
-11.43475000000002
 10
186.68280000000010
 20
-11.43475000000002
 10
186.68280000000010
 20
-12.43840000000002
 10
185.33730000000008
 20
-12.43840000000002
 10
185.33730000000008
 20
-13.87670000000002
 10
184.16600000000000
 20
-13.87670000000002
  0
LWPOLYLINE
  5
17C
330
2C
100
AcDbEntity
  8
Planrahmen
  6
CONTINUOUS
 62
     7
370
     0
100
AcDbPolyline
 90
       20
 70
   129
 10
177.98275000000012
 20
-11.52725000000002
 10
177.96479999999997
 20
-11.54350000000002
 10
177.83460000000011
 20
-11.60340000000002
 10
177.65314999999998
 20
-11.63110000000002
 10
177.59265000000008
 20
-11.63110000000002
 10
177.04365000000004
 20
-11.63110000000002
 10
177.04365000000004
 20
-10.91765000000002
 10
177.58185000000009
 20
-10.91765000000002
 10
177.63635000000005
 20
-10.91765000000002
 10
177.79990000000006
 20
-10.93480000000002
 10
177.92440000000013
 20
-10.97680000000002
 10
177.94370000000009
 20
-10.98930000000002
 10
177.96705000000006
 20
-11.00425000000002
 10
178.04190000000014
 20
-11.10705000000002
 10
178.07010000000005
 20
-11.23235000000002
 10
178.07010000000005
 20
-11.27440000000002
 10
178.07010000000005
 20
-11.31265000000002
 10
178.04675000000009
 20
-11.42765000000002
 10
177.99630000000005
 20
-11.51340000000002
 10
177.98275000000012
 20
-11.52725000000002
  0
LWPOLYLINE
  5
17D
330
2C
100
AcDbEntity
  8
Planrahmen
  6
CONTINUOUS
 62
     7
370
     0
100
AcDbPolyline
 90
       27
 70
   129
 10
178.53130000000010
 20
-12.34535000000002
 10
178.61995000000002
 20
-12.31475000000002
 10
178.87085000000008
 20
-12.17855000000002
 10
179.12070000000008
 20
-11.93955000000002
 10
179.27480000000011
 20
-11.62330000000002
 10
179.32740000000007
 20
-11.32460000000002
 10
179.32740000000007
 20
-11.22530000000002
 10
179.32740000000007
 20
-11.13820000000002
 10
179.29540000000006
 20
-10.87725000000002
 10
179.19475000000011
 20
-10.58890000000002
 10
179.01925000000003
 20
-10.35480000000002
 10
178.83100000000013
 20
-10.20780000000002
 10
178.76210000000009
 20
-10.17090000000002
 10
178.71655000000001
 20
-10.14645000000002
 10
178.56975000000003
 20
-10.09330000000002
 10
178.32810000000003
 20
-10.04045000000001
 10
178.03295000000014
 20
-10.01000000000002
 10
177.76845000000003
 20
-10.00050000000002
 10
177.68030000000007
 20
-10.00050000000002
 10
175.85765000000015
 20
-10.00050000000002
 10
175.85765000000015
 20
-13.87670000000002
 10
177.04365000000004
 20
-13.87670000000002
 10
177.04365000000004
 20
-12.53715000000002
 10
177.39515000000011
 20
-12.53715000000002
 10
178.13630000000009
 20
-13.87670000000002
 10
179.48690000000005
 20
-13.87670000000002
 10
178.53130000000010
 20
-12.34535000000002
  0
LWPOLYLINE
  5
17E
330
2C
100
AcDbEntity
  8
Planrahmen
  6
CONTINUOUS
 62
     7
370
     0
100
AcDbPolyline
 90
       13
 70
   129
 10
169.67140000000009
 20
-18.59405000000003
 10
169.67140000000009
 20
-17.08495000000002
 10
168.54480000000004
 20
-17.08495000000002
 10
168.54480000000004
 20
-18.59405000000003
 10
167.35285000000005
 20
-18.59405000000003
 10
167.35285000000005
 20
-14.73360000000002
 10
168.54480000000004
 20
-14.73360000000002
 10
168.54480000000004
 20
-16.08965000000002
 10
169.67140000000009
 20
-16.08965000000002
 10
169.67140000000009
 20
-14.73360000000002
 10
170.86905000000007
 20
-14.73360000000002
 10
170.86905000000007
 20
-18.59405000000003
 10
169.67140000000009
 20
-18.59405000000003
  0
LWPOLYLINE
  5
17F
330
2C
100
AcDbEntity
  8
Planrahmen
  6
CONTINUOUS
 62
     7
370
     0
100
AcDbPolyline
 90
        9
 70
   129
 10
180.25050000000005
 20
-18.59405000000003
 10
180.25050000000005
 20
-15.65240000000003
 10
179.27755000000005
 20
-15.65240000000003
 10
179.27755000000005
 20
-14.73360000000002
 10
182.42175000000009
 20
-14.73360000000002
 10
182.42175000000009
 20
-15.65240000000003
 10
181.45390000000012
 20
-15.65240000000003
 10
181.45390000000012
 20
-18.59405000000003
 10
180.25050000000005
 20
-18.59405000000003
  0
LWPOLYLINE
  5
180
330
2C
100
AcDbEntity
  8
Planrahmen
  6
CONTINUOUS
 62
     7
370
     0
100
AcDbPolyline
 90
       44
 70
   129
 10
186.20510000000007
 20
-18.59405000000003
 10
186.20510000000007
 20
-18.37780000000003
 10
186.20620000000014
 20
-17.73000000000002
 10
186.21105000000009
 20
-17.06645000000003
 10
186.22115000000011
 20
-16.50635000000002
 10
186.23335000000012
 20
-16.09125000000002
 10
186.23820000000006
 20
-15.95320000000002
 10
186.21300000000014
 20
-16.05035000000003
 10
186.13790000000003
 20
-16.34195000000002
 10
186.00630000000001
 20
-16.84490000000002
 10
185.81425000000013
 20
-17.56210000000003
 10
185.60320000000002
 20
-18.33605000000003
 10
185.53240000000008
 20
-18.59405000000003
 10
184.56475000000000
 20
-18.59405000000003
 10
184.50725000000006
 20
-18.39030000000003
 10
184.33830000000000
 20
-17.77805000000003
 10
184.15705000000008
 20
-17.09800000000002
 10
184.00460000000012
 20
-16.49875000000003
 10
183.89905000000010
 20
-16.06850000000002
 10
183.86460000000011
 20
-15.92530000000002
 10
183.86685000000008
 20
-16.01910000000002
 10
183.87355000000011
 20
-16.30155000000002
 10
183.88255000000004
 20
-16.79010000000002
 10
183.88935000000001
 20
-17.51330000000003
 10
183.89230000000006
 20
-18.32385000000002
 10
183.89230000000006
 20
-18.59405000000003
 10
182.76545000000004
 20
-18.59405000000003
 10
182.76545000000004
 20
-14.73360000000002
 10
184.44435000000010
 20
-14.73360000000002
 10
184.50210000000015
 20
-14.94600000000002
 10
184.67245000000003
 20
-15.58510000000003
 10
184.84635000000009
 20
-16.26330000000002
 10
184.97495000000012
 20
-16.79580000000003
 10
185.04544999999999
 20
-17.10670000000002
 10
185.06775000000013
 20
-17.21055000000003
 10
185.08560000000000
 20
-17.11340000000002
 10
185.14475000000002
 20
-16.82370000000002
 10
185.25790000000003
 20
-16.32485000000002
 10
185.42605000000006
 20
-15.64965000000002
 10
185.60725000000005
 20
-14.96230000000002
 10
185.66940000000002
 20
-14.73360000000002
 10
187.33170000000004
 20
-14.73360000000002
 10
187.33170000000004
 20
-18.59405000000003
 10
186.20510000000007
 20
-18.59405000000003
  0
LWPOLYLINE
  5
181
330
2C
100
AcDbEntity
  8
Planrahmen
  6
CONTINUOUS
 62
     7
370
     0
100
AcDbPolyline
 90
       31
 70
   129
 10
193.35630000000009
 20
-14.73360000000002
 10
193.45230000000006
 20
-14.90940000000002
 10
193.73935000000014
 20
-15.43805000000002
 10
194.04230000000015
 20
-16.00745000000002
 10
194.28810000000001
 20
-16.48680000000002
 10
194.44760000000011
 20
-16.81175000000002
 10
194.49915000000013
 20
-16.92110000000002
 10
194.49370000000016
 20
-16.83760000000002
 10
194.48150000000012
 20
-16.58690000000002
 10
194.46955000000014
 20
-16.17590000000002
 10
194.46280000000010
 20
-15.59055000000002
 10
194.46085000000008
 20
-14.94765000000002
 10
194.46085000000008
 20
-14.73360000000002
 10
195.63650000000015
 20
-14.73360000000002
 10
195.63650000000015
 20
-18.59405000000003
 10
194.34560000000005
 20
-18.59405000000003
 10
194.25120000000001
 20
-18.42500000000003
 10
193.97070000000011
 20
-17.91745000000002
 10
193.66365000000013
 20
-17.35270000000003
 10
193.40780000000007
 20
-16.86980000000003
 10
193.24130000000011
 20
-16.54730000000002
 10
193.18675000000013
 20
-16.43960000000002
 10
193.19005000000004
 20
-16.51420000000002
 10
193.19650000000016
 20
-16.73910000000003
 10
193.20330000000013
 20
-17.14760000000003
 10
193.20710000000014
 20
-17.74055000000002
 10
193.20845000000014
 20
-18.38050000000003
 10
193.20845000000014
 20
-18.59405000000003
 10
192.03300000000007
 20
-18.59405000000003
 10
192.03300000000007
 20
-14.73360000000002
 10
193.35630000000009
 20
-14.73360000000002
  0
LWPOLYLINE
  5
182
330
2C
100
AcDbEntity
  8
Planrahmen
  6
CONTINUOUS
 62
     7
370
     0
100
AcDbPolyline
 90
       31
 70
   129
 10
197.71950000000010
 20
-14.73360000000002
 10
197.81550000000007
 20
-14.90940000000002
 10
198.10250000000002
 20
-15.43805000000002
 10
198.40600000000003
 20
-16.00745000000002
 10
198.65150000000014
 20
-16.48680000000002
 10
198.81100000000001
 20
-16.81175000000002
 10
198.86250000000010
 20
-16.92110000000002
 10
198.85700000000011
 20
-16.83760000000002
 10
198.84500000000011
 20
-16.58690000000002
 10
198.83300000000008
 20
-16.17590000000002
 10
198.82600000000011
 20
-15.59055000000002
 10
198.82400000000004
 20
-14.94765000000002
 10
198.82400000000004
 20
-14.73360000000002
 10
200.00000000000011
 20
-14.73360000000002
 10
200.00000000000011
 20
-18.59405000000003
 10
198.70900000000009
 20
-18.59405000000003
 10
198.61450000000008
 20
-18.42500000000003
 10
198.33400000000017
 20
-17.91745000000002
 10
198.02700000000013
 20
-17.35270000000003
 10
197.77100000000007
 20
-16.86980000000003
 10
197.60450000000012
 20
-16.54730000000002
 10
197.55000000000007
 20
-16.43960000000002
 10
197.55350000000010
 20
-16.51420000000002
 10
197.56000000000012
 20
-16.73910000000003
 10
197.56700000000009
 20
-17.14760000000003
 10
197.57050000000004
 20
-17.74055000000002
 10
197.57200000000003
 20
-18.38050000000003
 10
197.57200000000003
 20
-18.59405000000003
 10
196.39650000000003
 20
-18.59405000000003
 10
196.39650000000003
 20
-14.73360000000002
 10
197.71950000000010
 20
-14.73360000000002
  0
LWPOLYLINE
  5
183
330
2C
100
AcDbEntity
  8
Planrahmen
  6
CONTINUOUS
 62
     7
370
     0
100
AcDbPolyline
 90
       20
 70
   129
 10
177.68675000000005
 20
-16.25405000000002
 10
177.66890000000006
 20
-16.27035000000002
 10
177.53944999999999
 20
-16.33030000000003
 10
177.35885000000002
 20
-16.35765000000002
 10
177.29885000000007
 20
-16.35765000000002
 10
176.75175000000016
 20
-16.35765000000002
 10
176.75175000000016
 20
-15.64695000000002
 10
177.28725000000006
 20
-15.64695000000002
 10
177.34149999999997
 20
-15.64695000000002
 10
177.50475000000003
 20
-15.66405000000003
 10
177.62925000000001
 20
-15.70555000000002
 10
177.64855000000006
 20
-15.71800000000002
 10
177.67159999999998
 20
-15.73295000000002
 10
177.74620000000002
 20
-15.83550000000002
 10
177.77415000000002
 20
-15.96055000000002
 10
177.77415000000002
 20
-16.00230000000002
 10
177.77415000000002
 20
-16.04030000000002
 10
177.75080000000003
 20
-16.15480000000002
 10
177.70035000000001
 20
-16.24020000000002
 10
177.68675000000005
 20
-16.25405000000002
  0
LWPOLYLINE
  5
184
330
2C
100
AcDbEntity
  8
Planrahmen
  6
CONTINUOUS
 62
     7
370
     0
100
AcDbPolyline
 90
       27
 70
   129
 10
178.23365000000007
 20
-17.06870000000003
 10
178.32185000000007
 20
-17.03800000000003
 10
178.57195000000010
 20
-16.90265000000003
 10
178.82070000000010
 20
-16.66445000000002
 10
178.97400000000013
 20
-16.34955000000003
 10
179.02655000000007
 20
-16.05225000000003
 10
179.02655000000007
 20
-15.95320000000002
 10
179.02655000000007
 20
-15.86640000000002
 10
178.99455000000003
 20
-15.60655000000002
 10
178.89444999999998
 20
-15.31925000000002
 10
178.71955000000000
 20
-15.08625000000003
 10
178.53205000000000
 20
-14.93975000000002
 10
178.46345000000014
 20
-14.90315000000002
 10
178.41815000000011
 20
-14.87875000000003
 10
178.27190000000010
 20
-14.82585000000002
 10
178.03130000000004
 20
-14.77320000000002
 10
177.73725000000002
 20
-14.74305000000002
 10
177.47355000000013
 20
-14.73360000000002
 10
177.38595000000007
 20
-14.73360000000002
 10
175.57035000000005
 20
-14.73360000000002
 10
175.57035000000005
 20
-18.59425000000003
 10
176.75175000000016
 20
-18.59425000000003
 10
176.75175000000016
 20
-17.26045000000002
 10
177.10195000000010
 20
-17.26045000000002
 10
177.84005000000008
 20
-18.59425000000003
 10
179.18530000000004
 20
-18.59425000000003
 10
178.23365000000007
 20
-17.06870000000003
  0
LWPOLYLINE
  5
185
330
2C
100
AcDbEntity
  8
Planrahmen
  6
CONTINUOUS
 62
     7
370
     0
100
AcDbPolyline
 90
       10
 70
   129
 10
172.81510000000006
 20
-17.12320000000003
 10
172.85880000000009
 20
-16.98645000000003
 10
173.03970000000007
 20
-16.39430000000002
 10
173.19080000000008
 20
-15.87405000000002
 10
173.21980000000008
 20
-15.77305000000002
 10
173.24560000000005
 20
-15.87405000000002
 10
173.38585000000006
 20
-16.39235000000002
 10
173.55595000000005
 20
-16.98515000000003
 10
173.59690000000006
 20
-17.12320000000003
 10
172.81510000000006
 20
-17.12320000000003
  0
LWPOLYLINE
  5
186
330
2C
100
AcDbEntity
  8
Planrahmen
  6
CONTINUOUS
 62
     7
370
     0
100
AcDbPolyline
 90
        9
 70
   129
 10
173.96310000000008
 20
-14.73390000000002
 10
172.54170000000008
 20
-14.73390000000002
 10
171.12540000000004
 20
-18.59405000000003
 10
172.40495000000004
 20
-18.59405000000003
 10
172.59650000000005
 20
-17.97120000000003
 10
173.82150000000007
 20
-17.97120000000003
 10
174.01275000000004
 20
-18.59405000000003
 10
175.31425000000004
 20
-18.59405000000003
 10
173.96310000000008
 20
-14.73390000000002
  0
LWPOLYLINE
  5
187
330
2C
100
AcDbEntity
  8
Planrahmen
  6
CONTINUOUS
 62
     7
370
     0
100
AcDbPolyline
 90
       10
 70
   129
 10
189.27755000000008
 20
-17.12320000000003
 10
189.32120000000012
 20
-16.98645000000003
 10
189.50240000000002
 20
-16.39430000000002
 10
189.65320000000014
 20
-15.87405000000002
 10
189.68225000000010
 20
-15.77305000000002
 10
189.70800000000014
 20
-15.87405000000002
 10
189.84800000000007
 20
-16.39235000000002
 10
190.01835000000005
 20
-16.98515000000003
 10
190.05955000000012
 20
-17.12320000000003
 10
189.27755000000008
 20
-17.12320000000003
  0
LWPOLYLINE
  5
188
330
2C
100
AcDbEntity
  8
Planrahmen
  6
CONTINUOUS
 62
     7
370
     0
100
AcDbPolyline
 90
        9
 70
   129
 10
190.42550000000008
 20
-14.73390000000002
 10
189.00379999999998
 20
-14.73390000000002
 10
187.58780000000013
 20
-18.59405000000003
 10
188.86760000000007
 20
-18.59405000000003
 10
189.05885000000006
 20
-17.97120000000003
 10
190.28389999999999
 20
-17.97120000000003
 10
190.47515000000010
 20
-18.59405000000003
 10
191.77640000000011
 20
-18.59405000000003
 10
190.42550000000008
 20
-14.73390000000002
  0
LWPOLYLINE
  5
189
330
2C
100
AcDbEntity
  8
Planrahmen
  6
CONTINUOUS
 62
     7
370
     0
100
AcDbPolyline
 90
       13
 70
   129
 10
169.67410000000004
 20
-13.87670000000002
 10
169.67410000000004
 20
-12.36160000000002
 10
168.54345000000004
 20
-12.36160000000002
 10
168.54345000000004
 20
-13.87670000000002
 10
167.34605000000008
 20
-13.87670000000002
 10
167.34605000000008
 20
-10.00050000000002
 10
168.54345000000004
 20
-10.00050000000002
 10
168.54345000000004
 20
-11.36230000000001
 10
169.67410000000004
 20
-11.36230000000001
 10
169.67410000000004
 20
-10.00050000000002
 10
170.87635000000006
 20
-10.00050000000002
 10
170.87635000000006
 20
-13.87670000000002
 10
169.67410000000004
 20
-13.87670000000002
  0
LWPOLYLINE
  5
18A
330
2C
100
AcDbEntity
  8
Planrahmen
  6
CONTINUOUS
 62
     7
370
     0
100
AcDbPolyline
 90
        5
 70
   129
 10
172.26710000000006
 20
-8.99740000000001
 10
173.18050000000008
 20
-8.99740000000001
 10
173.18050000000008
 20
-9.77210000000001
 10
172.26710000000006
 20
-9.77210000000001
 10
172.26710000000006
 20
-8.99740000000001
  0
LWPOLYLINE
  5
18B
330
2C
100
AcDbEntity
  8
Planrahmen
  6
CONTINUOUS
 62
     7
370
     0
100
AcDbPolyline
 90
       44
 70
   129
 10
168.55865000000003
 20
-24.60937000000003
 10
168.51905000000005
 20
-24.46830500000003
 10
168.40050000000005
 20
-24.04540500000003
 10
168.30665000000005
 20
-23.70577000000004
 10
168.25350000000006
 20
-23.50395000000003
 10
168.22605000000007
 20
-23.39055000000003
 10
168.21765000000005
 20
-23.35285000000003
 10
168.20925000000008
 20
-23.39085000000003
 10
168.18295000000006
 20
-23.50449500000003
 10
168.13115000000005
 20
-23.70631000000003
 10
168.03810000000007
 20
-24.04567500000003
 10
167.92035000000004
 20
-24.46830500000003
 10
167.88100000000006
 20
-24.60937000000003
 10
167.75050000000007
 20
-24.60937000000003
 10
167.35260000000008
 20
-23.16950000000003
 10
167.48740000000006
 20
-23.16950000000003
 10
167.52675000000005
 20
-23.31570000000003
 10
167.64445000000006
 20
-23.75487500000003
 10
167.74050000000005
 20
-24.11484500000003
 10
167.79365000000007
 20
-24.32182000000003
 10
167.81675000000007
 20
-24.41649500000004
 10
167.82380000000006
 20
-24.44823000000003
 10
167.83085000000008
 20
-24.41730500000003
 10
167.85335000000006
 20
-24.32534500000003
 10
167.90380000000005
 20
-24.12787000000003
 10
167.99740000000008
 20
-23.77060500000004
 10
168.11675000000002
 20
-23.31975000000004
 10
168.15665000000007
 20
-23.16950000000003
 10
168.27705000000003
 20
-23.16950000000003
 10
168.31800000000007
 20
-23.31840000000003
 10
168.44095000000004
 20
-23.76545000000003
 10
168.53800000000007
 20
-24.12298000000003
 10
168.59040000000002
 20
-24.32263000000003
 10
168.61400000000003
 20
-24.41487000000003
 10
168.62155000000007
 20
-24.44579000000004
 10
168.62780000000004
 20
-24.41432500000003
 10
168.64845000000005
 20
-24.32019500000003
 10
168.69565000000009
 20
-24.12189500000003
 10
168.78545000000005
 20
-23.76653500000003
 10
168.90130000000002
 20
-23.31865000000003
 10
168.94005000000007
 20
-23.16950000000003
 10
169.07025000000007
 20
-23.16950000000003
 10
168.68695000000005
 20
-24.60937000000003
 10
168.55865000000003
 20
-24.60937000000003
  0
LWPOLYLINE
  5
18C
330
2C
100
AcDbEntity
  8
Planrahmen
  6
CONTINUOUS
 62
     7
370
     0
100
AcDbPolyline
 90
        5
 70
   129
 10
169.29515000000006
 20
-23.16950000000003
 10
169.42370000000005
 20
-23.16950000000003
 10
169.42370000000005
 20
-24.60937000000003
 10
169.29515000000006
 20
-24.60937000000003
 10
169.29515000000006
 20
-23.16950000000003
  0
LWPOLYLINE
  5
18D
330
2C
100
AcDbEntity
  8
Planrahmen
  6
CONTINUOUS
 62
     7
370
     0
100
AcDbPolyline
 90
       20
 70
   129
 10
170.27385000000007
 20
-23.86066500000003
 10
170.32350000000008
 20
-23.86066500000003
 10
170.47300000000004
 20
-23.84086000000003
 10
170.58990000000006
 20
-23.79149500000003
 10
170.60615000000007
 20
-23.77684500000003
 10
170.62030000000004
 20
-23.76409500000003
 10
170.66970000000009
 20
-23.68651500000003
 10
170.69025000000005
 20
-23.59374500000003
 10
170.69025000000005
 20
-23.56308500000003
 10
170.69025000000005
 20
-23.53053500000003
 10
170.66370000000009
 20
-23.43370000000003
 10
170.60045000000008
 20
-23.35070000000003
 10
170.58230000000006
 20
-23.33850000000003
 10
170.56470000000007
 20
-23.32625000000003
 10
170.45400000000004
 20
-23.29370000000003
 10
170.31890000000004
 20
-23.28560000000003
 10
170.27385000000007
 20
-23.28560000000003
 10
169.93970000000007
 20
-23.28560000000003
 10
169.93970000000007
 20
-23.86066500000003
 10
170.27385000000007
 20
-23.86066500000003
  0
LWPOLYLINE
  5
18E
330
2C
100
AcDbEntity
  8
Planrahmen
  6
CONTINUOUS
 62
     7
370
     0
100
AcDbPolyline
 90
       23
 70
   129
 10
170.71470000000005
 20
-24.60937000000003
 10
170.28420000000006
 20
-23.97704000000003
 10
169.93970000000007
 20
-23.97704000000003
 10
169.93970000000007
 20
-24.60937000000003
 10
169.81105000000008
 20
-24.60937000000003
 10
169.81105000000008
 20
-23.16950000000003
 10
170.25380000000007
 20
-23.16950000000003
 10
170.30425000000005
 20
-23.16950000000003
 10
170.45585000000008
 20
-23.17655000000003
 10
170.59775000000005
 20
-23.20530000000003
 10
170.62300000000008
 20
-23.21615000000003
 10
170.65175000000005
 20
-23.22835000000003
 10
170.76815000000005
 20
-23.34500000000003
 10
170.82640000000004
 20
-23.51128000000003
 10
170.82640000000004
 20
-23.56688000000003
 10
170.82640000000004
 20
-23.60486000000003
 10
170.79990000000006
 20
-23.71933500000003
 10
170.72195000000005
 20
-23.83815500000003
 10
170.59425000000005
 20
-23.92034500000003
 10
170.46320000000009
 20
-23.95778000000003
 10
170.41900000000004
 20
-23.96266500000003
 10
170.87365000000003
 20
-24.60937000000003
 10
170.71470000000005
 20
-24.60937000000003
  0
LWPOLYLINE
  5
18F
330
2C
100
AcDbEntity
  8
Planrahmen
  6
CONTINUOUS
 62
     7
370
     0
100
AcDbPolyline
 90
       20
 70
   129
 10
171.71865000000008
 20
-24.49299500000003
 10
172.10195000000004
 20
-24.49299500000003
 10
172.14835000000005
 20
-24.49299500000003
 10
172.28775000000007
 20
-24.47400000000003
 10
172.39870000000008
 20
-24.42870000000003
 10
172.41420000000008
 20
-24.41568000000004
 10
172.42720000000006
 20
-24.40374500000003
 10
172.47275000000005
 20
-24.32887500000004
 10
172.49175000000005
 20
-24.23773000000004
 10
172.49175000000005
 20
-24.20762000000003
 10
172.49175000000005
 20
-24.17506000000003
 10
172.46845000000005
 20
-24.07768000000003
 10
172.41470000000010
 20
-23.99196000000003
 10
172.39955000000006
 20
-23.97866500000003
 10
172.38350000000008
 20
-23.96537500000003
 10
172.27905000000004
 20
-23.91926500000003
 10
172.14315000000008
 20
-23.89946000000003
 10
172.09790000000007
 20
-23.89946000000003
 10
171.71865000000008
 20
-23.89946000000003
 10
171.71865000000008
 20
-24.49299500000003
  0
LWPOLYLINE
  5
190
330
2C
100
AcDbEntity
  8
Planrahmen
  6
CONTINUOUS
 62
     7
370
     0
100
AcDbPolyline
 90
       20
 70
   129
 10
171.71865000000008
 20
-23.78525500000003
 10
172.08350000000004
 20
-23.78525500000003
 10
172.12255000000005
 20
-23.78525500000003
 10
172.24030000000008
 20
-23.77223500000003
 10
172.33195000000006
 20
-23.73995000000003
 10
172.34635000000009
 20
-23.73046000000003
 10
172.36260000000007
 20
-23.71961000000003
 10
172.41905000000008
 20
-23.64637000000003
 10
172.44265000000007
 20
-23.55468000000003
 10
172.44265000000007
 20
-23.52430000000003
 10
172.44265000000007
 20
-23.49662500000003
 10
172.42390000000006
 20
-23.41390000000004
 10
172.37185000000005
 20
-23.34415000000003
 10
172.35505000000006
 20
-23.33415000000003
 10
172.34175000000008
 20
-23.32600000000003
 10
172.24955000000008
 20
-23.29780000000003
 10
172.12800000000004
 20
-23.28560000000003
 10
172.08760000000007
 20
-23.28560000000003
 10
171.71865000000008
 20
-23.28560000000003
 10
171.71865000000008
 20
-23.78525500000003
  0
LWPOLYLINE
  5
191
330
2C
100
AcDbEntity
  8
Planrahmen
  6
CONTINUOUS
 62
     7
370
     0
100
AcDbPolyline
 90
       30
 70
   129
 10
172.12040000000005
 20
-23.16950000000003
 10
172.16435000000007
 20
-23.16950000000003
 10
172.29695000000007
 20
-23.18225000000004
 10
172.41040000000007
 20
-23.21480000000003
 10
172.42830000000009
 20
-23.22455000000003
 10
172.45435000000009
 20
-23.23865000000004
 10
172.53975000000005
 20
-23.33985000000003
 10
172.57315000000006
 20
-23.46896000000003
 10
172.57315000000006
 20
-23.51209000000003
 10
172.57315000000006
 20
-23.56308500000003
 10
172.51240000000007
 20
-23.71689500000003
 10
172.36810000000008
 20
-23.82432000000003
 10
172.32630000000003
 20
-23.83625000000003
 10
172.35960000000006
 20
-23.84168000000003
 10
172.45650000000006
 20
-23.87938000000003
 10
172.55035000000007
 20
-23.95778000000003
 10
172.60705000000010
 20
-24.06710500000003
 10
172.62630000000007
 20
-24.16964000000003
 10
172.62630000000007
 20
-24.20382000000004
 10
172.62630000000007
 20
-24.24641000000003
 10
172.59865000000008
 20
-24.37499500000003
 10
172.53005000000005
 20
-24.48404000000003
 10
172.50970000000009
 20
-24.50086000000004
 10
172.48820000000009
 20
-24.51822000000004
 10
172.33765000000005
 20
-24.58088000000003
 10
172.11795000000006
 20
-24.60909000000003
 10
172.04470000000003
 20
-24.60909000000003
 10
171.59005000000005
 20
-24.60909000000003
 10
171.59005000000005
 20
-23.16950000000003
 10
172.12040000000005
 20
-23.16950000000003
  0
LWPOLYLINE
  5
192
330
2C
100
AcDbEntity
  8
Planrahmen
  6
CONTINUOUS
 62
     7
370
     0
100
AcDbPolyline
 90
       20
 70
   129
 10
173.39510000000007
 20
-23.86066500000003
 10
173.44470000000007
 20
-23.86066500000003
 10
173.59420000000009
 20
-23.84086000000003
 10
173.71105000000009
 20
-23.79149500000003
 10
173.72740000000007
 20
-23.77684500000003
 10
173.74150000000006
 20
-23.76409500000003
 10
173.79085000000003
 20
-23.68651500000003
 10
173.81150000000005
 20
-23.59374500000003
 10
173.81150000000005
 20
-23.56308500000003
 10
173.81150000000005
 20
-23.53053500000003
 10
173.78490000000008
 20
-23.43370000000003
 10
173.72170000000008
 20
-23.35070000000003
 10
173.70350000000008
 20
-23.33850000000003
 10
173.68585000000007
 20
-23.32625000000003
 10
173.57515000000006
 20
-23.29370000000003
 10
173.44010000000003
 20
-23.28560000000003
 10
173.39510000000007
 20
-23.28560000000003
 10
173.06085000000004
 20
-23.28560000000003
 10
173.06085000000004
 20
-23.86066500000003
 10
173.39510000000007
 20
-23.86066500000003
  0
LWPOLYLINE
  5
193
330
2C
100
AcDbEntity
  8
Planrahmen
  6
CONTINUOUS
 62
     7
370
     0
100
AcDbPolyline
 90
       23
 70
   129
 10
173.83585000000008
 20
-24.60937000000003
 10
173.40540000000004
 20
-23.97704000000003
 10
173.06085000000004
 20
-23.97704000000003
 10
173.06085000000004
 20
-24.60937000000003
 10
172.93230000000003
 20
-24.60937000000003
 10
172.93230000000003
 20
-23.16950000000003
 10
173.37505000000007
 20
-23.16950000000003
 10
173.42545000000010
 20
-23.16950000000003
 10
173.57710000000003
 20
-23.17655000000003
 10
173.71900000000005
 20
-23.20530000000003
 10
173.74420000000006
 20
-23.21615000000003
 10
173.77320000000006
 20
-23.22835000000003
 10
173.88960000000009
 20
-23.34500000000003
 10
173.94795000000008
 20
-23.51128000000003
 10
173.94795000000008
 20
-23.56688000000003
 10
173.94795000000008
 20
-23.60486000000003
 10
173.92135000000007
 20
-23.71933500000003
 10
173.84350000000003
 20
-23.83815500000003
 10
173.71570000000008
 20
-23.92034500000003
 10
173.58470000000008
 20
-23.95778000000003
 10
173.54045000000008
 20
-23.96266500000003
 10
173.99510000000006
 20
-24.60937000000003
 10
173.83585000000008
 20
-24.60937000000003
  0
LWPOLYLINE
  5
194
330
2C
100
AcDbEntity
  8
Planrahmen
  6
CONTINUOUS
 62
     7
370
     0
100
AcDbPolyline
 90
       13
 70
   129
 10
174.26640000000003
 20
-24.60937000000003
 10
174.26640000000003
 20
-23.16950000000003
 10
175.18245000000005
 20
-23.16950000000003
 10
175.18245000000005
 20
-23.28750000000003
 10
174.39710000000008
 20
-23.28750000000003
 10
174.39710000000008
 20
-23.80804000000003
 10
175.11115000000004
 20
-23.80804000000003
 10
175.11115000000004
 20
-23.92604000000003
 10
174.39710000000008
 20
-23.92604000000003
 10
174.39710000000008
 20
-24.49136000000003
 10
175.23130000000009
 20
-24.49136000000003
 10
175.23130000000009
 20
-24.60937000000003
 10
174.26640000000003
 20
-24.60937000000003
  0
LWPOLYLINE
  5
195
330
2C
100
AcDbEntity
  8
Planrahmen
  6
CONTINUOUS
 62
     7
370
     0
100
AcDbPolyline
 90
       31
 70
   129
 10
176.47530000000006
 20
-24.60937000000003
 10
176.37954999999999
 20
-24.46505000000003
 10
176.09280000000010
 20
-24.03211000000003
 10
175.86035000000004
 20
-23.68055000000003
 10
175.72745000000006
 20
-23.47600500000003
 10
175.66370000000003
 20
-23.37485000000003
 10
175.64335000000003
 20
-23.34090000000003
 10
175.64364999999998
 20
-23.36860000000003
 10
175.64470000000003
 20
-23.45215000000003
 10
175.64605000000006
 20
-23.65071000000003
 10
175.64685000000009
 20
-24.01122000000003
 10
175.64740000000006
 20
-24.45962500000004
 10
175.64740000000006
 20
-24.60937000000003
 10
175.52290000000008
 20
-24.60937000000003
 10
175.52290000000008
 20
-23.16950000000003
 10
175.67185000000001
 20
-23.16950000000003
 10
175.77030000000011
 20
-23.31865000000003
 10
176.06600000000000
 20
-23.76735500000003
 10
176.30010000000013
 20
-24.12353000000003
 10
176.42675000000003
 20
-24.31911000000003
 10
176.48210000000003
 20
-24.40646000000003
 10
176.50025000000008
 20
-24.43575500000003
 10
176.49920000000003
 20
-24.40157500000004
 10
176.49730000000002
 20
-24.29903500000003
 10
176.49510000000006
 20
-24.08636000000003
 10
176.49405000000002
 20
-23.73181000000004
 10
176.49380000000008
 20
-23.31000000000003
 10
176.49380000000008
 20
-23.16950000000003
 10
176.62045000000009
 20
-23.16950000000003
 10
176.62045000000009
 20
-24.60937000000003
 10
176.47530000000006
 20
-24.60937000000003
  0
LWPOLYLINE
  5
196
330
2C
100
AcDbEntity
  8
Planrahmen
  6
CONTINUOUS
 62
     7
370
     0
100
AcDbPolyline
 90
       31
 70
   129
 10
177.96050000000014
 20
-24.60937000000003
 10
177.86475000000007
 20
-24.46505000000003
 10
177.57800000000006
 20
-24.03211000000003
 10
177.34525000000005
 20
-23.68055000000003
 10
177.21230000000003
 20
-23.47600500000003
 10
177.14855000000000
 20
-23.37485000000003
 10
177.12820000000002
 20
-23.34090000000003
 10
177.12850000000009
 20
-23.36860000000003
 10
177.12960000000004
 20
-23.45215000000003
 10
177.13100000000009
 20
-23.65071000000003
 10
177.13175000000010
 20
-24.01122000000003
 10
177.13230000000007
 20
-24.45962500000004
 10
177.13230000000007
 20
-24.60937000000003
 10
177.00810000000004
 20
-24.60937000000003
 10
177.00810000000004
 20
-23.16950000000003
 10
177.15705000000008
 20
-23.16950000000003
 10
177.25545000000002
 20
-23.31865000000003
 10
177.55115000000004
 20
-23.76735500000003
 10
177.78495000000009
 20
-24.12353000000003
 10
177.91195000000010
 20
-24.31911000000003
 10
177.96705000000006
 20
-24.40646000000003
 10
177.98515000000009
 20
-24.43575500000003
 10
177.98410000000015
 20
-24.40157500000004
 10
177.98220000000015
 20
-24.29903500000003
 10
177.98030000000014
 20
-24.08636000000003
 10
177.97920000000005
 20
-23.73181000000004
 10
177.97889999999998
 20
-23.31000000000003
 10
177.97889999999998
 20
-23.16950000000003
 10
178.10534999999999
 20
-23.16950000000003
 10
178.10534999999999
 20
-24.60937000000003
 10
177.96050000000014
 20
-24.60937000000003
  0
LWPOLYLINE
  5
197
330
2C
100
AcDbEntity
  8
Planrahmen
  6
CONTINUOUS
 62
     7
370
     0
100
AcDbPolyline
 90
       13
 70
   129
 10
178.49355000000006
 20
-24.60937000000003
 10
178.49355000000006
 20
-23.16950000000003
 10
179.40935000000007
 20
-23.16950000000003
 10
179.40935000000007
 20
-23.28750000000003
 10
178.62405000000010
 20
-23.28750000000003
 10
178.62405000000010
 20
-23.80804000000003
 10
179.33775000000011
 20
-23.80804000000003
 10
179.33775000000011
 20
-23.92604000000003
 10
178.62405000000010
 20
-23.92604000000003
 10
178.62405000000010
 20
-24.49136000000003
 10
179.45815000000005
 20
-24.49136000000003
 10
179.45815000000005
 20
-24.60937000000003
 10
178.49355000000006
 20
-24.60937000000003
  0
LWPOLYLINE
  5
198
330
2C
100
AcDbEntity
  8
Planrahmen
  6
CONTINUOUS
 62
     7
370
     0
100
AcDbPolyline
 90
       31
 70
   129
 10
180.70275000000007
 20
-24.60937000000003
 10
180.60694999999998
 20
-24.46505000000003
 10
180.32025000000002
 20
-24.03211000000003
 10
180.08755000000005
 20
-23.68055000000003
 10
179.95460000000003
 20
-23.47600500000003
 10
179.89085000000009
 20
-23.37485000000003
 10
179.87050000000011
 20
-23.34090000000003
 10
179.87080000000006
 20
-23.36860000000003
 10
179.87184999999999
 20
-23.45215000000003
 10
179.87320000000000
 20
-23.65071000000003
 10
179.87405000000007
 20
-24.01122000000003
 10
179.87455000000003
 20
-24.45962500000004
 10
179.87455000000003
 20
-24.60937000000003
 10
179.75030000000010
 20
-24.60937000000003
 10
179.75030000000010
 20
-23.16950000000003
 10
179.89924999999999
 20
-23.16950000000003
 10
179.99775000000000
 20
-23.31865000000003
 10
180.29345000000012
 20
-23.76735500000003
 10
180.52725000000007
 20
-24.12353000000003
 10
180.65390000000008
 20
-24.31911000000003
 10
180.70900000000006
 20
-24.40646000000003
 10
180.72720000000015
 20
-24.43575500000003
 10
180.72605000000001
 20
-24.40157500000004
 10
180.72420000000005
 20
-24.29903500000003
 10
180.72225000000003
 20
-24.08636000000003
 10
180.72120000000007
 20
-23.73181000000004
 10
180.72095000000016
 20
-23.31000000000003
 10
180.72095000000016
 20
-23.16950000000003
 10
180.84760000000006
 20
-23.16950000000003
 10
180.84760000000006
 20
-24.60937000000003
 10
180.70275000000007
 20
-24.60937000000003
  0
LWPOLYLINE
  5
199
330
2C
100
AcDbEntity
  8
Planrahmen
  6
CONTINUOUS
 62
     7
370
     0
100
AcDbPolyline
 90
       11
 70
   129
 10
181.68010000000007
 20
-24.60937000000003
 10
181.68010000000007
 20
-23.16950000000003
 10
182.59595000000002
 20
-23.16950000000003
 10
182.59595000000002
 20
-23.28750000000003
 10
181.81060000000011
 20
-23.28750000000003
 10
181.81060000000011
 20
-23.78715500000003
 10
182.51615000000004
 20
-23.78715500000003
 10
182.51615000000004
 20
-23.90759500000003
 10
181.81060000000011
 20
-23.90759500000003
 10
181.81060000000011
 20
-24.60937000000003
 10
181.68010000000007
 20
-24.60937000000003
  0
LWPOLYLINE
  5
19A
330
2C
100
AcDbEntity
  8
Planrahmen
  6
CONTINUOUS
 62
     7
370
     0
100
AcDbPolyline
 90
        5
 70
   129
 10
183.59935000000010
 20
-22.86975000000003
 10
183.71760000000009
 20
-22.86975000000003
 10
183.71760000000009
 20
-23.03735000000003
 10
183.59935000000010
 20
-23.03735000000003
 10
183.59935000000010
 20
-22.86975000000003
  0
LWPOLYLINE
  5
19B
330
2C
100
AcDbEntity
  8
Planrahmen
  6
CONTINUOUS
 62
     7
370
     0
100
AcDbPolyline
 90
        5
 70
   129
 10
183.11760000000004
 20
-22.86975000000003
 10
183.23800000000006
 20
-22.86975000000003
 10
183.23800000000006
 20
-23.03735000000003
 10
183.11760000000004
 20
-23.03735000000003
 10
183.11760000000004
 20
-22.86975000000003
  0
LWPOLYLINE
  5
19C
330
2C
100
AcDbEntity
  8
Planrahmen
  6
CONTINUOUS
 62
     7
370
     0
100
AcDbPolyline
 90
       39
 70
   129
 10
183.94225000000003
 20
-23.97107000000003
 10
183.94225000000003
 20
-24.04350000000003
 10
183.92435000000000
 20
-24.26159500000003
 10
183.87170000000003
 20
-24.41812000000004
 10
183.85434999999998
 20
-24.44443500000003
 10
183.83290000000002
 20
-24.47590500000003
 10
183.67720000000014
 20
-24.58739000000004
 10
183.47650000000010
 20
-24.63595000000003
 10
183.40975000000009
 20
-24.63595000000003
 10
183.34379999999999
 20
-24.63595000000003
 10
183.14660000000009
 20
-24.58441000000003
 10
182.99195000000006
 20
-24.46939000000004
 10
182.97135000000003
 20
-24.43765500000003
 10
182.95240000000007
 20
-24.40916500000003
 10
182.90105000000005
 20
-24.24342500000003
 10
182.88755000000006
 20
-24.04323000000003
 10
182.88755000000006
 20
-23.97677000000003
 10
182.88755000000006
 20
-23.16950000000003
 10
183.01615000000010
 20
-23.16950000000003
 10
183.01615000000010
 20
-24.05462500000003
 10
183.01615000000010
 20
-24.09693500000003
 10
183.03050000000005
 20
-24.22389500000004
 10
183.07065000000006
 20
-24.34379000000003
 10
183.08335000000014
 20
-24.36495000000003
 10
183.09855000000013
 20
-24.38991000000004
 10
183.21550000000013
 20
-24.47970000000003
 10
183.36440000000005
 20
-24.51957500000003
 10
183.41405000000006
 20
-24.51957500000003
 10
183.46230000000014
 20
-24.51957500000003
 10
183.60775000000012
 20
-24.48594000000003
 10
183.72740000000016
 20
-24.40075500000003
 10
183.74635000000001
 20
-24.37499500000003
 10
183.76100000000000
 20
-24.35464500000004
 10
183.80224999999999
 20
-24.22932000000003
 10
183.81390000000002
 20
-24.09341500000003
 10
183.81390000000002
 20
-24.04838000000003
 10
183.81390000000002
 20
-23.16950000000003
 10
183.94225000000003
 20
-23.16950000000003
 10
183.94225000000003
 20
-23.97107000000003
  0
LWPOLYLINE
  5
19D
330
2C
100
AcDbEntity
  8
Planrahmen
  6
CONTINUOUS
 62
     7
370
     0
100
AcDbPolyline
 90
       20
 70
   129
 10
184.79315000000011
 20
-23.86066500000003
 10
184.84280000000012
 20
-23.86066500000003
 10
184.99175000000017
 20
-23.84086000000003
 10
185.10890000000006
 20
-23.79149500000003
 10
185.12549999999999
 20
-23.77684500000003
 10
185.13960000000000
 20
-23.76409500000003
 10
185.18844999999999
 20
-23.68651500000003
 10
185.20935000000011
 20
-23.59374500000003
 10
185.20935000000011
 20
-23.56308500000003
 10
185.20935000000011
 20
-23.53053500000003
 10
185.18275000000000
 20
-23.43370000000003
 10
185.11925000000002
 20
-23.35070000000003
 10
185.10079999999999
 20
-23.33850000000003
 10
185.08345000000008
 20
-23.32625000000003
 10
184.97275000000008
 20
-23.29370000000003
 10
184.83795000000009
 20
-23.28560000000003
 10
184.79315000000011
 20
-23.28560000000003
 10
184.45815000000016
 20
-23.28560000000003
 10
184.45815000000016
 20
-23.86066500000003
 10
184.79315000000011
 20
-23.86066500000003
  0
LWPOLYLINE
  5
19E
330
2C
100
AcDbEntity
  8
Planrahmen
  6
CONTINUOUS
 62
     7
370
     0
100
AcDbPolyline
 90
       23
 70
   129
 10
185.23315000000011
 20
-24.60937000000003
 10
184.80295000000007
 20
-23.97704000000003
 10
184.45815000000016
 20
-23.97704000000003
 10
184.45815000000016
 20
-24.60937000000003
 10
184.33010000000010
 20
-24.60937000000003
 10
184.33010000000010
 20
-23.16950000000003
 10
184.77280000000013
 20
-23.16950000000003
 10
184.82330000000007
 20
-23.16950000000003
 10
184.97470000000010
 20
-23.17655000000003
 10
185.11655000000010
 20
-23.20530000000003
 10
185.14175000000006
 20
-23.21615000000003
 10
185.17080000000001
 20
-23.22835000000003
 10
185.28720000000004
 20
-23.34500000000003
 10
185.34569999999999
 20
-23.51128000000003
 10
185.34569999999999
 20
-23.56688000000003
 10
185.34569999999999
 20
-23.60486000000003
 10
185.31920000000008
 20
-23.71933500000003
 10
185.24105000000006
 20
-23.83815500000003
 10
185.11300000000003
 20
-23.92034500000003
 10
184.98195000000001
 20
-23.95778000000003
 10
184.93775000000005
 20
-23.96266500000003
 10
185.39240000000007
 20
-24.60937000000003
 10
185.23315000000011
 20
-24.60937000000003
  0
LWPOLYLINE
  5
19F
330
2C
100
AcDbEntity
  8
Planrahmen
  6
CONTINUOUS
 62
     7
370
     0
100
AcDbPolyline
 90
       25
 70
   129
 10
186.66140000000013
 20
-23.25900000000003
 10
186.61120000000014
 20
-23.25900000000003
 10
186.46120000000005
 20
-23.30160000000003
 10
186.30980000000002
 20
-23.42390000000003
 10
186.21380000000013
 20
-23.61598500000003
 10
186.18045000000009
 20
-23.80559500000003
 10
186.18045000000009
 20
-23.86880500000003
 10
186.18045000000009
 20
-23.93607500000003
 10
186.21460000000016
 20
-24.13871500000003
 10
186.31280000000001
 20
-24.34298000000003
 10
186.46745000000004
 20
-24.47237500000003
 10
186.62045000000009
 20
-24.51767500000003
 10
186.67140000000009
 20
-24.51767500000003
 10
186.71920000000014
 20
-24.51767500000003
 10
186.86265000000006
 20
-24.47482000000004
 10
187.00865000000005
 20
-24.35220000000003
 10
187.10195000000013
 20
-24.15689000000004
 10
187.13475000000008
 20
-23.96212000000003
 10
187.13475000000008
 20
-23.89728500000003
 10
187.13475000000008
 20
-23.82974500000004
 10
187.10170000000008
 20
-23.62791500000003
 10
187.00755000000007
 20
-23.42745000000003
 10
186.85835000000000
 20
-23.30210000000004
 10
186.71050000000017
 20
-23.25900000000003
 10
186.66140000000013
 20
-23.25900000000003
  0
LWPOLYLINE
  5
1A0
330
2C
100
AcDbEntity
  8
Planrahmen
  6
CONTINUOUS
 62
     7
370
     0
100
AcDbPolyline
 90
       30
 70
   129
 10
187.38165000000001
 20
-24.70512500000003
 10
187.29615000000004
 20
-24.79084000000004
 10
186.99400000000006
 20
-24.54019500000004
 10
186.97280000000009
 20
-24.55538000000003
 10
186.84775000000002
 20
-24.61072000000003
 10
186.71105000000014
 20
-24.63568000000003
 10
186.66570000000010
 20
-24.63568000000003
 10
186.59925000000015
 20
-24.63568000000003
 10
186.40045000000009
 20
-24.57980000000003
 10
186.20510000000007
 20
-24.42355000000003
 10
186.08470000000005
 20
-24.18320000000004
 10
186.04345000000006
 20
-23.95208500000003
 10
186.04345000000006
 20
-23.87531000000003
 10
186.04345000000006
 20
-23.79909000000003
 10
186.08635000000001
 20
-23.57122000000003
 10
186.20975000000013
 20
-23.34065000000003
 10
186.40559999999999
 20
-23.19415000000003
 10
186.60065000000009
 20
-23.14290000000003
 10
186.66570000000010
 20
-23.14290000000003
 10
186.73355000000006
 20
-23.14290000000003
 10
186.93780000000010
 20
-23.20310000000003
 10
187.12690000000015
 20
-23.36670000000003
 10
187.23730000000009
 20
-23.60730500000003
 10
187.27335000000005
 20
-23.82621500000003
 10
187.27335000000005
 20
-23.89919000000004
 10
187.27335000000005
 20
-23.97812500000003
 10
187.22650000000013
 20
-24.21521500000003
 10
187.11470000000014
 20
-24.42463000000003
 10
187.08210000000008
 20
-24.46043500000003
 10
187.38165000000001
 20
-24.70512500000003
  0
LWPOLYLINE
  5
1A1
330
2C
100
AcDbEntity
  8
Planrahmen
  6
CONTINUOUS
 62
     7
370
     0
100
AcDbPolyline
 90
       39
 70
   129
 10
188.65685000000005
 20
-23.97080000000004
 10
188.65685000000005
 20
-24.04350000000003
 10
188.63890000000009
 20
-24.26159500000003
 10
188.58635000000007
 20
-24.41812000000004
 10
188.56920000000005
 20
-24.44416000000003
 10
188.54780000000011
 20
-24.47563000000003
 10
188.39210000000011
 20
-24.58739000000004
 10
188.19135000000003
 20
-24.63595000000003
 10
188.12460000000002
 20
-24.63595000000003
 10
188.05870000000007
 20
-24.63595000000003
 10
187.86150000000006
 20
-24.58414000000003
 10
187.70660000000001
 20
-24.46939000000004
 10
187.68600000000006
 20
-24.43792500000003
 10
187.66695000000004
 20
-24.40916500000003
 10
187.61570000000012
 20
-24.24342500000003
 10
187.60245000000015
 20
-24.04377000000003
 10
187.60245000000015
 20
-23.97731500000003
 10
187.60245000000015
 20
-23.16920000000004
 10
187.73045000000005
 20
-23.16920000000004
 10
187.73045000000005
 20
-24.05489500000003
 10
187.73045000000005
 20
-24.09721500000003
 10
187.74510000000004
 20
-24.22416500000004
 10
187.78550000000010
 20
-24.34379000000003
 10
187.79830000000001
 20
-24.36495000000003
 10
187.81350000000000
 20
-24.38964000000003
 10
187.93010000000015
 20
-24.47943000000003
 10
188.07905000000008
 20
-24.51957500000003
 10
188.12870000000009
 20
-24.51957500000003
 10
188.17695000000006
 20
-24.51957500000003
 10
188.32210000000009
 20
-24.48594000000003
 10
188.44225000000009
 20
-24.40048500000004
 10
188.46130000000011
 20
-24.37471500000003
 10
188.47595000000010
 20
-24.35437500000003
 10
188.51690000000016
 20
-24.22905000000003
 10
188.52855000000008
 20
-24.09314500000003
 10
188.52855000000008
 20
-24.04811000000003
 10
188.52855000000008
 20
-23.16920000000004
 10
188.65685000000005
 20
-23.16920000000004
 10
188.65685000000005
 20
-23.97080000000004
  0
LWPOLYLINE
  5
1A2
330
2C
100
AcDbEntity
  8
Planrahmen
  6
CONTINUOUS
 62
     7
370
     0
100
AcDbPolyline
 90
       14
 70
   129
 10
189.78670000000014
 20
-24.07687000000004
 10
189.75710000000007
 20
-23.99739000000003
 10
189.66890000000009
 20
-23.75948500000003
 10
189.59160000000014
 20
-23.55088000000003
 10
189.54140000000012
 20
-23.41335000000003
 10
189.51380000000000
 20
-23.33550000000003
 10
189.50510000000003
 20
-23.30970000000003
 10
189.49615000000003
 20
-23.33550000000003
 10
189.46850000000009
 20
-23.41255000000003
 10
189.41745000000003
 20
-23.55115500000003
 10
189.33880000000008
 20
-23.76084000000003
 10
189.24925000000007
 20
-23.99793000000004
 10
189.21945000000011
 20
-24.07687000000004
 10
189.78670000000014
 20
-24.07687000000004
  0
LWPOLYLINE
  5
1A3
330
2C
100
AcDbEntity
  8
Planrahmen
  6
CONTINUOUS
 62
     7
370
     0
100
AcDbPolyline
 90
        9
 70
   129
 10
189.97870000000012
 20
-24.60909000000003
 10
189.82765000000006
 20
-24.18917500000003
 10
189.17685000000012
 20
-24.18917500000003
 10
189.02410000000009
 20
-24.60909000000003
 10
188.88095000000010
 20
-24.60909000000003
 10
189.44220000000016
 20
-23.16950000000003
 10
189.57670000000010
 20
-23.16950000000003
 10
190.12140000000016
 20
-24.60909000000003
 10
189.97870000000012
 20
-24.60909000000003
  0
LWPOLYLINE
  5
1A4
330
2C
100
AcDbEntity
  8
Planrahmen
  6
CONTINUOUS
 62
     7
370
     0
100
AcDbPolyline
 90
        7
 70
   129
 10
190.34600000000006
 20
-24.60937000000003
 10
190.34600000000006
 20
-23.16950000000003
 10
190.47405000000012
 20
-23.16950000000003
 10
190.47405000000012
 20
-24.49136000000003
 10
191.24120000000005
 20
-24.49136000000003
 10
191.24120000000005
 20
-24.60937000000003
 10
190.34600000000006
 20
-24.60937000000003
  0
LWPOLYLINE
  5
1A5
330
2C
100
AcDbEntity
  8
Planrahmen
  6
CONTINUOUS
 62
     7
370
     0
100
AcDbPolyline
 90
        5
 70
   129
 10
191.52280000000016
 20
-23.16950000000003
 10
191.65105000000008
 20
-23.16950000000003
 10
191.65105000000008
 20
-24.60937000000003
 10
191.52280000000016
 20
-24.60937000000003
 10
191.52280000000016
 20
-23.16950000000003
  0
LWPOLYLINE
  5
1A6
330
2C
100
AcDbEntity
  8
Planrahmen
  6
CONTINUOUS
 62
     7
370
     0
100
AcDbPolyline
 90
        9
 70
   129
 10
192.36940000000007
 20
-24.60937000000003
 10
192.36940000000007
 20
-23.28750000000003
 10
191.92915000000016
 20
-23.28750000000003
 10
191.92915000000016
 20
-23.16950000000003
 10
192.94475000000006
 20
-23.16950000000003
 10
192.94475000000006
 20
-23.28750000000003
 10
192.50205000000003
 20
-23.28750000000003
 10
192.50205000000003
 20
-24.60937000000003
 10
192.36940000000007
 20
-24.60937000000003
  0
LWPOLYLINE
  5
1A7
330
2C
100
AcDbEntity
  8
Planrahmen
  6
CONTINUOUS
 62
     7
370
     0
100
AcDbPolyline
 90
        5
 70
   129
 10
193.86630000000011
 20
-22.86975000000003
 10
193.98425000000015
 20
-22.86975000000003
 10
193.98425000000015
 20
-23.03735000000003
 10
193.86630000000011
 20
-23.03735000000003
 10
193.86630000000011
 20
-22.86975000000003
  0
LWPOLYLINE
  5
1A8
330
2C
100
AcDbEntity
  8
Planrahmen
  6
CONTINUOUS
 62
     7
370
     0
100
AcDbPolyline
 90
       14
 70
   129
 10
193.96635000000012
 20
-24.07714000000003
 10
193.93705000000011
 20
-23.99766000000003
 10
193.84865000000002
 20
-23.75948500000003
 10
193.77135000000007
 20
-23.55088000000003
 10
193.72115000000016
 20
-23.41360000000003
 10
193.69350000000011
 20
-23.33575000000003
 10
193.68480000000017
 20
-23.31000000000003
 10
193.67585000000014
 20
-23.33575000000003
 10
193.64815000000007
 20
-23.41280000000003
 10
193.59720000000007
 20
-23.55142500000003
 10
193.51850000000010
 20
-23.76111000000003
 10
193.42900000000000
 20
-23.99820000000003
 10
193.39910000000009
 20
-24.07714000000003
 10
193.96635000000012
 20
-24.07714000000003
  0
LWPOLYLINE
  5
1A9
330
2C
100
AcDbEntity
  8
Planrahmen
  6
CONTINUOUS
 62
     7
370
     0
100
AcDbPolyline
 90
        5
 70
   129
 10
193.38505000000012
 20
-22.86975000000003
 10
193.50545000000014
 20
-22.86975000000003
 10
193.50545000000014
 20
-23.03735000000003
 10
193.38505000000012
 20
-23.03735000000003
 10
193.38505000000012
 20
-22.86975000000003
  0
LWPOLYLINE
  5
1AA
330
2C
100
AcDbEntity
  8
Planrahmen
  6
CONTINUOUS
 62
     7
370
     0
100
AcDbPolyline
 90
        9
 70
   129
 10
194.15870000000018
 20
-24.60909000000003
 10
194.00730000000016
 20
-24.18917500000003
 10
193.35655000000000
 20
-24.18917500000003
 10
193.20385000000013
 20
-24.60909000000003
 10
193.06060000000008
 20
-24.60909000000003
 10
193.62185000000014
 20
-23.16950000000003
 10
193.75640000000010
 20
-23.16950000000003
 10
194.30085000000003
 20
-24.60909000000003
 10
194.15870000000018
 20
-24.60909000000003
  0
LWPOLYLINE
  5
1AB
330
2C
100
AcDbEntity
  8
Planrahmen
  6
CONTINUOUS
 62
     7
370
     0
100
AcDbPolyline
 90
        9
 70
   129
 10
194.85585000000012
 20
-24.60937000000003
 10
194.85585000000012
 20
-23.28750000000003
 10
194.41585000000012
 20
-23.28750000000003
 10
194.41585000000012
 20
-23.16950000000003
 10
195.43150000000014
 20
-23.16950000000003
 10
195.43150000000014
 20
-23.28750000000003
 10
194.98880000000011
 20
-23.28750000000003
 10
194.98880000000011
 20
-24.60937000000003
 10
194.85585000000012
 20
-24.60937000000003
  0
LWPOLYLINE
  5
1AC
330
2C
100
AcDbEntity
  8
Planrahmen
  6
CONTINUOUS
 62
    20
370
     0
100
AcDbPolyline
 90
       21
 70
   129
 10
149.30544500000002
 20
-10.00000000000002
 10
149.30544500000002
 20
-16.01565000000002
 10
152.74295000000004
 20
-16.01565000000002
 10
152.74295000000004
 20
-13.43725000000002
 10
156.18045000000004
 20
-13.43725000000002
 10
156.18045000000004
 20
-21.17215000000003
 10
152.74295000000004
 20
-21.17215000000003
 10
152.74295000000004
 20
-18.59405000000003
 10
149.30544500000002
 20
-18.59405000000003
 10
149.30544500000002
 20
-24.60937000000003
 10
163.91480000000001
 20
-24.60937000000003
 10
163.91480000000001
 20
-18.59405000000003
 10
160.47760000000005
 20
-18.59405000000003
 10
160.47760000000005
 20
-21.17215000000003
 10
157.03955000000002
 20
-21.17215000000003
 10
157.03955000000002
 20
-13.43725000000002
 10
160.47760000000005
 20
-13.43725000000002
 10
160.47760000000005
 20
-16.01565000000002
 10
163.91480000000001
 20
-16.01565000000002
 10
163.91480000000001
 20
-10.00000000000002
 10
149.30544500000002
 20
-10.00000000000002
  0
ENDBLK
  5
1AD
330
2C
100
AcDbEntity
  8
0
100
AcDbBlockEnd
  0
BLOCK
  5
1AE
330
2D
100
AcDbEntity
  8
0
100
AcDbBlockBegin
  2
*U22
 70
     1
 10
0.00000000000000
 20
0.00000000000000
 30
0.00000000000000
  3
*U22
  1

  0
MTEXT
  5
1AF
330
2D
100
AcDbEntity
  8
Planrahmen
 62
     7
370
    25
100
AcDbMText
 10
165.00000000000037
 20
-79.99999999999967
 30
0.00000000000000
 40
2.50000000000000
 41
0.00000000000000
 71
     7
 72
     1
  1
\fArial|b0|i0;Stand:\PMassstab:
 11
1.00000000000000
 21
0.00000000000000
 31
0.00000000000000
 73
     1
 44
1.00000000000000
  0
MTEXT
  5
1B0
330
2D
100
AcDbEntity
  8
Planrahmen
 62
     7
370
    25
100
AcDbMText
 10
200.00000000000028
 20
-79.99999999999977
 30
0.00000000000000
 40
2.50000000000000
 41
0.00000000000000
 71
     9
 72
     1
  1
\fArial|b0|i0;02/2021\P1:10
 11
1.00000000000000
 21
0.00000000000000
 31
0.00000000000000
 73
     1
 44
1.00000000000000
  0
ENDBLK
  5
1B1
330
2D
100
AcDbEntity
  8
0
100
AcDbBlockEnd
  0
ENDSEC
  0
SECTION
  2
ENTITIES
  0
HATCH
  5
1B2
330
2F
100
AcDbEntity
  8
# Zeichnungen 10
 62
    30
100
AcDbHatch
 10
0.00000000000000
 20
0.00000000000000
 30
0.00000000000000
210
0.00000000000000
220
0.00000000000000
230
1.00000000000000
  2
SOLID
 70
     1
 71
     0
 91
        1
 92
        0
 93
       10
 72
     1
 10
74.49999999999989
 20
-249.50000000000003
 11
74.49999999999989
 21
-263.50000000000000
 72
     1
 10
74.49999999999989
 20
-263.50000000000000
 11
62.99999999999982
 21
-263.50000000000000
 72
     1
 10
62.99999999999982
 20
-263.50000000000000
 11
62.99999999999982
 21
-226.99999999999997
 72
     1
 10
62.99999999999982
 20
-226.99999999999997
 11
110.99999999999976
 21
-226.99999999999997
 72
     1
 10
110.99999999999976
 20
-226.99999999999997
 11
110.99999999999979
 21
-280.00000000000000
 72
     1
 10
110.99999999999979
 20
-280.00000000000000
 11
74.49999999999987
 21
-280.00000000000000
 72
     1
 10
74.49999999999987
 20
-280.00000000000000
 11
74.49999999999989
 21
-263.49999999999994
 72
     1
 10
74.49999999999989
 20
-263.49999999999994
 11
88.49999999999990
 21
-263.49999999999977
 72
     1
 10
88.49999999999990
 20
-263.49999999999977
 11
88.49999999999990
 21
-249.49999999999983
 72
     1
 10
88.49999999999990
 20
-249.49999999999983
 11
74.49999999999989
 21
-249.50000000000003
 97
        0
 75
     0
 76
     0
 98
        1
 10
0.00000000000000
 20
0.00000000000000
  0
HATCH
  5
1B3
330
2F
100
AcDbEntity
  8
# Zeichnungen 10
 62
     7
370
    18
100
AcDbHatch
 10
0.00000000000000
 20
0.00000000000000
 30
0.00000000000000
210
0.00000000000000
220
0.00000000000000
230
1.00000000000000
  2
SCHRAFFUR
 70
     0
 71
     0
 91
        1
 92
        0
 93
       10
 72
     1
 10
74.49999999999989
 20
-249.50000000000003
 11
74.49999999999989
 21
-263.50000000000000
 72
     1
 10
74.49999999999989
 20
-263.50000000000000
 11
62.99999999999982
 21
-263.50000000000000
 72
     1
 10
62.99999999999982
 20
-263.50000000000000
 11
62.99999999999982
 21
-226.99999999999997
 72
     1
 10
62.99999999999982
 20
-226.99999999999997
 11
110.99999999999976
 21
-226.99999999999997
 72
     1
 10
110.99999999999976
 20
-226.99999999999997
 11
110.99999999999979
 21
-280.00000000000000
 72
     1
 10
110.99999999999979
 20
-280.00000000000000
 11
74.49999999999987
 21
-280.00000000000000
 72
     1
 10
74.49999999999987
 20
-280.00000000000000
 11
74.49999999999989
 21
-263.49999999999994
 72
     1
 10
74.49999999999989
 20
-263.49999999999994
 11
88.49999999999990
 21
-263.49999999999977
 72
     1
 10
88.49999999999990
 20
-263.49999999999977
 11
88.49999999999990
 21
-249.49999999999983
 72
     1
 10
88.49999999999990
 20
-249.49999999999983
 11
74.49999999999989
 21
-249.50000000000003
 97
        0
 75
     0
 76
     0
 52
135.00000000000017
 41
1.00000000000000
 77
     0
 78
     1
 53
135.00000000000017
 43
-397.99999999999989
 44
469.99999999999994
 45
-2.82842712474618
 46
-2.82842712474620
 79
     0
 98
        1
 10
0.00000000000000
 20
0.00000000000000
  0
HATCH
  5
1B4
330
2F
100
AcDbEntity
  8
# Zeichnungen 10
 62
     7
370
    18
100
AcDbHatch
 10
0.00000000000000
 20
0.00000000000000
 30
0.00000000000000
210
0.00000000000000
220
0.00000000000000
230
1.00000000000000
  2
SCHRAFFUR
 70
     0
 71
     0
 91
        1
 92
        0
 93
       14
 72
     1
 10
98.99999999999976
 20
-179.99999999999974
 11
98.99999999999984
 21
-199.99999999999994
 72
     1
 10
98.99999999999984
 20
-199.99999999999994
 11
88.49999999999992
 21
-199.99999999999997
 72
     1
 10
88.49999999999992
 20
-199.99999999999997
 11
88.49999999999999
 21
-198.49999999999960
 72
     1
 10
88.49999999999999
 20
-198.49999999999960
 11
83.35000000000053
 21
-198.49999999999960
 72
     1
 10
83.35000000000053
 20
-198.49999999999960
 11
83.35000000000053
 21
-198.19999999999939
 72
     1
 10
83.35000000000053
 20
-198.19999999999939
 11
83.00000000000037
 21
-198.19999999999939
 72
     1
 10
83.00000000000037
 20
-198.19999999999939
 11
83.13052857925956
 21
-198.12463928962694
 72
     2
 10
82.79903810567690
 20
-197.43325317547209
 40
0.76674682452699
 50
295.61575253210685
 51
304.38424746799939
 73
     1
 72
     1
 10
83.23205080756868
 20
-198.06602540378381
 11
83.23205080756867
 21
-196.73397459621444
 72
     2
 10
82.79903810567690
 20
-197.36674682452619
 40
0.76674682452699
 50
55.61575253200181
 51
64.38424746788022
 73
     1
 72
     1
 10
83.13052857925972
 20
-196.67536071037139
 11
83.00000000000028
 21
-196.59999999999889
 72
     1
 10
83.00000000000028
 20
-196.59999999999889
 11
82.49999999999984
 21
-196.59999999999889
 72
     1
 10
82.49999999999984
 20
-196.59999999999889
 11
82.49999999999984
 21
-179.99999999999977
 72
     1
 10
82.49999999999984
 20
-179.99999999999977
 11
98.99999999999976
 21
-179.99999999999974
 97
        0
 75
     0
 76
     0
 52
44.99999999999991
 41
1.00000000000000
 77
     0
 78
     2
 53
44.99999999999991
 43
-266.89685872569345
 44
1125.26543039629880
 45
-5.65685424949237
 46
5.65685424949239
 79
     0
 53
44.99999999999991
 43
-269.72528585043966
 44
1128.09385752104500
 45
-5.65685424949237
 46
5.65685424949239
 79
     2
 49
6.67000000000000
 49
-3.33000000000000
 98
        1
 10
0.00000000000000
 20
0.00000000000000
  0
HATCH
  5
1B5
330
2F
100
AcDbEntity
  8
# Zeichnungen 10
 62
     7
370
    18
100
AcDbHatch
 10
0.00000000000000
 20
0.00000000000000
 30
0.00000000000000
210
0.00000000000000
220
0.00000000000000
230
1.00000000000000
  2
SCHRAFFUR
 70
     0
 71
     0
 91
        1
 92
        0
 93
       14
 72
     1
 10
80.49999999999989
 20
-179.99999999999977
 11
80.49999999999989
 21
-196.59999999999889
 72
     1
 10
80.49999999999989
 20
-196.59999999999889
 11
80.00000000000017
 21
-196.59999999999889
 72
     1
 10
80.00000000000017
 20
-196.59999999999889
 11
79.86947142074079
 21
-196.67536071037139
 72
     2
 10
80.20096189432353
 20
-197.36674682452619
 40
0.76674682452699
 50
115.61575253211333
 51
124.38424746799703
 73
     1
 72
     1
 10
79.76794919243180
 20
-196.73397459621444
 11
79.76794919243179
 21
-198.06602540378381
 72
     2
 10
80.20096189432353
 20
-197.43325317547209
 40
0.76674682452699
 50
235.61575253200181
 51
244.38424746789872
 73
     1
 72
     1
 10
79.86947142074095
 20
-198.12463928962697
 11
80.00000000000010
 21
-198.19999999999939
 72
     1
 10
80.00000000000010
 20
-198.19999999999939
 11
79.64999999999992
 21
-198.19999999999939
 72
     1
 10
79.64999999999992
 20
-198.19999999999939
 11
79.64999999999992
 21
-198.49999999999960
 72
     1
 10
79.64999999999992
 20
-198.49999999999960
 11
74.49999999999993
 21
-198.49999999999960
 72
     1
 10
74.49999999999993
 20
-198.49999999999960
 11
74.49999999999993
 21
-199.99999999999997
 72
     1
 10
74.49999999999993
 20
-199.99999999999997
 11
58.99999999999969
 21
-199.99999999999997
 72
     1
 10
58.99999999999969
 20
-199.99999999999997
 11
58.99999999999969
 21
-179.99999999999983
 72
     1
 10
58.99999999999969
 20
-179.99999999999983
 11
80.49999999999989
 21
-179.99999999999977
 97
        0
 75
     0
 76
     0
 52
44.99999999999991
 41
1.00000000000000
 77
     0
 78
     2
 53
44.99999999999991
 43
-266.89685872569345
 44
1125.26543039629880
 45
-5.65685424949237
 46
5.65685424949239
 79
     0
 53
44.99999999999991
 43
-269.72528585043966
 44
1128.09385752104500
 45
-5.65685424949237
 46
5.65685424949239
 79
     2
 49
6.67000000000000
 49
-3.33000000000000
 98
        1
 10
0.00000000000000
 20
0.00000000000000
  0
HATCH
  5
1B6
330
2F
100
AcDbEntity
  8
# Zeichnungen 10
 62
    30
100
AcDbHatch
 10
0.00000000000000
 20
0.00000000000000
 30
0.00000000000000
210
0.00000000000000
220
0.00000000000000
230
1.00000000000000
  2
SOLID
 70
     1
 71
     0
 91
        1
 92
        0
 93
       12
 72
     1
 10
110.99999999999982
 20
-130.00000000000006
 11
110.99999999999976
 21
-146.00000000000028
 72
     1
 10
110.99999999999976
 20
-146.00000000000028
 11
82.49999999999987
 21
-153.63655198428725
 72
     1
 10
82.49999999999987
 20
-153.63655198428725
 11
82.49999999999983
 21
-147.73205080756824
 72
     1
 10
82.49999999999983
 20
-147.73205080756824
 11
83.00000000000104
 21
-147.73205080756821
 72
     1
 10
83.00000000000104
 20
-147.73205080756821
 11
83.13052857926041
 21
-147.65669009719571
 72
     2
 10
82.79903810567768
 20
-146.96530398304088
 40
0.76674682452699
 50
295.61575253211333
 51
304.38424746799615
 73
     1
 72
     1
 10
83.23205080756941
 20
-147.59807621135266
 11
83.23205080756939
 21
-141.86602540378377
 72
     2
 10
82.79903810567768
 20
-142.49879763209552
 40
0.76674682452699
 50
55.61575253200500
 51
64.38424746788665
 73
     1
 72
     1
 10
83.13052857926041
 20
-141.80741151794072
 11
83.00000000000104
 21
-141.73205080756821
 72
     1
 10
83.00000000000104
 20
-141.73205080756821
 11
82.49999999999980
 21
-141.73205080756821
 72
     1
 10
82.49999999999980
 20
-141.73205080756821
 11
82.49999999999974
 21
-130.00000000000006
 72
     1
 10
82.49999999999974
 20
-130.00000000000006
 11
110.99999999999982
 21
-130.00000000000006
 97
        0
 75
     0
 76
     0
 98
        1
 10
0.00000000000000
 20
0.00000000000000
  0
HATCH
  5
1B7
330
2F
100
AcDbEntity
  8
# Zeichnungen 10
 62
     7
370
    18
100
AcDbHatch
 10
0.00000000000000
 20
0.00000000000000
 30
0.00000000000000
210
0.00000000000000
220
0.00000000000000
230
1.00000000000000
  2
SCHRAFFUR
 70
     0
 71
     0
 91
        1
 92
        0
 93
       12
 72
     1
 10
110.99999999999982
 20
-130.00000000000006
 11
110.99999999999976
 21
-146.00000000000028
 72
     1
 10
110.99999999999976
 20
-146.00000000000028
 11
82.49999999999987
 21
-153.63655198428725
 72
     1
 10
82.49999999999987
 20
-153.63655198428725
 11
82.49999999999983
 21
-147.73205080756824
 72
     1
 10
82.49999999999983
 20
-147.73205080756824
 11
83.00000000000104
 21
-147.73205080756821
 72
     1
 10
83.00000000000104
 20
-147.73205080756821
 11
83.13052857926041
 21
-147.65669009719571
 72
     2
 10
82.79903810567768
 20
-146.96530398304088
 40
0.76674682452699
 50
295.61575253211333
 51
304.38424746799615
 73
     1
 72
     1
 10
83.23205080756941
 20
-147.59807621135266
 11
83.23205080756939
 21
-141.86602540378377
 72
     2
 10
82.79903810567768
 20
-142.49879763209552
 40
0.76674682452699
 50
55.61575253200500
 51
64.38424746788665
 73
     1
 72
     1
 10
83.13052857926041
 20
-141.80741151794072
 11
83.00000000000104
 21
-141.73205080756821
 72
     1
 10
83.00000000000104
 20
-141.73205080756821
 11
82.49999999999980
 21
-141.73205080756821
 72
     1
 10
82.49999999999980
 20
-141.73205080756821
 11
82.49999999999974
 21
-130.00000000000006
 72
     1
 10
82.49999999999974
 20
-130.00000000000006
 11
110.99999999999982
 21
-130.00000000000006
 97
        0
 75
     0
 76
     0
 52
135.00000000000017
 41
1.00000000000000
 77
     0
 78
     1
 53
135.00000000000017
 43
-397.99999999999989
 44
469.99999999999994
 45
-2.82842712474618
 46
-2.82842712474620
 79
     0
 98
        1
 10
0.00000000000000
 20
0.00000000000000
  0
HATCH
  5
1B8
330
2F
100
AcDbEntity
  8
# Zeichnungen 10
 62
    30
100
AcDbHatch
 10
0.00000000000000
 20
0.00000000000000
 30
0.00000000000000
210
0.00000000000000
220
0.00000000000000
230
1.00000000000000
  2
SOLID
 70
     1
 71
     0
 91
        1
 92
        0
 93
       12
 72
     1
 10
79.76794919243254
 20
-141.86602540378374
 11
79.76794919243255
 21
-147.59807621135266
 72
     2
 10
80.20096189432429
 20
-146.96530398304088
 40
0.76674682452699
 50
235.61575253200297
 51
244.38424746788758
 73
     1
 72
     1
 10
79.86947142074158
 20
-147.65669009719574
 11
80.00000000000092
 21
-147.73205080756821
 72
     1
 10
80.00000000000092
 20
-147.73205080756821
 11
80.49999999999987
 21
-147.73205080756821
 72
     1
 10
80.49999999999987
 20
-147.73205080756821
 11
80.49999999999997
 21
-154.17245036914952
 72
     1
 10
80.49999999999997
 20
-154.17245036914952
 11
74.49999999999979
 21
-155.78014552373622
 72
     1
 10
74.49999999999979
 20
-155.78014552373622
 11
74.49999999999974
 21
-130.00000000000006
 72
     1
 10
74.49999999999974
 20
-130.00000000000006
 11
80.49999999999972
 21
-130.00000000000006
 72
     1
 10
80.49999999999972
 20
-130.00000000000006
 11
80.49999999999983
 21
-141.73205080756821
 72
     1
 10
80.49999999999983
 20
-141.73205080756821
 11
80.00000000000092
 21
-141.73205080756821
 72
     1
 10
80.00000000000092
 20
-141.73205080756821
 11
79.86947142074158
 21
-141.80741151794072
 72
     2
 10
80.20096189432429
 20
-142.49879763209552
 40
0.76674682452699
 50
115.61575253211336
 51
124.38424746799586
 73
     1
 97
        0
 75
     0
 76
     0
 98
        1
 10
0.00000000000000
 20
0.00000000000000
  0
HATCH
  5
1B9
330
2F
100
AcDbEntity
  8
# Zeichnungen 10
 62
     7
370
    18
100
AcDbHatch
 10
0.00000000000000
 20
0.00000000000000
 30
0.00000000000000
210
0.00000000000000
220
0.00000000000000
230
1.00000000000000
  2
SCHRAFFUR
 70
     0
 71
     0
 91
        1
 92
        0
 93
       12
 72
     1
 10
79.76794919243254
 20
-141.86602540378374
 11
79.76794919243255
 21
-147.59807621135266
 72
     2
 10
80.20096189432429
 20
-146.96530398304088
 40
0.76674682452699
 50
235.61575253200297
 51
244.38424746788758
 73
     1
 72
     1
 10
79.86947142074158
 20
-147.65669009719574
 11
80.00000000000092
 21
-147.73205080756821
 72
     1
 10
80.00000000000092
 20
-147.73205080756821
 11
80.49999999999987
 21
-147.73205080756821
 72
     1
 10
80.49999999999987
 20
-147.73205080756821
 11
80.49999999999997
 21
-154.17245036914952
 72
     1
 10
80.49999999999997
 20
-154.17245036914952
 11
74.49999999999979
 21
-155.78014552373622
 72
     1
 10
74.49999999999979
 20
-155.78014552373622
 11
74.49999999999974
 21
-130.00000000000006
 72
     1
 10
74.49999999999974
 20
-130.00000000000006
 11
80.49999999999972
 21
-130.00000000000006
 72
     1
 10
80.49999999999972
 20
-130.00000000000006
 11
80.49999999999983
 21
-141.73205080756821
 72
     1
 10
80.49999999999983
 20
-141.73205080756821
 11
80.00000000000092
 21
-141.73205080756821
 72
     1
 10
80.00000000000092
 20
-141.73205080756821
 11
79.86947142074158
 21
-141.80741151794072
 72
     2
 10
80.20096189432429
 20
-142.49879763209552
 40
0.76674682452699
 50
115.61575253211336
 51
124.38424746799586
 73
     1
 97
        0
 75
     0
 76
     0
 52
135.00000000000017
 41
1.00000000000000
 77
     0
 78
     1
 53
135.00000000000017
 43
-397.99999999999989
 44
469.99999999999994
 45
-2.82842712474618
 46
-2.82842712474620
 79
     0
 98
        1
 10
0.00000000000000
 20
0.00000000000000
  0
SOLID
  5
1BA
330
2F
100
AcDbEntity
  8
# Zeichnungen 10
 62
    30
100
AcDbTrace
 10
80.49999999999989
 20
-158.39230484541341
 30
0.00000000000000
 11
80.49999999999989
 21
-179.99999999999983
 31
0.00000000000000
 12
74.49999999999974
 22
-160.00000000000000
 32
0.00000000000000
 13
74.49999999999976
 23
-179.99999999999986
 33
0.00000000000000
  0
HATCH
  5
1BB
330
2F
100
AcDbEntity
  8
# Zeichnungen 10
 62
     7
370
    18
100
AcDbHatch
 10
0.00000000000000
 20
0.00000000000000
 30
0.00000000000000
210
0.00000000000000
220
0.00000000000000
230
1.00000000000000
  2
SCHRAFFUR
 70
     0
 71
     0
 91
        1
 92
        0
 93
        4
 72
     1
 10
80.49999999999989
 20
-158.39230484541341
 11
80.49999999999989
 21
-179.99999999999983
 72
     1
 10
80.49999999999989
 20
-179.99999999999983
 11
74.49999999999976
 21
-179.99999999999986
 72
     1
 10
74.49999999999976
 20
-179.99999999999986
 11
74.49999999999974
 21
-160.00000000000000
 72
     1
 10
74.49999999999974
 20
-160.00000000000000
 11
80.49999999999989
 21
-158.39230484541341
 97
        0
 75
     0
 76
     0
 52
135.00000000000017
 41
1.00000000000000
 77
     0
 78
     1
 53
135.00000000000017
 43
-397.99999999999989
 44
469.99999999999994
 45
-2.82842712474618
 46
-2.82842712474620
 79
     0
 98
        1
 10
0.00000000000000
 20
0.00000000000000
  0
SOLID
  5
1BC
330
2F
100
AcDbEntity
  8
# Zeichnungen 10
 62
    30
100
AcDbTrace
 10
110.99999999999976
 20
-150.21985447626432
 30
0.00000000000000
 11
110.99999999999976
 21
-179.99999999999977
 31
0.00000000000000
 12
82.49999999999976
 22
-157.85640646055120
 32
0.00000000000000
 13
82.49999999999984
 23
-179.99999999999977
 33
0.00000000000000
  0
HATCH
  5
1BD
330
2F
100
AcDbEntity
  8
# Zeichnungen 10
 62
     7
370
    18
100
AcDbHatch
 10
0.00000000000000
 20
0.00000000000000
 30
0.00000000000000
210
0.00000000000000
220
0.00000000000000
230
1.00000000000000
  2
SCHRAFFUR
 70
     0
 71
     0
 91
        1
 92
        0
 93
        4
 72
     1
 10
110.99999999999976
 20
-150.21985447626432
 11
110.99999999999976
 21
-179.99999999999977
 72
     1
 10
110.99999999999976
 20
-179.99999999999977
 11
82.49999999999984
 21
-179.99999999999977
 72
     1
 10
82.49999999999984
 20
-179.99999999999977
 11
82.49999999999976
 21
-157.85640646055120
 72
     1
 10
82.49999999999976
 20
-157.85640646055120
 11
110.99999999999976
 21
-150.21985447626432
 97
        0
 75
     0
 76
     0
 52
135.00000000000017
 41
1.00000000000000
 77
     0
 78
     1
 53
135.00000000000017
 43
-397.99999999999989
 44
469.99999999999994
 45
-2.82842712474618
 46
-2.82842712474620
 79
     0
 98
        1
 10
0.00000000000000
 20
0.00000000000000
  0
HATCH
  5
1BE
330
2F
100
AcDbEntity
  8
# Zeichnungen 10
 62
     7
370
    18
100
AcDbHatch
 10
0.00000000000000
 20
0.00000000000000
 30
0.00000000000000
210
0.00000000000000
220
0.00000000000000
230
1.00000000000000
  2
SCHRAFFUR
 70
     0
 71
     0
 91
        1
 92
        0
 93
        4
 72
     1
 10
98.99999999999984
 20
-109.99999999999999
 11
98.99999999999974
 21
-130.00000000000006
 72
     1
 10
98.99999999999974
 20
-130.00000000000006
 11
82.99999999999997
 21
-130.00000000000003
 72
     1
 10
82.99999999999997
 20
-130.00000000000003
 11
82.99999999999996
 21
-109.99999999999999
 72
     1
 10
82.99999999999996
 20
-109.99999999999999
 11
98.99999999999984
 21
-109.99999999999999
 97
        0
 75
     0
 76
     0
 52
44.99999999999991
 41
1.00000000000000
 77
     0
 78
     2
 53
44.99999999999991
 43
-266.89685872569345
 44
1125.26543039629880
 45
-5.65685424949237
 46
5.65685424949239
 79
     0
 53
44.99999999999991
 43
-269.72528585043966
 44
1128.09385752104500
 45
-5.65685424949237
 46
5.65685424949239
 79
     2
 49
6.67000000000000
 49
-3.33000000000000
 98
        1
 10
0.00000000000000
 20
0.00000000000000
  0
HATCH
  5
1BF
330
2F
100
AcDbEntity
  8
# Zeichnungen 10
 62
     7
370
    18
100
AcDbHatch
 10
0.00000000000000
 20
0.00000000000000
 30
0.00000000000000
210
0.00000000000000
220
0.00000000000000
230
1.00000000000000
  2
SCHRAFFUR
 70
     0
 71
     0
 91
        1
 92
        0
 93
        4
 72
     1
 10
79.99999999999996
 20
-109.99999999999999
 11
79.99999999999996
 21
-130.00000000000003
 72
     1
 10
79.99999999999996
 20
-130.00000000000003
 11
58.99999999999971
 21
-130.00000000000003
 72
     1
 10
58.99999999999971
 20
-130.00000000000003
 11
58.99999999999972
 21
-109.99999999999999
 72
     1
 10
58.99999999999972
 20
-109.99999999999999
 11
79.99999999999996
 21
-109.99999999999999
 97
        0
 75
     0
 76
     0
 52
44.99999999999991
 41
1.00000000000000
 77
     0
 78
     2
 53
44.99999999999991
 43
-266.89685872569345
 44
1125.26543039629880
 45
-5.65685424949237
 46
5.65685424949239
 79
     0
 53
44.99999999999991
 43
-269.72528585043966
 44
1128.09385752104500
 45
-5.65685424949237
 46
5.65685424949239
 79
     2
 49
6.67000000000000
 49
-3.33000000000000
 98
        1
 10
0.00000000000000
 20
0.00000000000000
  0
HATCH
  5
1C0
330
2F
100
AcDbEntity
  8
# Zeichnungen 10
 62
     7
100
AcDbHatch
 10
0.00000000000000
 20
0.00000000000000
 30
0.00000000000000
210
0.00000000000000
220
0.00000000000000
230
1.00000000000000
  2
SOLID
 70
     1
 71
     0
 91
        2
 92
        0
 93
        4
 72
     1
 10
88.49999999999990
 20
-256.50000000000051
 11
88.49999999999990
 21
-263.49999999999977
 72
     1
 10
88.49999999999990
 20
-263.49999999999977
 11
74.49999999999989
 21
-263.49999999999977
 72
     1
 10
74.49999999999989
 20
-263.49999999999977
 11
74.49999999999989
 21
-256.50000000000051
 72
     1
 10
74.49999999999989
 20
-256.50000000000051
 11
88.49999999999990
 21
-256.50000000000051
 97
        0
 92
       16
 93
        2
 72
     1
 10
82.50000000000034
 20
-256.50000000000011
 11
80.49999999999935
 21
-256.50000000000011
 72
     2
 10
81.49999999999982
 20
-256.50000000000011
 40
1.00000000000051
 50
180.00000000000000
 51
359.99999999998983
 73
     1
 97
        0
 75
     0
 76
     0
 98
        1
 10
0.00000000000000
 20
0.00000000000000
  0
HATCH
  5
1C1
330
2F
100
AcDbEntity
  8
# Zeichnungen 10
 62
     7
100
AcDbHatch
 10
0.00000000000000
 20
0.00000000000000
 30
0.00000000000000
210
0.00000000000000
220
0.00000000000000
230
1.00000000000000
  2
SOLID
 70
     1
 71
     0
 91
        2
 92
        0
 93
        4
 72
     1
 10
74.49999999999989
 20
-256.50000000000011
 11
74.49999999999989
 21
-249.50000000000003
 72
     1
 10
74.49999999999989
 20
-249.50000000000003
 11
88.49999999999990
 21
-249.50000000000003
 72
     1
 10
88.49999999999990
 20
-249.50000000000003
 11
88.49999999999990
 21
-256.50000000000051
 72
     1
 10
88.49999999999990
 20
-256.50000000000051
 11
74.49999999999989
 21
-256.50000000000011
 97
        0
 92
       16
 93
        2
 72
     1
 10
82.50000000000034
 20
-256.50000000000011
 11
80.49999999999935
 21
-256.50000000000034
 72
     2
 10
81.49999999999982
 20
-256.50000000000011
 40
1.00000000000051
 50
179.99999999998983
 51
360.00000000001017
 73
     0
 97
        0
 75
     0
 76
     0
 98
        1
 10
0.00000000000000
 20
0.00000000000000
  0
HATCH
  5
1C2
330
2F
100
AcDbEntity
  8
# Zeichnungen 10
 62
   254
100
AcDbHatch
 10
0.00000000000000
 20
0.00000000000000
 30
0.00000000000000
210
0.00000000000000
220
0.00000000000000
230
1.00000000000000
  2
SOLID
 70
     1
 71
     0
 91
        1
 92
        0
 93
        6
 72
     1
 10
135.99999999999969
 20
-206.99999999999997
 11
135.99999999999969
 21
-196.59999999999997
 72
     1
 10
135.99999999999969
 20
-196.59999999999997
 11
194.39999999999958
 21
-196.59999999999997
 72
     1
 10
194.39999999999958
 20
-196.59999999999997
 11
194.39999999999958
 21
-255.00000000000034
 72
     1
 10
194.39999999999958
 20
-255.00000000000034
 11
183.99999999999963
 21
-255.00000000000034
 72
     1
 10
183.99999999999963
 20
-255.00000000000034
 11
183.99999999999963
 21
-206.99999999999997
 72
     1
 10
183.99999999999963
 20
-206.99999999999997
 11
135.99999999999969
 21
-206.99999999999997
 97
        0
 75
     0
 76
     0
 98
        1
 10
0.00000000000000
 20
0.00000000000000
  0
HATCH
  5
1C3
330
2F
100
AcDbEntity
  8
# Zeichnungen 10
 62
    30
100
AcDbHatch
 10
0.00000000000000
 20
0.00000000000000
 30
0.00000000000000
210
0.00000000000000
220
0.00000000000000
230
1.00000000000000
  2
SOLID
 70
     1
 71
     0
 91
        1
 92
        0
 93
        6
 72
     1
 10
195.99999999999972
 20
-194.99999999999986
 11
195.99999999999963
 21
-255.00000000000000
 72
     1
 10
195.99999999999963
 20
-255.00000000000000
 11
194.39999999999947
 21
-255.00000000000000
 72
     1
 10
194.39999999999947
 20
-255.00000000000000
 11
194.39999999999966
 21
-196.59999999999997
 72
     1
 10
194.39999999999966
 20
-196.59999999999997
 11
135.99999999999969
 21
-196.59999999999997
 72
     1
 10
135.99999999999969
 20
-196.59999999999997
 11
135.99999999999969
 21
-194.99999999999986
 72
     1
 10
135.99999999999969
 20
-194.99999999999986
 11
195.99999999999972
 21
-194.99999999999986
 97
        0
 75
     0
 76
     0
 98
        1
 10
0.00000000000000
 20
0.00000000000000
  0
HATCH
  5
1C4
330
2F
100
AcDbEntity
  8
# Zeichnungen 10
 62
     7
370
    18
100
AcDbHatch
 10
0.00000000000000
 20
0.00000000000000
 30
0.00000000000000
210
0.00000000000000
220
0.00000000000000
230
1.00000000000000
  2
SCHRAFFUR
 70
     0
 71
     0
 91
        1
 92
        0
 93
        6
 72
     1
 10
195.99999999999972
 20
-194.99999999999986
 11
195.99999999999963
 21
-255.00000000000000
 72
     1
 10
195.99999999999963
 20
-255.00000000000000
 11
194.39999999999947
 21
-255.00000000000000
 72
     1
 10
194.39999999999947
 20
-255.00000000000000
 11
194.39999999999966
 21
-196.59999999999997
 72
     1
 10
194.39999999999966
 20
-196.59999999999997
 11
135.99999999999969
 21
-196.59999999999997
 72
     1
 10
135.99999999999969
 20
-196.59999999999997
 11
135.99999999999969
 21
-194.99999999999986
 72
     1
 10
135.99999999999969
 20
-194.99999999999986
 11
195.99999999999972
 21
-194.99999999999986
 97
        0
 75
     0
 76
     0
 52
135.00000000000017
 41
1.00000000000000
 77
     0
 78
     1
 53
135.00000000000017
 43
-328.00000000000017
 44
1243.59999999999990
 45
-0.70710678118655
 46
-0.70710678118655
 79
     0
 98
        1
 10
0.00000000000000
 20
0.00000000000000
  0
SOLID
  5
1C5
330
2F
100
AcDbEntity
  8
# Zeichnungen 10
 62
    30
100
AcDbTrace
 10
110.99999999999976
 20
-179.99999999999974
 30
0.00000000000000
 11
110.99999999999986
 21
-199.99999999999994
 31
0.00000000000000
 12
109.39999999999978
 22
-179.99999999999974
 32
0.00000000000000
 13
109.39999999999989
 23
-199.99999999999994
 33
0.00000000000000
  0
HATCH
  5
1C6
330
2F
100
AcDbEntity
  8
# Zeichnungen 10
 62
     7
370
    18
100
AcDbHatch
 10
0.00000000000000
 20
0.00000000000000
 30
0.00000000000000
210
0.00000000000000
220
0.00000000000000
230
1.00000000000000
  2
SCHRAFFUR
 70
     0
 71
     0
 91
        1
 92
        0
 93
        4
 72
     1
 10
110.99999999999976
 20
-179.99999999999974
 11
110.99999999999986
 21
-199.99999999999994
 72
     1
 10
110.99999999999986
 20
-199.99999999999994
 11
109.39999999999989
 21
-199.99999999999994
 72
     1
 10
109.39999999999989
 20
-199.99999999999994
 11
109.39999999999978
 21
-179.99999999999974
 72
     1
 10
109.39999999999978
 20
-179.99999999999974
 11
110.99999999999976
 21
-179.99999999999974
 97
        0
 75
     0
 76
     0
 52
135.00000000000011
 41
1.00000000000000
 77
     0
 78
     1
 53
135.00000000000011
 43
-334.00000000000011
 44
1223.59999999999990
 45
-0.70710678118655
 46
-0.70710678118655
 79
     0
 98
        1
 10
0.00000000000000
 20
0.00000000000000
  0
SOLID
  5
1C7
330
2F
100
AcDbEntity
  8
# Zeichnungen 10
 62
    30
100
AcDbTrace
 10
110.99999999999994
 20
-109.99999999999999
 30
0.00000000000000
 11
110.99999999999986
 21
-130.00000000000009
 31
0.00000000000000
 12
109.39999999999932
 22
-109.99999999999999
 32
0.00000000000000
 13
109.39999999999941
 23
-130.00000000000009
 33
0.00000000000000
  0
HATCH
  5
1C8
330
2F
100
AcDbEntity
  8
# Zeichnungen 10
 62
     7
370
    18
100
AcDbHatch
 10
0.00000000000000
 20
0.00000000000000
 30
0.00000000000000
210
0.00000000000000
220
0.00000000000000
230
1.00000000000000
  2
SCHRAFFUR
 70
     0
 71
     0
 91
        1
 92
        0
 93
        4
 72
     1
 10
110.99999999999994
 20
-109.99999999999999
 11
110.99999999999986
 21
-130.00000000000009
 72
     1
 10
110.99999999999986
 20
-130.00000000000009
 11
109.39999999999941
 21
-130.00000000000009
 72
     1
 10
109.39999999999941
 20
-130.00000000000009
 11
109.39999999999932
 21
-109.99999999999999
 72
     1
 10
109.39999999999932
 20
-109.99999999999999
 11
110.99999999999994
 21
-109.99999999999999
 97
        0
 75
     0
 76
     0
 52
135.00000000000011
 41
1.00000000000000
 77
     0
 78
     1
 53
135.00000000000011
 43
-334.00000000000011
 44
1223.59999999999990
 45
-0.70710678118655
 46
-0.70710678118655
 79
     0
 98
        1
 10
0.00000000000000
 20
0.00000000000000
  0
SOLID
  5
1C9
330
2F
100
AcDbEntity
  8
# Zeichnungen 10
 62
   254
100
AcDbTrace
 10
109.39999999999915
 20
-179.99999999999994
 30
0.00000000000000
 11
109.39999999999932
 21
-199.99999999999974
 31
0.00000000000000
 12
98.99999999999984
 22
-179.99999999999983
 32
0.00000000000000
 13
98.99999999999976
 23
-199.99999999999974
 33
0.00000000000000
  0
SOLID
  5
1CA
330
2F
100
AcDbEntity
  8
# Zeichnungen 10
 62
   254
100
AcDbTrace
 10
109.39999999999932
 20
-109.99999999999999
 30
0.00000000000000
 11
109.39999999999915
 21
-130.00000000000009
 31
0.00000000000000
 12
98.99999999999984
 22
-110.00000000000009
 32
0.00000000000000
 13
98.99999999999967
 23
-130.00000000000000
 33
0.00000000000000
  0
SOLID
  5
1CB
330
2F
100
AcDbEntity
  8
# Zeichnungen 10
 62
    30
100
AcDbTrace
 10
110.99999999999994
 20
-216.00000000000011
 30
0.00000000000000
 11
110.99999999999994
 21
-199.99999999999994
 31
0.00000000000000
 12
74.49999999999989
 22
-216.00000000000045
 32
0.00000000000000
 13
74.49999999999989
 23
-199.99999999999994
 33
0.00000000000000
  0
HATCH
  5
1CC
330
2F
100
AcDbEntity
  8
# Zeichnungen 10
 62
     7
370
    18
100
AcDbHatch
 10
0.00000000000000
 20
0.00000000000000
 30
0.00000000000000
210
0.00000000000000
220
0.00000000000000
230
1.00000000000000
  2
SCHRAFFUR
 70
     0
 71
     0
 91
        1
 92
        0
 93
        4
 72
     1
 10
110.99999999999994
 20
-216.00000000000011
 11
110.99999999999994
 21
-199.99999999999994
 72
     1
 10
110.99999999999994
 20
-199.99999999999994
 11
74.49999999999989
 21
-199.99999999999994
 72
     1
 10
74.49999999999989
 20
-199.99999999999994
 11
74.49999999999989
 21
-216.00000000000045
 72
     1
 10
74.49999999999989
 20
-216.00000000000045
 11
110.99999999999994
 21
-216.00000000000011
 97
        0
 75
     0
 76
     0
 52
135.00000000000017
 41
1.00000000000000
 77
     0
 78
     1
 53
135.00000000000017
 43
-397.99999999999989
 44
469.99999999999994
 45
-2.82842712474618
 46
-2.82842712474620
 79
     0
 98
        1
 10
0.00000000000000
 20
0.00000000000000
  0
MTEXT
  5
1CD
330
2F
100
AcDbEntity
  8
Planrahmen
 62
     7
370
    50
100
AcDbMText
 10
24.99999999999996
 20
-10.00000000000001
 30
0.00000000000000
 40
5.00000000000000
 41
0.00000000000000
 71
     1
 72
     1
  1
\fArial|b0|i0;Detail ST-02.2\P\H0.7x;Eckzuganker in Außenwand als Gewindestange
 11
1.00000000000000
 21
0.00000000000000
 31
0.00000000000000
 73
     1
 44
1.00000000000000
  0
LINE
  5
1CE
330
2F
100
AcDbEntity
  8
# Zeichnungen 10
  6
CONTINUOUS
 62
     7
370
    35
100
AcDbLine
 10
135.99999999999969
 20
-194.99999999999977
 30
0.00000000000000
 11
195.99999999999972
 21
-194.99999999999986
 31
0.00000000000000
  0
LINE
  5
1CF
330
2F
100
AcDbEntity
  8
# Zeichnungen 10
  6
CONTINUOUS
 62
     7
370
    35
100
AcDbLine
 10
195.99999999999972
 20
-194.99999999999986
 30
0.00000000000000
 11
195.99999999999963
 21
-255.00000000000000
 31
0.00000000000000
  0
LINE
  5
1D0
330
2F
100
AcDbEntity
  8
# Zeichnungen 10
  6
DC_VERDECKT
 62
     7
 48
0.28571428571429
370
    18
100
AcDbLine
 10
159.49999999999980
 20
-231.49999999999994
 30
0.00000000000000
 11
159.49999999999980
 21
-255.00000000000000
 31
0.00000000000000
  0
LINE
  5
1D1
330
2F
100
AcDbEntity
  8
# Zeichnungen 10
  6
DC_VERDECKT
 62
     7
 48
0.28571428571429
370
    18
100
AcDbLine
 10
135.99999999999969
 20
-231.49999999999994
 30
0.00000000000000
 11
159.49999999999972
 21
-231.49999999999994
 31
0.00000000000000
  0
LINE
  5
1D2
330
2F
100
AcDbEntity
  8
# Zeichnungen 10
  6
CONTINUOUS
 62
     7
370
    35
100
AcDbLine
 10
183.99999999999955
 20
-207.00000000000020
 30
0.00000000000000
 11
183.99999999999963
 21
-255.00000000000000
 31
0.00000000000000
  0
LINE
  5
1D3
330
2F
100
AcDbEntity
  8
# Zeichnungen 10
  6
CONTINUOUS
 62
     7
370
    35
100
AcDbLine
 10
135.99999999999969
 20
-206.99999999999997
 30
0.00000000000000
 11
183.99999999999963
 21
-206.99999999999997
 31
0.00000000000000
  0
LWPOLYLINE
  5
1D4
330
2F
100
AcDbEntity
  8
# Zeichnungen 10
  6
CONTINUOUS
 62
     7
370
    25
100
AcDbPolyline
 90
        4
 70
   129
 10
159.49999999999980
 20
-231.49999999999994
 10
173.49999999999977
 20
-231.49999999999994
 10
173.49999999999977
 20
-217.50000000000000
 10
159.49999999999980
 20
-217.50000000000000
  0
LINE
  5
1D5
330
2F
100
AcDbEntity
  8
# Zeichnungen 10
  6
CONTINUOUS
 62
     7
370
    35
100
AcDbLine
 10
33.99999999999999
 20
-109.99999999999999
 30
0.00000000000000
 11
110.99999999999994
 21
-109.99999999999999
 31
0.00000000000000
  0
LINE
  5
1D6
330
2F
100
AcDbEntity
  8
# Zeichnungen 10
  6
CONTINUOUS
 62
     7
370
    35
100
AcDbLine
 10
33.99999999999999
 20
-130.00000000000000
 30
0.00000000000000
 11
110.99999999999994
 21
-130.00000000000009
 31
0.00000000000000
  0
LINE
  5
1D7
330
2F
100
AcDbEntity
  8
# Zeichnungen 10
  6
CONTINUOUS
 62
     7
370
    35
100
AcDbLine
 10
98.99999999999976
 20
-130.00000000000000
 30
0.00000000000000
 11
98.99999999999984
 21
-109.99999999999999
 31
0.00000000000000
  0
LINE
  5
1D8
330
2F
100
AcDbEntity
  8
# Zeichnungen 10
  6
CONTINUOUS
 62
     7
370
    35
100
AcDbLine
 10
110.99999999999976
 20
-146.00000000000028
 30
0.00000000000000
 11
110.99999999999994
 21
-109.99999999999999
 31
0.00000000000000
  0
LINE
  5
1D9
330
2F
100
AcDbEntity
  8
# Zeichnungen 10
  6
CONTINUOUS
 62
     7
370
    35
100
AcDbLine
 10
74.49999999999974
 20
-129.99999999999974
 30
0.00000000000000
 11
74.49999999999979
 21
-155.78014552373631
 31
0.00000000000000
  0
LINE
  5
1DA
330
2F
100
AcDbEntity
  8
# Zeichnungen 10
  6
CONTINUOUS
 62
     7
370
    13
100
AcDbLine
 10
80.49999999999989
 20
-109.99999999999990
 30
0.00000000000000
 11
80.49999999999976
 21
-130.00000000000000
 31
0.00000000000000
  0
LINE
  5
1DB
330
2F
100
AcDbEntity
  8
# Zeichnungen 10
  6
CONTINUOUS
 62
     7
370
    13
100
AcDbLine
 10
80.49999999999997
 20
-154.17245036914960
 30
0.00000000000000
 11
80.49999999999986
 21
-145.23205080756776
 31
0.00000000000000
  0
LINE
  5
1DC
330
2F
100
AcDbEntity
  8
# Zeichnungen 10
  6
CONTINUOUS
 62
     7
370
    13
100
AcDbLine
 10
80.49999999999986
 20
-144.16794919243222
 30
0.00000000000000
 11
80.49999999999972
 21
-130.00000000000000
 31
0.00000000000000
  0
LINE
  5
1DD
330
2F
100
AcDbEntity
  8
# Zeichnungen 10
  6
DC_MITTELLINIE
 62
     7
370
    13
100
AcDbLine
 10
81.49999999999996
 20
-103.00000000000004
 30
0.00000000000000
 11
81.49999999999996
 21
-153.90450117671847
 31
0.00000000000000
  0
LINE
  5
1DE
330
2F
100
AcDbEntity
  8
# Zeichnungen 10
  6
CONTINUOUS
 62
     7
370
    13
100
AcDbLine
 10
82.49999999999984
 20
-109.99999999999990
 30
0.00000000000000
 11
82.49999999999974
 21
-130.00000000000003
 31
0.00000000000000
  0
LINE
  5
1DF
330
2F
100
AcDbEntity
  8
# Zeichnungen 10
  6
CONTINUOUS
 62
     7
370
    13
100
AcDbLine
 10
82.49999999999989
 20
-153.63655198428739
 30
0.00000000000000
 11
82.49999999999982
 21
-145.23205080756713
 31
0.00000000000000
  0
LINE
  5
1E0
330
2F
100
AcDbEntity
  8
# Zeichnungen 10
  6
CONTINUOUS
 62
     7
370
    13
100
AcDbLine
 10
82.49999999999982
 20
-144.16794919243222
 30
0.00000000000000
 11
82.49999999999976
 21
-130.00000000000000
 31
0.00000000000000
  0
LWPOLYLINE
  5
1E1
330
2F
100
AcDbEntity
  8
# Zeichnungen 10
  6
CONTINUOUS
 62
     7
370
    25
100
AcDbPolyline
 90
        4
 70
   129
 10
74.49999999999974
 20
-109.99999999999982
 10
88.49999999999972
 20
-109.99999999999982
 10
88.49999999999972
 20
-108.50000000000011
 10
74.49999999999974
 20
-108.50000000000011
  0
LINE
  5
1E2
330
2F
100
AcDbEntity
  8
# Zeichnungen 10
  6
CONTINUOUS
 62
     7
370
    35
100
AcDbLine
 10
110.99999999999994
 20
-199.99999999999994
 30
0.00000000000000
 11
33.99999999999986
 21
-199.99999999999994
 31
0.00000000000000
  0
LINE
  5
1E3
330
2F
100
AcDbEntity
  8
# Zeichnungen 10
  6
CONTINUOUS
 62
     7
370
    35
100
AcDbLine
 10
110.99999999999994
 20
-179.99999999999974
 30
0.00000000000000
 11
33.99999999999981
 21
-179.99999999999994
 31
0.00000000000000
  0
LINE
  5
1E4
330
2F
100
AcDbEntity
  8
# Zeichnungen 10
  6
CONTINUOUS
 62
     7
370
    35
100
AcDbLine
 10
98.99999999999984
 20
-199.99999999999994
 30
0.00000000000000
 11
98.99999999999976
 21
-179.99999999999983
 31
0.00000000000000
  0
LINE
  5
1E5
330
2F
100
AcDbEntity
  8
# Zeichnungen 10
  6
CONTINUOUS
 62
     7
370
    35
100
AcDbLine
 10
110.99999999999994
 20
-216.00000000000011
 30
0.00000000000000
 11
110.99999999999960
 21
-150.21985447626432
 31
0.00000000000000
  0
LINE
  5
1E6
330
2F
100
AcDbEntity
  8
# Zeichnungen 10
  6
CONTINUOUS
 62
     7
370
    35
100
AcDbLine
 10
74.49999999999974
 20
-160.00000000000000
 30
0.00000000000000
 11
74.49999999999974
 21
-180.00000000000003
 31
0.00000000000000
  0
LINE
  5
1E7
330
2F
100
AcDbEntity
  8
# Zeichnungen 10
  6
CONTINUOUS
 62
     7
370
    35
100
AcDbLine
 10
74.49999999999989
 20
-200.00000000000045
 30
0.00000000000000
 11
74.49999999999989
 21
-216.00000000000045
 31
0.00000000000000
  0
LWPOLYLINE
  5
1E8
330
2F
100
AcDbEntity
  8
# Zeichnungen 10
  6
CONTINUOUS
 62
     7
370
    25
100
AcDbPolyline
 90
        4
 70
   129
 10
74.49999999999993
 20
-200.00000000000000
 10
88.49999999999990
 20
-200.00000000000000
 10
88.49999999999999
 20
-198.49999999999960
 10
74.49999999999993
 20
-198.49999999999960
  0
LINE
  5
1E9
330
2F
100
AcDbEntity
  8
# Zeichnungen 10
  6
CONTINUOUS
 62
     7
370
    13
100
AcDbLine
 10
80.49999999999989
 20
-158.39230484541321
 30
0.00000000000000
 11
80.49999999999989
 21
-179.99999999999980
 31
0.00000000000000
  0
LINE
  5
1EA
330
2F
100
AcDbEntity
  8
# Zeichnungen 10
  6
CONTINUOUS
 62
     7
370
    13
100
AcDbLine
 10
80.49999999999989
 20
-179.99999999999994
 30
0.00000000000000
 11
80.49999999999989
 21
-196.59999999999869
 31
0.00000000000000
  0
LINE
  5
1EB
330
2F
100
AcDbEntity
  8
# Zeichnungen 10
  6
DC_MITTELLINIE
 62
     7
370
    13
100
AcDbLine
 10
81.49999999999982
 20
-158.12435565298222
 30
0.00000000000000
 11
81.49999999999986
 21
-202.82857141494742
 31
0.00000000000000
  0
LINE
  5
1EC
330
2F
100
AcDbEntity
  8
# Zeichnungen 10
  6
CONTINUOUS
 62
     7
370
    13
100
AcDbLine
 10
82.49999999999976
 20
-157.85640646055109
 30
0.00000000000000
 11
82.49999999999984
 21
-179.99999999999977
 31
0.00000000000000
  0
LINE
  5
1ED
330
2F
100
AcDbEntity
  8
# Zeichnungen 10
  6
CONTINUOUS
 62
     7
370
    13
100
AcDbLine
 10
82.49999999999984
 20
-179.99999999999994
 30
0.00000000000000
 11
82.49999999999984
 21
-196.59999999999869
 31
0.00000000000000
  0
INSERT
  5
31
330
2F
100
AcDbEntity
  8
# Zeichnungen 10
 62
     7
370
    25
100
AcDbBlockReference
  2
*U1
 10
0.00000000000000
 20
0.00000000000000
 30
0.00000000000000
  0
INSERT
  5
32
330
2F
100
AcDbEntity
  8
# Zeichnungen 10
 62
     7
370
    25
100
AcDbBlockReference
  2
*U2
 10
0.00000000000000
 20
0.00000000000000
 30
0.00000000000000
  0
LINE
  5
1EE
330
2F
100
AcDbEntity
  8
# Zeichnungen 10
  6
CONTINUOUS
 62
     7
370
    13
100
AcDbLine
 10
83.35000000000035
 20
-108.49999999999993
 30
0.00000000000000
 11
79.64999999999974
 21
-108.49999999999993
 31
0.00000000000000
  0
LINE
  5
1EF
330
2F
100
AcDbEntity
  8
# Zeichnungen 10
  6
CONTINUOUS
 62
     7
370
    13
100
AcDbLine
 10
83.35000000000035
 20
-108.49999999999993
 30
0.00000000000000
 11
83.35000000000035
 21
-108.19999999999992
 31
0.00000000000000
  0
LINE
  5
1F0
330
2F
100
AcDbEntity
  8
# Zeichnungen 10
  6
CONTINUOUS
 62
     7
370
    13
100
AcDbLine
 10
79.64999999999974
 20
-108.49999999999993
 30
0.00000000000000
 11
79.64999999999974
 21
-108.19999999999992
 31
0.00000000000000
  0
LINE
  5
1F1
330
2F
100
AcDbEntity
  8
# Zeichnungen 10
  6
CONTINUOUS
 62
     7
370
    13
100
AcDbLine
 10
83.35000000000035
 20
-108.19999999999992
 30
0.00000000000000
 11
79.64999999999974
 21
-108.19999999999992
 31
0.00000000000000
  0
LINE
  5
1F2
330
2F
100
AcDbEntity
  8
# Zeichnungen 10
  6
CONTINUOUS
 62
     7
370
    13
100
AcDbLine
 10
83.23205080756848
 20
-108.06602540378435
 30
0.00000000000000
 11
83.00000000000010
 21
-108.19999999999992
 31
0.00000000000000
  0
LINE
  5
1F3
330
2F
100
AcDbEntity
  8
# Zeichnungen 10
  6
CONTINUOUS
 62
     7
370
    13
100
AcDbLine
 10
79.76794919243160
 20
-108.06602540378435
 30
0.00000000000000
 11
79.99999999999999
 21
-108.19999999999992
 31
0.00000000000000
  0
LINE
  5
1F4
330
2F
100
AcDbEntity
  8
# Zeichnungen 10
  6
CONTINUOUS
 62
     7
370
    13
100
AcDbLine
 10
83.00000000000010
 20
-108.19999999999992
 30
0.00000000000000
 11
79.99999999999999
 21
-108.19999999999992
 31
0.00000000000000
  0
LINE
  5
1F5
330
2F
100
AcDbEntity
  8
# Zeichnungen 10
  6
CONTINUOUS
 62
     7
370
    13
100
AcDbLine
 10
83.23205080756848
 20
-108.06602540378435
 30
0.00000000000000
 11
83.23205080756848
 21
-106.73397459621498
 31
0.00000000000000
  0
LINE
  5
1F6
330
2F
100
AcDbEntity
  8
# Zeichnungen 10
  6
CONTINUOUS
 62
     7
370
    13
100
AcDbLine
 10
82.36602540378497
 20
-108.06602540378435
 30
0.00000000000000
 11
82.36602540378497
 21
-106.73397459621498
 31
0.00000000000000
  0
LINE
  5
1F7
330
2F
100
AcDbEntity
  8
# Zeichnungen 10
  6
CONTINUOUS
 62
     7
370
    13
100
AcDbLine
 10
80.63397459621511
 20
-108.06602540378435
 30
0.00000000000000
 11
80.63397459621511
 21
-106.73397459621498
 31
0.00000000000000
  0
LINE
  5
1F8
330
2F
100
AcDbEntity
  8
# Zeichnungen 10
  6
CONTINUOUS
 62
     7
370
    13
100
AcDbLine
 10
79.76794919243160
 20
-108.06602540378435
 30
0.00000000000000
 11
79.76794919243160
 21
-106.73397459621498
 31
0.00000000000000
  0
LINE
  5
1F9
330
2F
100
AcDbEntity
  8
# Zeichnungen 10
  6
CONTINUOUS
 62
     7
370
    13
100
AcDbLine
 10
83.23205080756848
 20
-106.73397459621498
 30
0.00000000000000
 11
83.00000000000010
 21
-106.59999999999938
 31
0.00000000000000
  0
LINE
  5
1FA
330
2F
100
AcDbEntity
  8
# Zeichnungen 10
  6
CONTINUOUS
 62
     7
370
    13
100
AcDbLine
 10
79.76794919243160
 20
-106.73397459621498
 30
0.00000000000000
 11
79.99999999999999
 21
-106.59999999999938
 31
0.00000000000000
  0
LINE
  5
1FB
330
2F
100
AcDbEntity
  8
# Zeichnungen 10
  6
CONTINUOUS
 62
     7
370
    13
100
AcDbLine
 10
83.00000000000010
 20
-106.59999999999938
 30
0.00000000000000
 11
79.99999999999999
 21
-106.59999999999938
 31
0.00000000000000
  0
LINE
  5
1FC
330
2F
100
AcDbEntity
  8
# Zeichnungen 10
  6
CONTINUOUS
 62
     7
370
    13
100
AcDbLine
 10
82.50000000000055
 20
-106.59999999999938
 30
0.00000000000000
 11
82.50000000000055
 21
-103.87142858505192
 31
0.00000000000000
  0
LINE
  5
1FD
330
2F
100
AcDbEntity
  8
# Zeichnungen 10
  6
CONTINUOUS
 62
     7
370
    13
100
AcDbLine
 10
80.49999999999953
 20
-106.59999999999938
 30
0.00000000000000
 11
80.49999999999953
 21
-103.87142858505192
 31
0.00000000000000
  0
LINE
  5
1FE
330
2F
100
AcDbEntity
  8
# Zeichnungen 10
  6
CONTINUOUS
 62
     7
370
    13
100
AcDbLine
 10
82.50000000000055
 20
-103.87142858505192
 30
0.00000000000000
 11
80.49999999999953
 21
-103.87142858505192
 31
0.00000000000000
  0
LINE
  5
1FF
330
2F
100
AcDbEntity
  8
# Zeichnungen 10
  6
CONTINUOUS
 62
     7
370
    13
100
AcDbLine
 10
82.29999999999960
 20
-103.67142858505238
 30
0.00000000000000
 11
80.70000000000049
 21
-103.67142858505238
 31
0.00000000000000
  0
LINE
  5
200
330
2F
100
AcDbEntity
  8
# Zeichnungen 10
  6
CONTINUOUS
 62
     7
370
    13
100
AcDbLine
 10
82.50000000000055
 20
-103.87142858505192
 30
0.00000000000000
 11
82.29999999999960
 21
-103.67142858505238
 31
0.00000000000000
  0
LINE
  5
201
330
2F
100
AcDbEntity
  8
# Zeichnungen 10
  6
CONTINUOUS
 62
     7
370
    13
100
AcDbLine
 10
80.49999999999953
 20
-103.87142858505192
 30
0.00000000000000
 11
80.70000000000049
 21
-103.67142858505238
 31
0.00000000000000
  0
LINE
  5
202
330
2F
100
AcDbEntity
  8
# Zeichnungen 10
  6
CONTINUOUS
 62
     7
370
    13
100
AcDbLine
 10
82.29999999999960
 20
-106.59999999999938
 30
0.00000000000000
 11
82.29999999999960
 21
-103.67142858505238
 31
0.00000000000000
  0
LINE
  5
203
330
2F
100
AcDbEntity
  8
# Zeichnungen 10
  6
CONTINUOUS
 62
     7
370
    13
100
AcDbLine
 10
80.70000000000049
 20
-106.59999999999938
 30
0.00000000000000
 11
80.70000000000049
 21
-103.67142858505238
 31
0.00000000000000
  0
ARC
  5
204
330
2F
100
AcDbEntity
  8
# Zeichnungen 10
  6
CONTINUOUS
 62
     7
370
    13
100
AcDbCircle
 10
82.79903810567673
 20
-107.43325317547259
 30
0.00000000000000
 40
0.76674682452699
100
AcDbArc
 50
235.61575253200215
 51
304.38424746808482
  0
ARC
  5
205
330
2F
100
AcDbEntity
  8
# Zeichnungen 10
  6
CONTINUOUS
 62
     7
370
    13
100
AcDbCircle
 10
81.50000000000004
 20
-105.33397459621538
 30
0.00000000000000
 40
2.86602540378466
100
AcDbArc
 50
252.41204622599730
 51
287.58795377398485
  0
ARC
  5
206
330
2F
100
AcDbEntity
  8
# Zeichnungen 10
  6
CONTINUOUS
 62
     7
370
    13
100
AcDbCircle
 10
80.20096189432336
 20
-107.43325317547259
 30
0.00000000000000
 40
0.76674682452699
100
AcDbArc
 50
235.61575253200215
 51
304.38424746808585
  0
ARC
  5
207
330
2F
100
AcDbEntity
  8
# Zeichnungen 10
  6
CONTINUOUS
 62
     7
370
    13
100
AcDbCircle
 10
82.79903810567673
 20
-107.36674682452671
 30
0.00000000000000
 40
0.76674682452699
100
AcDbArc
 50
55.61575253200217
 51
124.38424746808482
  0
ARC
  5
208
330
2F
100
AcDbEntity
  8
# Zeichnungen 10
  6
CONTINUOUS
 62
     7
370
    13
100
AcDbCircle
 10
81.50000000000004
 20
-109.46602540378392
 30
0.00000000000000
 40
2.86602540378466
100
AcDbArc
 50
72.41204622599730
 51
107.58795377398485
  0
ARC
  5
209
330
2F
100
AcDbEntity
  8
# Zeichnungen 10
  6
CONTINUOUS
 62
     7
370
    13
100
AcDbCircle
 10
80.20096189432336
 20
-107.36674682452671
 30
0.00000000000000
 40
0.76674682452699
100
AcDbArc
 50
55.61575253200217
 51
124.38424746808587
  0
LINE
  5
20A
330
2F
100
AcDbEntity
  8
# Zeichnungen 10
  6
CONTINUOUS
 62
     7
370
    13
100
AcDbLine
 10
82.29999999999951
 20
-110.00000000000009
 30
0.00000000000000
 11
82.29999999999950
 21
-130.00000000000003
 31
0.00000000000000
  0
LINE
  5
20B
330
2F
100
AcDbEntity
  8
# Zeichnungen 10
  6
CONTINUOUS
 62
     7
370
    13
100
AcDbLine
 10
82.29999999999951
 20
-153.69014182277374
 30
0.00000000000000
 11
82.29999999999950
 21
-145.03205080756823
 31
0.00000000000000
  0
LINE
  5
20C
330
2F
100
AcDbEntity
  8
# Zeichnungen 10
  6
CONTINUOUS
 62
     7
370
    13
100
AcDbLine
 10
82.29999999999950
 20
-144.36794919243181
 30
0.00000000000000
 11
82.29999999999951
 21
-130.00000000000009
 31
0.00000000000000
  0
LINE
  5
20D
330
2F
100
AcDbEntity
  8
# Zeichnungen 10
  6
CONTINUOUS
 62
     7
370
    13
100
AcDbLine
 10
80.70000000000049
 20
-110.00000000000017
 30
0.00000000000000
 11
80.70000000000049
 21
-130.00000000000003
 31
0.00000000000000
  0
LINE
  5
20E
330
2F
100
AcDbEntity
  8
# Zeichnungen 10
  6
CONTINUOUS
 62
     7
370
    13
100
AcDbLine
 10
80.70000000000049
 20
-154.11886053066300
 30
0.00000000000000
 11
80.70000000000049
 21
-145.03205080756820
 31
0.00000000000000
  0
LINE
  5
20F
330
2F
100
AcDbEntity
  8
# Zeichnungen 10
  6
CONTINUOUS
 62
     7
370
    13
100
AcDbLine
 10
80.70000000000049
 20
-144.36794919243181
 30
0.00000000000000
 11
80.70000000000049
 21
-130.00000000000009
 31
0.00000000000000
  0
LINE
  5
210
330
2F
100
AcDbEntity
  8
# Zeichnungen 10
  6
CONTINUOUS
 62
     7
370
    13
100
AcDbLine
 10
83.35000000000053
 20
-198.49999999999943
 30
0.00000000000000
 11
79.64999999999992
 21
-198.49999999999943
 31
0.00000000000000
  0
LINE
  5
211
330
2F
100
AcDbEntity
  8
# Zeichnungen 10
  6
CONTINUOUS
 62
     7
370
    13
100
AcDbLine
 10
83.35000000000053
 20
-198.49999999999943
 30
0.00000000000000
 11
83.35000000000053
 21
-198.19999999999939
 31
0.00000000000000
  0
LINE
  5
212
330
2F
100
AcDbEntity
  8
# Zeichnungen 10
  6
CONTINUOUS
 62
     7
370
    13
100
AcDbLine
 10
79.64999999999992
 20
-198.49999999999943
 30
0.00000000000000
 11
79.64999999999992
 21
-198.19999999999939
 31
0.00000000000000
  0
LINE
  5
213
330
2F
100
AcDbEntity
  8
# Zeichnungen 10
  6
CONTINUOUS
 62
     7
370
    13
100
AcDbLine
 10
83.35000000000053
 20
-198.19999999999939
 30
0.00000000000000
 11
79.64999999999992
 21
-198.19999999999939
 31
0.00000000000000
  0
LINE
  5
214
330
2F
100
AcDbEntity
  8
# Zeichnungen 10
  6
CONTINUOUS
 62
     7
370
    13
100
AcDbLine
 10
83.23205080756867
 20
-198.06602540378381
 30
0.00000000000000
 11
83.00000000000028
 21
-198.19999999999939
 31
0.00000000000000
  0
LINE
  5
215
330
2F
100
AcDbEntity
  8
# Zeichnungen 10
  6
CONTINUOUS
 62
     7
370
    13
100
AcDbLine
 10
79.76794919243179
 20
-198.06602540378381
 30
0.00000000000000
 11
80.00000000000017
 21
-198.19999999999939
 31
0.00000000000000
  0
LINE
  5
216
330
2F
100
AcDbEntity
  8
# Zeichnungen 10
  6
CONTINUOUS
 62
     7
370
    13
100
AcDbLine
 10
83.00000000000028
 20
-198.19999999999939
 30
0.00000000000000
 11
80.00000000000017
 21
-198.19999999999939
 31
0.00000000000000
  0
LINE
  5
217
330
2F
100
AcDbEntity
  8
# Zeichnungen 10
  6
CONTINUOUS
 62
     7
370
    13
100
AcDbLine
 10
83.23205080756867
 20
-198.06602540378381
 30
0.00000000000000
 11
83.23205080756867
 21
-196.73397459621444
 31
0.00000000000000
  0
LINE
  5
218
330
2F
100
AcDbEntity
  8
# Zeichnungen 10
  6
CONTINUOUS
 62
     7
370
    13
100
AcDbLine
 10
82.36602540378516
 20
-198.06602540378381
 30
0.00000000000000
 11
82.36602540378516
 21
-196.73397459621444
 31
0.00000000000000
  0
LINE
  5
219
330
2F
100
AcDbEntity
  8
# Zeichnungen 10
  6
CONTINUOUS
 62
     7
370
    13
100
AcDbLine
 10
80.63397459621530
 20
-198.06602540378381
 30
0.00000000000000
 11
80.63397459621530
 21
-196.73397459621444
 31
0.00000000000000
  0
LINE
  5
21A
330
2F
100
AcDbEntity
  8
# Zeichnungen 10
  6
CONTINUOUS
 62
     7
370
    13
100
AcDbLine
 10
79.76794919243179
 20
-198.06602540378381
 30
0.00000000000000
 11
79.76794919243179
 21
-196.73397459621444
 31
0.00000000000000
  0
LINE
  5
21B
330
2F
100
AcDbEntity
  8
# Zeichnungen 10
  6
CONTINUOUS
 62
     7
370
    13
100
AcDbLine
 10
83.23205080756867
 20
-196.73397459621444
 30
0.00000000000000
 11
83.00000000000028
 21
-196.59999999999889
 31
0.00000000000000
  0
LINE
  5
21C
330
2F
100
AcDbEntity
  8
# Zeichnungen 10
  6
CONTINUOUS
 62
     7
370
    13
100
AcDbLine
 10
79.76794919243179
 20
-196.73397459621444
 30
0.00000000000000
 11
80.00000000000017
 21
-196.59999999999889
 31
0.00000000000000
  0
LINE
  5
21D
330
2F
100
AcDbEntity
  8
# Zeichnungen 10
  6
CONTINUOUS
 62
     7
370
    13
100
AcDbLine
 10
83.00000000000028
 20
-196.59999999999889
 30
0.00000000000000
 11
80.00000000000017
 21
-196.59999999999889
 31
0.00000000000000
  0
ARC
  5
21E
330
2F
100
AcDbEntity
  8
# Zeichnungen 10
  6
CONTINUOUS
 62
     7
370
    13
100
AcDbCircle
 10
82.79903810567690
 20
-197.43325317547209
 30
0.00000000000000
 40
0.76674682452699
100
AcDbArc
 50
235.61575253200215
 51
304.38424746808482
  0
ARC
  5
21F
330
2F
100
AcDbEntity
  8
# Zeichnungen 10
  6
CONTINUOUS
 62
     7
370
    13
100
AcDbCircle
 10
81.50000000000023
 20
-195.33397459621486
 30
0.00000000000000
 40
2.86602540378466
100
AcDbArc
 50
252.41204622599730
 51
287.58795377398485
  0
ARC
  5
220
330
2F
100
AcDbEntity
  8
# Zeichnungen 10
  6
CONTINUOUS
 62
     7
370
    13
100
AcDbCircle
 10
80.20096189432353
 20
-197.43325317547209
 30
0.00000000000000
 40
0.76674682452699
100
AcDbArc
 50
235.61575253200215
 51
304.38424746808585
  0
ARC
  5
221
330
2F
100
AcDbEntity
  8
# Zeichnungen 10
  6
CONTINUOUS
 62
     7
370
    13
100
AcDbCircle
 10
82.79903810567690
 20
-197.36674682452619
 30
0.00000000000000
 40
0.76674682452699
100
AcDbArc
 50
55.61575253200217
 51
124.38424746808482
  0
ARC
  5
222
330
2F
100
AcDbEntity
  8
# Zeichnungen 10
  6
CONTINUOUS
 62
     7
370
    13
100
AcDbCircle
 10
81.50000000000023
 20
-199.46602540378342
 30
0.00000000000000
 40
2.86602540378466
100
AcDbArc
 50
72.41204622599730
 51
107.58795377398485
  0
ARC
  5
223
330
2F
100
AcDbEntity
  8
# Zeichnungen 10
  6
CONTINUOUS
 62
     7
370
    13
100
AcDbCircle
 10
80.20096189432353
 20
-197.36674682452619
 30
0.00000000000000
 40
0.76674682452699
100
AcDbArc
 50
55.61575253200217
 51
124.38424746808587
  0
LINE
  5
224
330
2F
100
AcDbEntity
  8
# Zeichnungen 10
  6
CONTINUOUS
 62
     7
370
    13
100
AcDbLine
 10
82.29999999999951
 20
-157.90999629903735
 30
0.00000000000000
 11
82.29999999999951
 21
-179.99999999999977
 31
0.00000000000000
  0
LINE
  5
225
330
2F
100
AcDbEntity
  8
# Zeichnungen 10
  6
CONTINUOUS
 62
     7
370
    13
100
AcDbLine
 10
82.29999999999951
 20
-179.99999999999994
 30
0.00000000000000
 11
82.29999999999951
 21
-196.59999999999869
 31
0.00000000000000
  0
LINE
  5
226
330
2F
100
AcDbEntity
  8
# Zeichnungen 10
  6
CONTINUOUS
 62
     7
370
    13
100
AcDbLine
 10
80.70000000000049
 20
-158.33871500692712
 30
0.00000000000000
 11
80.70000000000049
 21
-179.99999999999980
 31
0.00000000000000
  0
LINE
  5
227
330
2F
100
AcDbEntity
  8
# Zeichnungen 10
  6
CONTINUOUS
 62
     7
370
    13
100
AcDbLine
 10
80.70000000000049
 20
-179.99999999999974
 30
0.00000000000000
 11
80.70000000000049
 21
-196.59999999999889
 31
0.00000000000000
  0
LINE
  5
228
330
2F
100
AcDbEntity
  8
# Zeichnungen 10
  6
CONTINUOUS
 62
     7
370
    13
100
AcDbLine
 10
79.64999999999974
 20
-200.00000000000000
 30
0.00000000000000
 11
83.35000000000035
 21
-200.00000000000000
 31
0.00000000000000
  0
LINE
  5
229
330
2F
100
AcDbEntity
  8
# Zeichnungen 10
  6
CONTINUOUS
 62
     7
370
    13
100
AcDbLine
 10
83.35000000000035
 20
-200.30000000000004
 30
0.00000000000000
 11
83.35000000000035
 21
-200.00000000000000
 31
0.00000000000000
  0
LINE
  5
22A
330
2F
100
AcDbEntity
  8
# Zeichnungen 10
  6
CONTINUOUS
 62
     7
370
    13
100
AcDbLine
 10
79.64999999999974
 20
-200.30000000000004
 30
0.00000000000000
 11
79.64999999999974
 21
-200.00000000000000
 31
0.00000000000000
  0
LINE
  5
22B
330
2F
100
AcDbEntity
  8
# Zeichnungen 10
  6
CONTINUOUS
 62
     7
370
    13
100
AcDbLine
 10
79.64999999999974
 20
-200.30000000000004
 30
0.00000000000000
 11
83.35000000000035
 21
-200.30000000000004
 31
0.00000000000000
  0
LINE
  5
22C
330
2F
100
AcDbEntity
  8
# Zeichnungen 10
  6
CONTINUOUS
 62
     7
370
    13
100
AcDbLine
 10
83.00000000000010
 20
-200.30000000000004
 30
0.00000000000000
 11
83.23205080756848
 21
-200.43397459621559
 31
0.00000000000000
  0
LINE
  5
22D
330
2F
100
AcDbEntity
  8
# Zeichnungen 10
  6
CONTINUOUS
 62
     7
370
    13
100
AcDbLine
 10
79.99999999999999
 20
-200.30000000000004
 30
0.00000000000000
 11
79.76794919243160
 21
-200.43397459621559
 31
0.00000000000000
  0
LINE
  5
22E
330
2F
100
AcDbEntity
  8
# Zeichnungen 10
  6
CONTINUOUS
 62
     7
370
    13
100
AcDbLine
 10
79.99999999999999
 20
-200.30000000000004
 30
0.00000000000000
 11
83.00000000000010
 21
-200.30000000000004
 31
0.00000000000000
  0
LINE
  5
22F
330
2F
100
AcDbEntity
  8
# Zeichnungen 10
  6
CONTINUOUS
 62
     7
370
    13
100
AcDbLine
 10
83.23205080756848
 20
-201.76602540378497
 30
0.00000000000000
 11
83.23205080756848
 21
-200.43397459621559
 31
0.00000000000000
  0
LINE
  5
230
330
2F
100
AcDbEntity
  8
# Zeichnungen 10
  6
CONTINUOUS
 62
     7
370
    13
100
AcDbLine
 10
82.36602540378497
 20
-201.76602540378497
 30
0.00000000000000
 11
82.36602540378497
 21
-200.43397459621559
 31
0.00000000000000
  0
LINE
  5
231
330
2F
100
AcDbEntity
  8
# Zeichnungen 10
  6
CONTINUOUS
 62
     7
370
    13
100
AcDbLine
 10
80.63397459621511
 20
-201.76602540378497
 30
0.00000000000000
 11
80.63397459621511
 21
-200.43397459621559
 31
0.00000000000000
  0
LINE
  5
232
330
2F
100
AcDbEntity
  8
# Zeichnungen 10
  6
CONTINUOUS
 62
     7
370
    13
100
AcDbLine
 10
79.76794919243160
 20
-201.76602540378497
 30
0.00000000000000
 11
79.76794919243160
 21
-200.43397459621559
 31
0.00000000000000
  0
LINE
  5
233
330
2F
100
AcDbEntity
  8
# Zeichnungen 10
  6
CONTINUOUS
 62
     7
370
    13
100
AcDbLine
 10
83.00000000000010
 20
-201.90000000000055
 30
0.00000000000000
 11
83.23205080756848
 21
-201.76602540378497
 31
0.00000000000000
  0
LINE
  5
234
330
2F
100
AcDbEntity
  8
# Zeichnungen 10
  6
CONTINUOUS
 62
     7
370
    13
100
AcDbLine
 10
79.99999999999999
 20
-201.90000000000055
 30
0.00000000000000
 11
79.76794919243160
 21
-201.76602540378497
 31
0.00000000000000
  0
LINE
  5
235
330
2F
100
AcDbEntity
  8
# Zeichnungen 10
  6
CONTINUOUS
 62
     7
370
    13
100
AcDbLine
 10
79.99999999999999
 20
-201.90000000000055
 30
0.00000000000000
 11
83.00000000000010
 21
-201.90000000000055
 31
0.00000000000000
  0
LINE
  5
236
330
2F
100
AcDbEntity
  8
# Zeichnungen 10
  6
CONTINUOUS
 62
     7
370
    13
100
AcDbLine
 10
82.50000000000055
 20
-202.62857141494806
 30
0.00000000000000
 11
82.50000000000055
 21
-201.90000000000055
 31
0.00000000000000
  0
LINE
  5
237
330
2F
100
AcDbEntity
  8
# Zeichnungen 10
  6
CONTINUOUS
 62
     7
370
    13
100
AcDbLine
 10
80.49999999999953
 20
-202.62857141494806
 30
0.00000000000000
 11
80.49999999999953
 21
-201.90000000000055
 31
0.00000000000000
  0
LINE
  5
238
330
2F
100
AcDbEntity
  8
# Zeichnungen 10
  6
CONTINUOUS
 62
     7
370
    13
100
AcDbLine
 10
80.49999999999953
 20
-202.62857141494806
 30
0.00000000000000
 11
82.50000000000055
 21
-202.62857141494806
 31
0.00000000000000
  0
LINE
  5
239
330
2F
100
AcDbEntity
  8
# Zeichnungen 10
  6
CONTINUOUS
 62
     7
370
    13
100
AcDbLine
 10
80.70000000000049
 20
-202.82857141494759
 30
0.00000000000000
 11
82.29999999999960
 21
-202.82857141494759
 31
0.00000000000000
  0
LINE
  5
23A
330
2F
100
AcDbEntity
  8
# Zeichnungen 10
  6
CONTINUOUS
 62
     7
370
    13
100
AcDbLine
 10
82.29999999999960
 20
-202.82857141494759
 30
0.00000000000000
 11
82.50000000000055
 21
-202.62857141494806
 31
0.00000000000000
  0
LINE
  5
23B
330
2F
100
AcDbEntity
  8
# Zeichnungen 10
  6
CONTINUOUS
 62
     7
370
    13
100
AcDbLine
 10
80.70000000000049
 20
-202.82857141494759
 30
0.00000000000000
 11
80.49999999999953
 21
-202.62857141494806
 31
0.00000000000000
  0
LINE
  5
23C
330
2F
100
AcDbEntity
  8
# Zeichnungen 10
  6
CONTINUOUS
 62
     7
370
    13
100
AcDbLine
 10
82.29999999999960
 20
-202.82857141494759
 30
0.00000000000000
 11
82.29999999999960
 21
-201.90000000000055
 31
0.00000000000000
  0
LINE
  5
23D
330
2F
100
AcDbEntity
  8
# Zeichnungen 10
  6
CONTINUOUS
 62
     7
370
    13
100
AcDbLine
 10
80.70000000000049
 20
-202.82857141494759
 30
0.00000000000000
 11
80.70000000000049
 21
-201.90000000000055
 31
0.00000000000000
  0
ARC
  5
23E
330
2F
100
AcDbEntity
  8
# Zeichnungen 10
  6
CONTINUOUS
 62
     7
370
    13
100
AcDbCircle
 10
82.79903810567673
 20
-201.06674682452734
 30
0.00000000000000
 40
0.76674682452690
100
AcDbArc
 50
55.61575253191741
 51
124.38424746800005
  0
ARC
  5
23F
330
2F
100
AcDbEntity
  8
# Zeichnungen 10
  6
CONTINUOUS
 62
     7
370
    13
100
AcDbCircle
 10
81.50000000000004
 20
-203.16602540378454
 30
0.00000000000000
 40
2.86602540378473
100
AcDbArc
 50
72.41204622601637
 51
107.58795377400392
  0
ARC
  5
240
330
2F
100
AcDbEntity
  8
# Zeichnungen 10
  6
CONTINUOUS
 62
     7
370
    13
100
AcDbCircle
 10
80.20096189432336
 20
-201.06674682452734
 30
0.00000000000000
 40
0.76674682452690
100
AcDbArc
 50
55.61575253191741
 51
124.38424746800113
  0
ARC
  5
241
330
2F
100
AcDbEntity
  8
# Zeichnungen 10
  6
CONTINUOUS
 62
     7
370
    13
100
AcDbCircle
 10
82.79903810567673
 20
-201.13325317547321
 30
0.00000000000000
 40
0.76674682452690
100
AcDbArc
 50
235.61575253191739
 51
304.38424746800001
  0
ARC
  5
242
330
2F
100
AcDbEntity
  8
# Zeichnungen 10
  6
CONTINUOUS
 62
     7
370
    13
100
AcDbCircle
 10
81.50000000000004
 20
-199.03397459621601
 30
0.00000000000000
 40
2.86602540378473
100
AcDbArc
 50
252.41204622601637
 51
287.58795377400395
  0
ARC
  5
243
330
2F
100
AcDbEntity
  8
# Zeichnungen 10
  6
CONTINUOUS
 62
     7
370
    13
100
AcDbCircle
 10
80.20096189432336
 20
-201.13325317547321
 30
0.00000000000000
 40
0.76674682452690
100
AcDbArc
 50
235.61575253191739
 51
304.38424746800109
  0
LINE
  5
244
330
2F
100
AcDbEntity
  8
# Zeichnungen 10
  6
DC_MITTELLINIE
 62
     7
 48
0.40000000000000
370
    35
100
AcDbLine
 10
110.99999999999976
 20
-146.00000000000037
 30
0.00000000000000
 11
74.49999999999979
 21
-155.78014552373622
 31
0.00000000000000
  0
LINE
  5
245
330
2F
100
AcDbEntity
  8
# Zeichnungen 10
  6
DC_MITTELLINIE
 62
     7
 48
0.40000000000000
370
    35
100
AcDbLine
 10
110.99999999999976
 20
-150.21985447626432
 30
0.00000000000000
 11
74.49999999999974
 21
-160.00000000000017
 31
0.00000000000000
  0
MTEXT
  5
246
330
2F
100
AcDbEntity
  8
# Zeichnungen 10
 62
     7
370
    30
100
AcDbMText
 10
33.99999999999999
 20
-120.00000000000013
 30
0.00000000000000
 40
2.80000000000000
 41
0.00000000000000
 71
     4
 72
     1
  1
\fArial Narrow|b0|i0;Oberste\PGeschossdecke
 11
1.00000000000000
 21
0.00000000000000
 31
0.00000000000000
 73
     1
 44
1.00000000000000
  0
MTEXT
  5
247
330
2F
100
AcDbEntity
  8
# Zeichnungen 10
 62
     7
370
    30
100
AcDbMText
 10
33.99999999999981
 20
-190.00000000000006
 30
0.00000000000000
 40
2.80000000000000
 41
0.00000000000000
 71
     4
 72
     1
  1
\fArial Narrow|b0|i0;darunterliegende\PGeschossdecke
 11
1.00000000000000
 21
0.00000000000000
 31
0.00000000000000
 73
     1
 44
1.00000000000000
  0
MTEXT
  5
248
330
2F
100
AcDbEntity
  8
# Zeichnungen 10
 62
     7
370
    35
100
AcDbMText
 10
33.99999999999999
 20
-90.00000000000007
 30
0.00000000000000
 40
3.50000000000000
 41
0.00000000000000
 71
     4
 72
     1
  1
\fArial Narrow|b0|i0;\LPrinzipschnitt Außenwand
 11
1.00000000000000
 21
0.00000000000000
 31
0.00000000000000
 73
     1
 44
1.00000000000000
  0
INSERT
  5
33
330
2F
100
AcDbEntity
  8
# Zeichnungen 10
 62
     7
370
    25
100
AcDbBlockReference
  2
*U3
 10
0.00000000000000
 20
0.00000000000000
 30
0.00000000000000
  0
INSERT
  5
34
330
2F
100
AcDbEntity
  8
# Zeichnungen 10
 62
     7
370
    25
100
AcDbBlockReference
  2
*U4
 10
0.00000000000000
 20
0.00000000000000
 30
0.00000000000000
  0
LINE
  5
249
330
2F
100
AcDbEntity
  8
# Zeichnungen 10
  6
CONTINUOUS
 62
     7
370
    18
100
AcDbLine
 10
109.39999999999927
 20
-109.99999999999999
 30
0.00000000000000
 11
109.39999999999941
 21
-130.00000000000020
 31
0.00000000000000
  0
LINE
  5
24A
330
2F
100
AcDbEntity
  8
# Zeichnungen 10
  6
CONTINUOUS
 62
     7
370
    18
100
AcDbLine
 10
109.39999999999972
 20
-179.99999999999966
 30
0.00000000000000
 11
109.39999999999985
 21
-199.99999999999994
 31
0.00000000000000
  0
INSERT
  5
35
330
2F
100
AcDbEntity
  8
# Zeichnungen 10
 62
     5
370
    25
100
AcDbBlockReference
  2
*U5
 10
0.00000000000000
 20
0.00000000000000
 30
0.00000000000000
  0
INSERT
  5
36
330
2F
100
AcDbEntity
  8
# Zeichnungen 10
 62
     5
370
    25
100
AcDbBlockReference
  2
*U6
 10
0.00000000000000
 20
0.00000000000000
 30
0.00000000000000
  0
LINE
  5
24B
330
2F
100
AcDbEntity
  8
# Zeichnungen 10
  6
CONTINUOUS
 62
     7
370
    18
100
AcDbLine
 10
135.99999999999969
 20
-196.59999999999997
 30
0.00000000000000
 11
194.39999999999966
 21
-196.59999999999997
 31
0.00000000000000
  0
LINE
  5
24C
330
2F
100
AcDbEntity
  8
# Zeichnungen 10
  6
CONTINUOUS
 62
     7
370
    18
100
AcDbLine
 10
194.39999999999958
 20
-255.00000000000000
 30
0.00000000000000
 11
194.39999999999966
 21
-196.59999999999997
 31
0.00000000000000
  0
LINE
  5
24D
330
2F
100
AcDbEntity
  8
# Zeichnungen 10
  6
CONTINUOUS
 62
     7
370
    18
100
AcDbLine
 10
195.99999999999963
 20
-194.99999999999977
 30
0.00000000000000
 11
183.99999999999963
 21
-206.99999999999997
 31
0.00000000000000
  0
INSERT
  5
37
330
2F
100
AcDbEntity
  8
# Zeichnungen 10
 62
     5
370
    25
100
AcDbBlockReference
  2
*U7
 10
0.00000000000000
 20
0.00000000000000
 30
0.00000000000000
  0
INSERT
  5
38
330
2F
100
AcDbEntity
  8
# Zeichnungen 10
 62
     5
370
    25
100
AcDbBlockReference
  2
*U8
 10
0.00000000000000
 20
0.00000000000000
 30
0.00000000000000
  0
INSERT
  5
39
330
2F
100
AcDbEntity
  8
# Zeichnungen 10
 62
     7
370
    25
100
AcDbBlockReference
  2
*U9
 10
0.00000000000000
 20
0.00000000000000
 30
0.00000000000000
  0
MTEXT
  5
24E
330
2F
100
AcDbEntity
  8
# Zeichnungen 10
 62
     7
370
    35
100
AcDbMText
 10
144.99999999999966
 20
-181.99999999999997
 30
0.00000000000000
 40
3.50000000000000
 41
0.00000000000000
 71
     4
 72
     1
  1
\fArial Narrow|b0|i0;\LDraufsicht Gebäudeecke
 11
1.00000000000000
 21
0.00000000000000
 31
0.00000000000000
 73
     1
 44
1.00000000000000
  0
INSERT
  5
3A
330
2F
100
AcDbEntity
  8
# Zeichnungen 10
 62
     7
370
    25
100
AcDbBlockReference
  2
*U10
 10
0.00000000000000
 20
0.00000000000000
 30
0.00000000000000
  0
INSERT
  5
3B
330
2F
100
AcDbEntity
  8
# Zeichnungen 10
 62
     5
370
    25
100
AcDbBlockReference
  2
*U11
 10
0.00000000000000
 20
0.00000000000000
 30
0.00000000000000
  0
LINE
  5
24F
330
2F
100
AcDbEntity
  8
# Zeichnungen 10
  6
CONTINUOUS
 62
     7
370
    35
100
AcDbLine
 10
74.49999999999989
 20
-263.49999999999994
 30
0.00000000000000
 11
74.49999999999987
 21
-280.00000000000000
 31
0.00000000000000
  0
LINE
  5
250
330
2F
100
AcDbEntity
  8
# Zeichnungen 10
  6
CONTINUOUS
 62
     7
370
    35
100
AcDbLine
 10
62.99999999999982
 20
-263.50000000000000
 30
0.00000000000000
 11
74.49999999999989
 21
-263.50000000000000
 31
0.00000000000000
  0
LINE
  5
251
330
2F
100
AcDbEntity
  8
# Zeichnungen 10
  6
CONTINUOUS
 62
     7
370
    35
100
AcDbLine
 10
110.99999999999967
 20
-227.00000000000023
 30
0.00000000000000
 11
110.99999999999979
 21
-280.00000000000000
 31
0.00000000000000
  0
LINE
  5
252
330
2F
100
AcDbEntity
  8
# Zeichnungen 10
  6
CONTINUOUS
 62
     7
370
    35
100
AcDbLine
 10
62.99999999999982
 20
-226.99999999999997
 30
0.00000000000000
 11
110.99999999999976
 21
-226.99999999999997
 31
0.00000000000000
  0
LINE
  5
253
330
2F
100
AcDbEntity
  8
# Zeichnungen 10
  6
CONTINUOUS
 62
     7
370
    35
100
AcDbLine
 10
74.49999999999989
 20
-263.50000000000000
 30
0.00000000000000
 11
74.49999999999989
 21
-249.50000000000003
 31
0.00000000000000
  0
LINE
  5
254
330
2F
100
AcDbEntity
  8
# Zeichnungen 10
  6
CONTINUOUS
 62
     7
370
    35
100
AcDbLine
 10
74.49999999999989
 20
-249.50000000000003
 30
0.00000000000000
 11
88.49999999999990
 21
-249.50000000000003
 31
0.00000000000000
  0
LINE
  5
255
330
2F
100
AcDbEntity
  8
# Zeichnungen 10
  6
CONTINUOUS
 62
     7
370
    35
100
AcDbLine
 10
88.49999999999990
 20
-263.49999999999977
 30
0.00000000000000
 11
88.49999999999990
 21
-249.49999999999983
 31
0.00000000000000
  0
LINE
  5
256
330
2F
100
AcDbEntity
  8
# Zeichnungen 10
  6
CONTINUOUS
 62
     7
370
    35
100
AcDbLine
 10
74.49999999999989
 20
-263.49999999999977
 30
0.00000000000000
 11
88.49999999999990
 21
-263.49999999999977
 31
0.00000000000000
  0
INSERT
  5
3C
330
2F
100
AcDbEntity
  8
# Zeichnungen 10
 62
     5
370
    25
100
AcDbBlockReference
  2
*U12
 10
0.00000000000000
 20
0.00000000000000
 30
0.00000000000000
  0
INSERT
  5
3D
330
2F
100
AcDbEntity
  8
# Zeichnungen 10
 62
     5
370
    25
100
AcDbBlockReference
  2
*U13
 10
0.00000000000000
 20
0.00000000000000
 30
0.00000000000000
  0
INSERT
  5
3E
330
2F
100
AcDbEntity
  8
# Zeichnungen 10
 62
     5
370
    25
100
AcDbBlockReference
  2
*U14
 10
0.00000000000000
 20
0.00000000000000
 30
0.00000000000000
  0
LINE
  5
257
330
2F
100
AcDbEntity
  8
# Zeichnungen 10
  6
CONTINUOUS
 62
     7
370
     9
100
AcDbLine
 10
80.49999999999935
 20
-256.50000000000034
 30
0.00000000000000
 11
74.49999999999989
 21
-256.50000000000011
 31
0.00000000000000
  0
LINE
  5
258
330
2F
100
AcDbEntity
  8
# Zeichnungen 10
  6
CONTINUOUS
 62
     7
370
     9
100
AcDbLine
 10
82.50000000000034
 20
-256.50000000000011
 30
0.00000000000000
 11
88.49999999999990
 21
-256.50000000000051
 31
0.00000000000000
  0
INSERT
  5
3F
330
2F
100
AcDbEntity
  8
# Zeichnungen 10
 62
     7
370
    25
100
AcDbBlockReference
  2
*U15
 10
0.00000000000000
 20
0.00000000000000
 30
0.00000000000000
  0
LINE
  5
259
330
2F
100
AcDbEntity
  8
# Zeichnungen 10
  6
CONTINUOUS
 62
     7
370
    25
100
AcDbLine
 10
82.99999999999997
 20
-130.00000000000003
 30
0.00000000000000
 11
82.99999999999996
 21
-109.99999999999999
 31
0.00000000000000
  0
LINE
  5
25A
330
2F
100
AcDbEntity
  8
# Zeichnungen 10
  6
CONTINUOUS
 62
     7
370
    25
100
AcDbLine
 10
79.99999999999996
 20
-130.00000000000003
 30
0.00000000000000
 11
79.99999999999996
 21
-109.99999999999999
 31
0.00000000000000
  0
INSERT
  5
40
330
2F
100
AcDbEntity
  8
# Zeichnungen 10
 62
     7
370
    25
100
AcDbBlockReference
  2
*U16
 10
0.00000000000000
 20
0.00000000000000
 30
0.00000000000000
  0
INSERT
  5
41
330
2F
100
AcDbEntity
  8
# Zeichnungen 10
 62
     7
370
    25
100
AcDbBlockReference
  2
*U17
 10
0.00000000000000
 20
0.00000000000000
 30
0.00000000000000
  0
INSERT
  5
42
330
2F
100
AcDbEntity
  8
# Zeichnungen 10
 62
     7
370
    25
100
AcDbBlockReference
  2
*U18
 10
0.00000000000000
 20
0.00000000000000
 30
0.00000000000000
  0
INSERT
  5
43
330
2F
100
AcDbEntity
  8
# Zeichnungen 10
 62
     5
370
    25
100
AcDbBlockReference
  2
*U19
 10
0.00000000000000
 20
0.00000000000000
 30
0.00000000000000
  0
LINE
  5
25B
330
2F
100
AcDbEntity
  8
# Zeichnungen 10
  6
CONTINUOUS
 62
     7
370
    13
100
AcDbLine
 10
82.50000000000051
 20
-145.23205080756779
 30
0.00000000000000
 11
80.49999999999950
 21
-145.23205080756779
 31
0.00000000000000
  0
LINE
  5
25C
330
2F
100
AcDbEntity
  8
# Zeichnungen 10
  6
CONTINUOUS
 62
     7
370
    13
100
AcDbLine
 10
82.29999999999957
 20
-145.03205080756825
 30
0.00000000000000
 11
80.70000000000044
 21
-145.03205080756825
 31
0.00000000000000
  0
LINE
  5
25D
330
2F
100
AcDbEntity
  8
# Zeichnungen 10
  6
CONTINUOUS
 62
     7
370
    13
100
AcDbLine
 10
82.50000000000051
 20
-145.23205080756779
 30
0.00000000000000
 11
82.29999999999957
 21
-145.03205080756825
 31
0.00000000000000
  0
LINE
  5
25E
330
2F
100
AcDbEntity
  8
# Zeichnungen 10
  6
CONTINUOUS
 62
     7
370
    13
100
AcDbLine
 10
80.49999999999950
 20
-145.23205080756779
 30
0.00000000000000
 11
80.70000000000044
 21
-145.03205080756825
 31
0.00000000000000
  0
LINE
  5
25F
330
2F
100
AcDbEntity
  8
# Zeichnungen 10
  6
CONTINUOUS
 62
     7
370
    13
100
AcDbLine
 10
80.49999999999950
 20
-144.16794919243222
 30
0.00000000000000
 11
82.50000000000051
 21
-144.16794919243222
 31
0.00000000000000
  0
LINE
  5
260
330
2F
100
AcDbEntity
  8
# Zeichnungen 10
  6
CONTINUOUS
 62
     7
370
    13
100
AcDbLine
 10
80.70000000000044
 20
-144.36794919243175
 30
0.00000000000000
 11
82.29999999999957
 21
-144.36794919243175
 31
0.00000000000000
  0
LINE
  5
261
330
2F
100
AcDbEntity
  8
# Zeichnungen 10
  6
CONTINUOUS
 62
     7
370
    13
100
AcDbLine
 10
82.29999999999957
 20
-144.36794919243175
 30
0.00000000000000
 11
82.50000000000051
 21
-144.16794919243222
 31
0.00000000000000
  0
LINE
  5
262
330
2F
100
AcDbEntity
  8
# Zeichnungen 10
  6
CONTINUOUS
 62
     7
370
    13
100
AcDbLine
 10
80.70000000000044
 20
-144.36794919243175
 30
0.00000000000000
 11
80.49999999999950
 21
-144.16794919243222
 31
0.00000000000000
  0
INSERT
  5
44
330
2F
100
AcDbEntity
  8
# Zeichnungen 10
 62
     7
370
    25
100
AcDbBlockReference
  2
*U20
 10
0.00000000000000
 20
0.00000000000000
 30
0.00000000000000
  0
MTEXT
  5
263
330
2F
100
AcDbEntity
  8
# Zeichnungen 10
 62
     7
370
    25
100
AcDbMText
 10
25.00000000000013
 20
-79.99999999999965
 30
0.00000000000000
 40
2.50000000000000
 41
0.00000000000000
 71
     7
 72
     1
  1
\fArial|b0|i0;Für dieses Detail ist keine Referenzwärmebrücke nach\PDIN 4108 Beiblatt 2 [2019-06] definiert.
 11
1.00000000000000
 21
0.00000000000000
 31
0.00000000000000
 73
     1
 44
1.00000000000000
  0
MTEXT
  5
264
330
2F
100
AcDbEntity
  8
Planrahmen
 62
     7
370
    25
100
AcDbMText
 10
25.00000000000013
 20
-282.99999999999966
 30
0.00000000000000
 40
2.50000000000000
 41
0.00000000000000
 71
     1
 72
     1
  3
\fArial Narrow|b0|i0;Wir übernehmen keine Haftung für die Vollständigkeit und Eignung der abgebildeten Darstellungen an konkreten Objekten. Die projektbezogene\PAusführbarkeit der Details muss in jedem Fall vom jeweiligen Fachplaner/Architekten geprü
  1
ft werden.
 11
1.00000000000000
 21
0.00000000000000
 31
0.00000000000000
 73
     1
 44
1.00000000000000
  0
INSERT
  5
45
330
2F
100
AcDbEntity
  8
Planrahmen
 62
     5
370
    25
100
AcDbBlockReference
  2
*U21
 10
0.00000000000000
 20
0.00000000000000
 30
0.00000000000000
  0
INSERT
  5
46
330
2F
100
AcDbEntity
  8
Planrahmen
 62
     5
370
    25
100
AcDbBlockReference
  2
*U22
 10
0.00000000000000
 20
0.00000000000000
 30
0.00000000000000
  0
ENDSEC
  0
SECTION
  2
OBJECTS
  0
DICTIONARY
  5
265
330
0
100
AcDbDictionary
281
     1
  3
ACAD_GROUP
350
266
  3
ACAD_PLOTSTYLENAME
350
267
  3
ACAD_MLINESTYLE
350
268
  3
ACAD_LAYOUT
350
269
  0
DICTIONARY
  5
266
102
{ACAD_REACTORS
330
265
102
}
330
265
100
AcDbDictionary
281
     1
  0
ACDBDICTIONARYWDFLT
  5
267
102
{ACAD_REACTORS
330
265
102
}
330
265
100
AcDbDictionary
281
     1
  3
Normal
350
1
100
AcDbDictionaryWithDefault
340
1
  0
DICTIONARY
  5
268
102
{ACAD_REACTORS
330
265
102
}
330
265
100
AcDbDictionary
281
     1
  3
STANDARD
350
26A
  0
DICTIONARY
  5
269
102
{ACAD_REACTORS
330
265
102
}
330
265
100
AcDbDictionary
281
     1
  0
ACDBPLACEHOLDER
  5
1
102
{ACAD_REACTORS
330
267
102
}
330
267
  0
MLINESTYLE
  5
26A
102
{ACAD_REACTORS
330
268
102
}
330
268
100
AcDbMlineStyle
  2
STANDARD
 70
     0
  3

 62
   256
 51
90.00000000000000
 52
90.00000000000000
 71
     2
 49
0.50000000000000
 62
   256
  6
BYLAYER
 49
-0.50000000000000
 62
   256
  6
BYLAYER
  0
ENDSEC
  0
EOF
