  0
SECTION
  2
HEADER
  9
$ACADVER
  1
AC1015
  9
$INSBASE
 10
114.59353433611977
 20
-143.41199704510109
 30
0.00000000000000
  9
$EXTMIN
 10
23.20812931327757
 20
-280.51488603110425
 30
0.00000000000000
  9
$EXTMAX
 10
205.97893935896198
 20
-6.30910805909799
 30
0.00000000000000
  9
$LTSCALE
 40
1.00000000000000
  9
$CLAYER
  8
Planrahmen
  9
$TDCREATE
 40
2459079.60731481480000
  9
$TDINDWG
 40
0.03112722282292
  9
$HANDSEED
  5
FF0000
  0
ENDSEC
  0
SECTION
  2
CLASSES
  0
CLASS
  1
ACDBDICTIONARYWDFLT
  2
AcDbDictionaryWithDefault
  3
AutoCAD 2000
 90
        0
280
     0
281
     0
  0
CLASS
  1
ACDBPLACEHOLDER
  2
AcDbPlaceHolder
  3
AutoCAD 2000
 90
        0
280
     0
281
     0
  0
ENDSEC
  0
SECTION
  2
TABLES
  0
TABLE
  2
VPORT
  5
2
330
0
100
AcDbSymbolTable
 70
     0
  0
ENDTAB
  0
TABLE
  2
LTYPE
  5
3
330
0
100
AcDbSymbolTable
 70
     8
  0
LTYPE
  5
4
330
3
100
AcDbSymbolTableRecord
100
AcDbLinetypeTableRecord
  2
BYBLOCK
 70
     0
  3

 72
    65
 73
     0
 40
0.00000000000000
  0
LTYPE
  5
5
330
3
100
AcDbSymbolTableRecord
100
AcDbLinetypeTableRecord
  2
BYLAYER
 70
     0
  3

 72
    65
 73
     0
 40
0.00000000000000
  0
LTYPE
  5
6
330
3
100
AcDbSymbolTableRecord
100
AcDbLinetypeTableRecord
  2
CONTINUOUS
 70
     0
  3
Ausgezogene Linie
 72
    65
 73
     0
 40
0.00000000000000
  0
LTYPE
  5
7
330
3
100
AcDbSymbolTableRecord
100
AcDbLinetypeTableRecord
  2
DC_VERDECKT
 70
     0
  3
_ _ _ _ _ _ _ _ _ _
 72
    65
 73
     2
 40
2.00000000000000
 49
1.33400000000000
 74
     0
 49
-0.66600000000000
 74
     0
  0
LTYPE
  5
8
330
3
100
AcDbSymbolTableRecord
100
AcDbLinetypeTableRecord
  2
DC_GEPUNKTET
 70
     0
  3
...................
 72
    65
 73
     2
 40
2.00000000000000
 49
0.50000000000000
 74
     0
 49
-1.50000000000000
 74
     0
  0
LTYPE
  5
9
330
3
100
AcDbSymbolTableRecord
100
AcDbLinetypeTableRecord
  2
DC_MITTELLINIE
 70
     0
  3
____ _ ____ _ ____ 
 72
    65
 73
     4
 40
20.00000000000000
 49
15.00000000000000
 74
     0
 49
-2.00000000000000
 74
     0
 49
1.00000000000000
 74
     0
 49
-2.00000000000000
 74
     0
  0
LTYPE
  5
A
330
3
100
AcDbSymbolTableRecord
100
AcDbLinetypeTableRecord
  2
DC_PHANTOM
 70
     0
  3
_______ _ _ _______
 72
    65
 73
     6
 40
25.00000000000000
 49
17.00000000000000
 74
     0
 49
-2.00000000000000
 74
     0
 49
1.00000000000000
 74
     0
 49
-2.00000000000000
 74
     0
 49
1.00000000000000
 74
     0
 49
-2.00000000000000
 74
     0
  0
LTYPE
  5
B
330
3
100
AcDbSymbolTableRecord
100
AcDbLinetypeTableRecord
  2
DC_STRICHDREIPUNKTIERT
 70
     0
  3
______ _ _ _ ______
 72
    65
 73
     8
 40
28.00000000000000
 49
18.76000000000000
 74
     0
 49
-1.68000000000000
 74
     0
 49
0.84000000000000
 74
     0
 49
-1.68000000000000
 74
     0
 49
0.84000000000000
 74
     0
 49
-1.68000000000000
 74
     0
 49
0.84000000000000
 74
     0
 49
-1.68000000000000
 74
     0
  0
ENDTAB
  0
TABLE
  2
LAYER
  5
C
330
0
100
AcDbSymbolTable
 70
     3
  0
LAYER
  5
D
330
C
100
AcDbSymbolTableRecord
100
AcDbLayerTableRecord
  2
0
 70
     0
 62
     7
  6
CONTINUOUS
370
    25
390
1
  0
LAYER
  5
E
330
C
100
AcDbSymbolTableRecord
100
AcDbLayerTableRecord
  2
Planrahmen
 70
    64
 62
     7
  6
CONTINUOUS
370
    25
390
1
  0
LAYER
  5
F
330
C
100
AcDbSymbolTableRecord
100
AcDbLayerTableRecord
  2
+ Zeichnungen 5
 70
    64
 62
     7
  6
CONTINUOUS
370
    25
390
1
  0
ENDTAB
  0
TABLE
  2
STYLE
  5
10
330
0
100
AcDbSymbolTable
 70
     2
  0
STYLE
  5
11
330
10
100
AcDbSymbolTableRecord
100
AcDbTextStyleTableRecord
  2
STANDARD
 70
     0
 40
0.00000000000000
 41
1.00000000000000
 50
0.00000000000000
 71
     0
 42
3.50000000000000
  3
txt
  4

  0
ENDTAB
  0
TABLE
  2
VIEW
  5
12
330
0
100
AcDbSymbolTable
 70
     0
  0
ENDTAB
  0
TABLE
  2
UCS
  5
13
330
0
100
AcDbSymbolTable
 70
     0
  0
ENDTAB
  0
TABLE
  2
APPID
  5
14
330
0
100
AcDbSymbolTable
 70
     2
  0
APPID
  5
15
330
14
100
AcDbSymbolTableRecord
100
AcDbRegAppTableRecord
  2
ACAD
 70
     0
  0
APPID
  5
16
330
14
100
AcDbSymbolTableRecord
100
AcDbRegAppTableRecord
  2
DIG-CAD
 70
     0
  0
ENDTAB
  0
TABLE
  2
DIMSTYLE
  5
17
330
0
100
AcDbSymbolTable
 70
     0
100
AcDbDimStyleTable
 71
     0
  0
ENDTAB
  0
TABLE
  2
BLOCK_RECORD
  5
2F
330
0
100
AcDbSymbolTable
 70
    23
  0
BLOCK_RECORD
  5
30
330
2F
100
AcDbSymbolTableRecord
100
AcDbBlockTableRecord
  2
*MODEL_SPACE
340
0
  0
BLOCK_RECORD
  5
31
330
2F
100
AcDbSymbolTableRecord
100
AcDbBlockTableRecord
  2
*PAPER_SPACE
340
0
  0
BLOCK_RECORD
  5
18
330
2F
100
AcDbSymbolTableRecord
100
AcDbBlockTableRecord
  2
*U1
340
0
102
{BLKREFS
331
32
102
}
  0
BLOCK_RECORD
  5
19
330
2F
100
AcDbSymbolTableRecord
100
AcDbBlockTableRecord
  2
*U2
340
0
102
{BLKREFS
331
33
102
}
  0
BLOCK_RECORD
  5
1A
330
2F
100
AcDbSymbolTableRecord
100
AcDbBlockTableRecord
  2
*U3
340
0
102
{BLKREFS
331
34
102
}
  0
BLOCK_RECORD
  5
1B
330
2F
100
AcDbSymbolTableRecord
100
AcDbBlockTableRecord
  2
*U4
340
0
102
{BLKREFS
331
35
102
}
  0
BLOCK_RECORD
  5
1C
330
2F
100
AcDbSymbolTableRecord
100
AcDbBlockTableRecord
  2
*U5
340
0
102
{BLKREFS
331
36
102
}
  0
BLOCK_RECORD
  5
1D
330
2F
100
AcDbSymbolTableRecord
100
AcDbBlockTableRecord
  2
*U6
340
0
102
{BLKREFS
331
37
102
}
  0
BLOCK_RECORD
  5
1E
330
2F
100
AcDbSymbolTableRecord
100
AcDbBlockTableRecord
  2
*U7
340
0
102
{BLKREFS
331
38
102
}
  0
BLOCK_RECORD
  5
1F
330
2F
100
AcDbSymbolTableRecord
100
AcDbBlockTableRecord
  2
*U8
340
0
102
{BLKREFS
331
39
102
}
  0
BLOCK_RECORD
  5
20
330
2F
100
AcDbSymbolTableRecord
100
AcDbBlockTableRecord
  2
*U9
340
0
102
{BLKREFS
331
3A
102
}
  0
BLOCK_RECORD
  5
21
330
2F
100
AcDbSymbolTableRecord
100
AcDbBlockTableRecord
  2
*U10
340
0
102
{BLKREFS
331
3B
102
}
  0
BLOCK_RECORD
  5
22
330
2F
100
AcDbSymbolTableRecord
100
AcDbBlockTableRecord
  2
*U11
340
0
102
{BLKREFS
331
3C
102
}
  0
BLOCK_RECORD
  5
23
330
2F
100
AcDbSymbolTableRecord
100
AcDbBlockTableRecord
  2
*U12
340
0
102
{BLKREFS
331
3D
102
}
  0
BLOCK_RECORD
  5
24
330
2F
100
AcDbSymbolTableRecord
100
AcDbBlockTableRecord
  2
*U13
340
0
102
{BLKREFS
331
3E
102
}
  0
BLOCK_RECORD
  5
25
330
2F
100
AcDbSymbolTableRecord
100
AcDbBlockTableRecord
  2
*U14
340
0
102
{BLKREFS
331
3F
102
}
  0
BLOCK_RECORD
  5
26
330
2F
100
AcDbSymbolTableRecord
100
AcDbBlockTableRecord
  2
*U15
340
0
102
{BLKREFS
331
40
102
}
  0
BLOCK_RECORD
  5
27
330
2F
100
AcDbSymbolTableRecord
100
AcDbBlockTableRecord
  2
*D1
340
0
102
{BLKREFS
331
41
102
}
  0
BLOCK_RECORD
  5
28
330
2F
100
AcDbSymbolTableRecord
100
AcDbBlockTableRecord
  2
*D2
340
0
102
{BLKREFS
331
42
102
}
  0
BLOCK_RECORD
  5
29
330
2F
100
AcDbSymbolTableRecord
100
AcDbBlockTableRecord
  2
*D3
340
0
102
{BLKREFS
331
43
102
}
  0
BLOCK_RECORD
  5
2A
330
2F
100
AcDbSymbolTableRecord
100
AcDbBlockTableRecord
  2
*D4
340
0
102
{BLKREFS
331
44
102
}
  0
BLOCK_RECORD
  5
2B
330
2F
100
AcDbSymbolTableRecord
100
AcDbBlockTableRecord
  2
*U16
340
0
102
{BLKREFS
331
45
102
}
  0
BLOCK_RECORD
  5
2C
330
2F
100
AcDbSymbolTableRecord
100
AcDbBlockTableRecord
  2
*U17
340
0
102
{BLKREFS
331
46
102
}
  0
BLOCK_RECORD
  5
2D
330
2F
100
AcDbSymbolTableRecord
100
AcDbBlockTableRecord
  2
*U18
340
0
102
{BLKREFS
331
47
102
}
  0
BLOCK_RECORD
  5
2E
330
2F
100
AcDbSymbolTableRecord
100
AcDbBlockTableRecord
  2
*U19
340
0
102
{BLKREFS
331
48
102
}
  0
ENDTAB
  0
ENDSEC
  0
SECTION
  2
BLOCKS
  0
BLOCK
  5
49
330
30
100
AcDbEntity
  8
0
100
AcDbBlockBegin
  2
*MODEL_SPACE
 70
     0
 10
0.00000000000000
 20
0.00000000000000
 30
0.00000000000000
  3
*MODEL_SPACE
  1

  0
ENDBLK
  5
4A
330
30
100
AcDbEntity
  8
0
100
AcDbBlockEnd
  0
BLOCK
  5
4B
330
31
100
AcDbEntity
 67
     1
  8
0
100
AcDbBlockBegin
  2
*PAPER_SPACE
 70
     0
 10
0.00000000000000
 20
0.00000000000000
 30
0.00000000000000
  3
*PAPER_SPACE
  1

  0
ENDBLK
  5
4C
330
31
100
AcDbEntity
 67
     1
  8
0
100
AcDbBlockEnd
  0
BLOCK
  5
4D
330
18
100
AcDbEntity
  8
0
100
AcDbBlockBegin
  2
*U1
 70
     1
 10
0.00000000000000
 20
0.00000000000000
 30
0.00000000000000
  3
*U1
  1

  0
ARC
  5
4E
330
18
100
AcDbEntity
  8
+ Zeichnungen 5
  6
CONTINUOUS
 62
     7
370
    18
100
AcDbCircle
 10
114.08333333333320
 20
-189.99999999999972
 30
0.00000000000000
 40
2.08333333333338
100
AcDbArc
 50
75.58712602252601
 51
179.99999999999790
  0
LINE
  5
4F
330
18
100
AcDbEntity
  8
+ Zeichnungen 5
  6
CONTINUOUS
 62
     7
370
    18
100
AcDbLine
 10
122.19810934369367
 20
-189.93443178693414
 30
0.00000000000000
 11
114.60189065630598
 21
-187.98223487973195
 31
0.00000000000000
  0
ARC
  5
50
330
18
100
AcDbEntity
  8
+ Zeichnungen 5
  6
CONTINUOUS
 62
     7
370
    18
100
AcDbCircle
 10
122.71666666666643
 20
-187.91666666666652
 30
0.00000000000000
 40
2.08333333333355
100
AcDbArc
 50
255.58712602252666
 51
104.41287397747278
  0
LINE
  5
51
330
18
100
AcDbEntity
  8
+ Zeichnungen 5
  6
CONTINUOUS
 62
     7
370
    18
100
AcDbLine
 10
114.60189065630598
 20
-187.85109845360091
 30
0.00000000000000
 11
122.19810934369367
 21
-185.89890154639855
 31
0.00000000000000
  0
ARC
  5
52
330
18
100
AcDbEntity
  8
+ Zeichnungen 5
  6
CONTINUOUS
 62
     7
370
    18
100
AcDbCircle
 10
114.08333333333320
 20
-185.83333333333312
 30
0.00000000000000
 40
2.08333333333338
100
AcDbArc
 50
75.58712602252601
 51
284.41287397747089
  0
LINE
  5
53
330
18
100
AcDbEntity
  8
+ Zeichnungen 5
  6
CONTINUOUS
 62
     7
370
    18
100
AcDbLine
 10
122.19810934369367
 20
-185.76776512026751
 30
0.00000000000000
 11
114.60189065630598
 21
-183.81556821306532
 31
0.00000000000000
  0
ARC
  5
54
330
18
100
AcDbEntity
  8
+ Zeichnungen 5
  6
CONTINUOUS
 62
     7
370
    18
100
AcDbCircle
 10
122.71666666666643
 20
-183.74999999999974
 30
0.00000000000000
 40
2.08333333333338
100
AcDbArc
 50
255.58712602252791
 51
104.41287397747401
  0
LINE
  5
55
330
18
100
AcDbEntity
  8
+ Zeichnungen 5
  6
CONTINUOUS
 62
     7
370
    18
100
AcDbLine
 10
114.60189065630598
 20
-183.68443178693414
 30
0.00000000000000
 11
122.19810934369367
 21
-181.73223487973195
 31
0.00000000000000
  0
ARC
  5
56
330
18
100
AcDbEntity
  8
+ Zeichnungen 5
  6
CONTINUOUS
 62
     7
370
    18
100
AcDbCircle
 10
114.08333333333320
 20
-181.66666666666652
 30
0.00000000000000
 40
2.08333333333355
100
AcDbArc
 50
75.58712602252722
 51
284.41287397747215
  0
LINE
  5
57
330
18
100
AcDbEntity
  8
+ Zeichnungen 5
  6
CONTINUOUS
 62
     7
370
    18
100
AcDbLine
 10
122.19810934369367
 20
-181.60109845360091
 30
0.00000000000000
 11
114.60189065630598
 21
-179.64890154639855
 31
0.00000000000000
  0
ARC
  5
58
330
18
100
AcDbEntity
  8
+ Zeichnungen 5
  6
CONTINUOUS
 62
     7
370
    18
100
AcDbCircle
 10
122.71666666666643
 20
-179.58333333333312
 30
0.00000000000000
 40
2.08333333333338
100
AcDbArc
 50
255.58712602252791
 51
104.41287397747401
  0
LINE
  5
59
330
18
100
AcDbEntity
  8
+ Zeichnungen 5
  6
CONTINUOUS
 62
     7
370
    18
100
AcDbLine
 10
114.60189065630598
 20
-179.51776512026751
 30
0.00000000000000
 11
122.19810934369367
 21
-177.56556821306535
 31
0.00000000000000
  0
ARC
  5
5A
330
18
100
AcDbEntity
  8
+ Zeichnungen 5
  6
CONTINUOUS
 62
     7
370
    18
100
AcDbCircle
 10
114.08333333333320
 20
-177.49999999999974
 30
0.00000000000000
 40
2.08333333333338
100
AcDbArc
 50
75.58712602252601
 51
284.41287397747101
  0
LINE
  5
5B
330
18
100
AcDbEntity
  8
+ Zeichnungen 5
  6
CONTINUOUS
 62
     7
370
    18
100
AcDbLine
 10
122.19810934369367
 20
-177.43443178693414
 30
0.00000000000000
 11
114.60189065630598
 21
-175.48223487973195
 31
0.00000000000000
  0
ARC
  5
5C
330
18
100
AcDbEntity
  8
+ Zeichnungen 5
  6
CONTINUOUS
 62
     7
370
    18
100
AcDbCircle
 10
122.71666666666643
 20
-175.41666666666652
 30
0.00000000000000
 40
2.08333333333338
100
AcDbArc
 50
255.58712602252791
 51
104.41287397747401
  0
LINE
  5
5D
330
18
100
AcDbEntity
  8
+ Zeichnungen 5
  6
CONTINUOUS
 62
     7
370
    18
100
AcDbLine
 10
114.60189065630598
 20
-175.35109845360091
 30
0.00000000000000
 11
122.19810934369367
 21
-173.39890154639855
 31
0.00000000000000
  0
ARC
  5
5E
330
18
100
AcDbEntity
  8
+ Zeichnungen 5
  6
CONTINUOUS
 62
     7
370
    18
100
AcDbCircle
 10
114.08333333333320
 20
-173.33333333333312
 30
0.00000000000000
 40
2.08333333333338
100
AcDbArc
 50
75.58712602252601
 51
284.41287397747101
  0
LINE
  5
5F
330
18
100
AcDbEntity
  8
+ Zeichnungen 5
  6
CONTINUOUS
 62
     7
370
    18
100
AcDbLine
 10
122.19810934369367
 20
-173.26776512026754
 30
0.00000000000000
 11
114.60189065630598
 21
-171.31556821306535
 31
0.00000000000000
  0
ARC
  5
60
330
18
100
AcDbEntity
  8
+ Zeichnungen 5
  6
CONTINUOUS
 62
     7
370
    18
100
AcDbCircle
 10
122.71666666666643
 20
-171.24999999999974
 30
0.00000000000000
 40
2.08333333333321
100
AcDbArc
 50
255.58712602252911
 51
104.41287397747523
  0
LINE
  5
61
330
18
100
AcDbEntity
  8
+ Zeichnungen 5
  6
CONTINUOUS
 62
     7
370
    18
100
AcDbLine
 10
114.60189065630598
 20
-171.18443178693411
 30
0.00000000000000
 11
122.19810934369367
 21
-169.23223487973192
 31
0.00000000000000
  0
ARC
  5
62
330
18
100
AcDbEntity
  8
+ Zeichnungen 5
  6
CONTINUOUS
 62
     7
370
    18
100
AcDbCircle
 10
114.08333333333320
 20
-169.16666666666652
 30
0.00000000000000
 40
2.08333333333355
100
AcDbArc
 50
75.58712602252722
 51
284.41287397747220
  0
LINE
  5
63
330
18
100
AcDbEntity
  8
+ Zeichnungen 5
  6
CONTINUOUS
 62
     7
370
    18
100
AcDbLine
 10
122.19810934369367
 20
-169.10109845360091
 30
0.00000000000000
 11
114.60189065630598
 21
-167.14890154639855
 31
0.00000000000000
  0
ARC
  5
64
330
18
100
AcDbEntity
  8
+ Zeichnungen 5
  6
CONTINUOUS
 62
     7
370
    18
100
AcDbCircle
 10
122.71666666666643
 20
-167.08333333333314
 30
0.00000000000000
 40
2.08333333333338
100
AcDbArc
 50
255.58712602252791
 51
104.41287397747401
  0
LINE
  5
65
330
18
100
AcDbEntity
  8
+ Zeichnungen 5
  6
CONTINUOUS
 62
     7
370
    18
100
AcDbLine
 10
114.60189065630598
 20
-167.01776512026754
 30
0.00000000000000
 11
122.19810934369367
 21
-165.06556821306535
 31
0.00000000000000
  0
ARC
  5
66
330
18
100
AcDbEntity
  8
+ Zeichnungen 5
  6
CONTINUOUS
 62
     7
370
    18
100
AcDbCircle
 10
114.08333333333320
 20
-164.99999999999972
 30
0.00000000000000
 40
2.08333333333321
100
AcDbArc
 50
75.58712602252479
 51
284.41287397746976
  0
LINE
  5
67
330
18
100
AcDbEntity
  8
+ Zeichnungen 5
  6
CONTINUOUS
 62
     7
370
    18
100
AcDbLine
 10
122.19810934369367
 20
-164.93443178693411
 30
0.00000000000000
 11
114.60189065630598
 21
-162.98223487973195
 31
0.00000000000000
  0
ARC
  5
68
330
18
100
AcDbEntity
  8
+ Zeichnungen 5
  6
CONTINUOUS
 62
     7
370
    18
100
AcDbCircle
 10
122.71666666666643
 20
-162.91666666666652
 30
0.00000000000000
 40
2.08333333333338
100
AcDbArc
 50
255.58712602252791
 51
104.41287397747401
  0
LINE
  5
69
330
18
100
AcDbEntity
  8
+ Zeichnungen 5
  6
CONTINUOUS
 62
     7
370
    18
100
AcDbLine
 10
114.60189065630598
 20
-162.85109845360091
 30
0.00000000000000
 11
122.19810934369367
 21
-160.89890154639875
 31
0.00000000000000
  0
ARC
  5
6A
330
18
100
AcDbEntity
  8
+ Zeichnungen 5
  6
CONTINUOUS
 62
     7
370
    18
100
AcDbCircle
 10
114.08333333333320
 20
-160.83333333333314
 30
0.00000000000000
 40
2.08333333333338
100
AcDbArc
 50
75.58712602252601
 51
284.41287397746976
  0
LINE
  5
6B
330
18
100
AcDbEntity
  8
+ Zeichnungen 5
  6
CONTINUOUS
 62
     7
370
    18
100
AcDbLine
 10
122.19810934369367
 20
-160.76776512026751
 30
0.00000000000000
 11
114.60189065630598
 21
-158.81556821306532
 31
0.00000000000000
  0
ARC
  5
6C
330
18
100
AcDbEntity
  8
+ Zeichnungen 5
  6
CONTINUOUS
 62
     7
370
    18
100
AcDbCircle
 10
122.71666666666643
 20
-158.74999999999972
 30
0.00000000000000
 40
2.08333333333338
100
AcDbArc
 50
255.58712602252791
 51
104.41287397747401
  0
LINE
  5
6D
330
18
100
AcDbEntity
  8
+ Zeichnungen 5
  6
CONTINUOUS
 62
     7
370
    18
100
AcDbLine
 10
114.60189065630598
 20
-158.68443178693414
 30
0.00000000000000
 11
122.19810934369367
 21
-156.73223487973195
 31
0.00000000000000
  0
ARC
  5
6E
330
18
100
AcDbEntity
  8
+ Zeichnungen 5
  6
CONTINUOUS
 62
     7
370
    18
100
AcDbCircle
 10
114.08333333333320
 20
-156.66666666666652
 30
0.00000000000000
 40
2.08333333333355
100
AcDbArc
 50
75.58712602252722
 51
284.41287397747215
  0
LINE
  5
6F
330
18
100
AcDbEntity
  8
+ Zeichnungen 5
  6
CONTINUOUS
 62
     7
370
    18
100
AcDbLine
 10
122.19810934369367
 20
-156.60109845360091
 30
0.00000000000000
 11
114.60189065630598
 21
-154.64890154639875
 31
0.00000000000000
  0
ARC
  5
70
330
18
100
AcDbEntity
  8
+ Zeichnungen 5
  6
CONTINUOUS
 62
     7
370
    18
100
AcDbCircle
 10
122.71666666666643
 20
-154.58333333333312
 30
0.00000000000000
 40
2.08333333333338
100
AcDbArc
 50
255.58712602252791
 51
104.41287397747401
  0
LINE
  5
71
330
18
100
AcDbEntity
  8
+ Zeichnungen 5
  6
CONTINUOUS
 62
     7
370
    18
100
AcDbLine
 10
114.60189065630598
 20
-154.51776512026751
 30
0.00000000000000
 11
122.19810934369367
 21
-152.56556821306532
 31
0.00000000000000
  0
ARC
  5
72
330
18
100
AcDbEntity
  8
+ Zeichnungen 5
  6
CONTINUOUS
 62
     7
370
    18
100
AcDbCircle
 10
114.08333333333320
 20
-152.49999999999974
 30
0.00000000000000
 40
2.08333333333338
100
AcDbArc
 50
75.58712602252601
 51
284.41287397747089
  0
LINE
  5
73
330
18
100
AcDbEntity
  8
+ Zeichnungen 5
  6
CONTINUOUS
 62
     7
370
    18
100
AcDbLine
 10
122.19810934369367
 20
-152.43443178693414
 30
0.00000000000000
 11
114.60189065630598
 21
-150.48223487973212
 31
0.00000000000000
  0
ARC
  5
74
330
18
100
AcDbEntity
  8
+ Zeichnungen 5
  6
CONTINUOUS
 62
     7
370
    18
100
AcDbCircle
 10
122.71666666666643
 20
-150.41666666666652
 30
0.00000000000000
 40
2.08333333333355
100
AcDbArc
 50
255.58712602252666
 51
104.41287397747278
  0
LINE
  5
75
330
18
100
AcDbEntity
  8
+ Zeichnungen 5
  6
CONTINUOUS
 62
     7
370
    18
100
AcDbLine
 10
114.60189065630598
 20
-150.35109845360091
 30
0.00000000000000
 11
122.19810934369367
 21
-148.39890154639855
 31
0.00000000000000
  0
ARC
  5
76
330
18
100
AcDbEntity
  8
+ Zeichnungen 5
  6
CONTINUOUS
 62
     7
370
    18
100
AcDbCircle
 10
114.08333333333320
 20
-148.33333333333312
 30
0.00000000000000
 40
2.08333333333338
100
AcDbArc
 50
75.58712602252601
 51
284.41287397747215
  0
LINE
  5
77
330
18
100
AcDbEntity
  8
+ Zeichnungen 5
  6
CONTINUOUS
 62
     7
370
    18
100
AcDbLine
 10
122.19810934369367
 20
-148.26776512026751
 30
0.00000000000000
 11
114.60189065630598
 21
-146.31556821306532
 31
0.00000000000000
  0
ARC
  5
78
330
18
100
AcDbEntity
  8
+ Zeichnungen 5
  6
CONTINUOUS
 62
     7
370
    18
100
AcDbCircle
 10
122.71666666666643
 20
-146.24999999999974
 30
0.00000000000000
 40
2.08333333333321
100
AcDbArc
 50
255.58712602252911
 51
104.41287397747523
  0
LINE
  5
79
330
18
100
AcDbEntity
  8
+ Zeichnungen 5
  6
CONTINUOUS
 62
     7
370
    18
100
AcDbLine
 10
114.60189065630598
 20
-146.18443178693414
 30
0.00000000000000
 11
122.19810934369367
 21
-144.23223487973212
 31
0.00000000000000
  0
ARC
  5
7A
330
18
100
AcDbEntity
  8
+ Zeichnungen 5
  6
CONTINUOUS
 62
     7
370
    18
100
AcDbCircle
 10
114.08333333333320
 20
-144.16666666666652
 30
0.00000000000000
 40
2.08333333333355
100
AcDbArc
 50
75.58712602252722
 51
284.41287397747095
  0
LINE
  5
7B
330
18
100
AcDbEntity
  8
+ Zeichnungen 5
  6
CONTINUOUS
 62
     7
370
    18
100
AcDbLine
 10
122.19810934369367
 20
-144.10109845360091
 30
0.00000000000000
 11
114.60189065630598
 21
-142.14890154639855
 31
0.00000000000000
  0
ARC
  5
7C
330
18
100
AcDbEntity
  8
+ Zeichnungen 5
  6
CONTINUOUS
 62
     7
370
    18
100
AcDbCircle
 10
122.71666666666643
 20
-142.08333333333294
 30
0.00000000000000
 40
2.08333333333321
100
AcDbArc
 50
255.58712602252911
 51
104.41287397747523
  0
LINE
  5
7D
330
18
100
AcDbEntity
  8
+ Zeichnungen 5
  6
CONTINUOUS
 62
     7
370
    18
100
AcDbLine
 10
114.60189065630598
 20
-142.01776512026751
 30
0.00000000000000
 11
122.19810934369367
 21
-140.06556821306535
 31
0.00000000000000
  0
ARC
  5
7E
330
18
100
AcDbEntity
  8
+ Zeichnungen 5
  6
CONTINUOUS
 62
     7
370
    18
100
AcDbCircle
 10
114.08333333333320
 20
-139.99999999999974
 30
0.00000000000000
 40
2.08333333333321
100
AcDbArc
 50
180.00000000000000
 51
284.41287397747305
  0
ENDBLK
  5
7F
330
18
100
AcDbEntity
  8
0
100
AcDbBlockEnd
  0
BLOCK
  5
80
330
19
100
AcDbEntity
  8
0
100
AcDbBlockBegin
  2
*U2
 70
     1
 10
0.00000000000000
 20
0.00000000000000
 30
0.00000000000000
  3
*U2
  1

  0
ARC
  5
81
330
19
100
AcDbEntity
  8
+ Zeichnungen 5
  6
CONTINUOUS
 62
     7
370
    18
100
AcDbCircle
 10
68.91666666666640
 20
-189.99999999999972
 30
0.00000000000000
 40
2.08333333333321
100
AcDbArc
 50
0.00000000000000
 51
104.41287397747189
  0
LINE
  5
82
330
19
100
AcDbEntity
  8
+ Zeichnungen 5
  6
CONTINUOUS
 62
     7
370
    18
100
AcDbLine
 10
68.39810934369363
 20
-187.98223487973195
 30
0.00000000000000
 11
60.80189065630595
 21
-189.93443178693414
 31
0.00000000000000
  0
ARC
  5
83
330
19
100
AcDbEntity
  8
+ Zeichnungen 5
  6
CONTINUOUS
 62
     7
370
    18
100
AcDbCircle
 10
60.28333333333318
 20
-187.91666666666652
 30
0.00000000000000
 40
2.08333333333321
100
AcDbArc
 50
75.58712602252911
 51
284.41287397747521
  0
LINE
  5
84
330
19
100
AcDbEntity
  8
+ Zeichnungen 5
  6
CONTINUOUS
 62
     7
370
    18
100
AcDbLine
 10
60.80189065630595
 20
-185.89890154639855
 30
0.00000000000000
 11
68.39810934369363
 21
-187.85109845360091
 31
0.00000000000000
  0
ARC
  5
85
330
19
100
AcDbEntity
  8
+ Zeichnungen 5
  6
CONTINUOUS
 62
     7
370
    18
100
AcDbCircle
 10
68.91666666666640
 20
-185.83333333333312
 30
0.00000000000000
 40
2.08333333333338
100
AcDbArc
 50
255.58712602252598
 51
104.41287397747089
  0
LINE
  5
86
330
19
100
AcDbEntity
  8
+ Zeichnungen 5
  6
CONTINUOUS
 62
     7
370
    18
100
AcDbLine
 10
68.39810934369363
 20
-183.81556821306532
 30
0.00000000000000
 11
60.80189065630595
 21
-185.76776512026751
 31
0.00000000000000
  0
ARC
  5
87
330
19
100
AcDbEntity
  8
+ Zeichnungen 5
  6
CONTINUOUS
 62
     7
370
    18
100
AcDbCircle
 10
60.28333333333318
 20
-183.74999999999974
 30
0.00000000000000
 40
2.08333333333338
100
AcDbArc
 50
75.58712602252786
 51
284.41287397747396
  0
LINE
  5
88
330
19
100
AcDbEntity
  8
+ Zeichnungen 5
  6
CONTINUOUS
 62
     7
370
    18
100
AcDbLine
 10
60.80189065630595
 20
-181.73223487973195
 30
0.00000000000000
 11
68.39810934369363
 21
-183.68443178693414
 31
0.00000000000000
  0
ARC
  5
89
330
19
100
AcDbEntity
  8
+ Zeichnungen 5
  6
CONTINUOUS
 62
     7
370
    18
100
AcDbCircle
 10
68.91666666666640
 20
-181.66666666666652
 30
0.00000000000000
 40
2.08333333333321
100
AcDbArc
 50
255.58712602252479
 51
104.41287397746970
  0
LINE
  5
8A
330
19
100
AcDbEntity
  8
+ Zeichnungen 5
  6
CONTINUOUS
 62
     7
370
    18
100
AcDbLine
 10
68.39810934369363
 20
-179.64890154639855
 30
0.00000000000000
 11
60.80189065630595
 21
-181.60109845360091
 31
0.00000000000000
  0
ARC
  5
8B
330
19
100
AcDbEntity
  8
+ Zeichnungen 5
  6
CONTINUOUS
 62
     7
370
    18
100
AcDbCircle
 10
60.28333333333318
 20
-179.58333333333312
 30
0.00000000000000
 40
2.08333333333338
100
AcDbArc
 50
75.58712602252786
 51
284.41287397747396
  0
LINE
  5
8C
330
19
100
AcDbEntity
  8
+ Zeichnungen 5
  6
CONTINUOUS
 62
     7
370
    18
100
AcDbLine
 10
60.80189065630595
 20
-177.56556821306535
 30
0.00000000000000
 11
68.39810934369363
 21
-179.51776512026751
 31
0.00000000000000
  0
ARC
  5
8D
330
19
100
AcDbEntity
  8
+ Zeichnungen 5
  6
CONTINUOUS
 62
     7
370
    18
100
AcDbCircle
 10
68.91666666666640
 20
-177.49999999999974
 30
0.00000000000000
 40
2.08333333333338
100
AcDbArc
 50
255.58712602252598
 51
104.41287397747095
  0
LINE
  5
8E
330
19
100
AcDbEntity
  8
+ Zeichnungen 5
  6
CONTINUOUS
 62
     7
370
    18
100
AcDbLine
 10
68.39810934369363
 20
-175.48223487973195
 30
0.00000000000000
 11
60.80189065630595
 21
-177.43443178693414
 31
0.00000000000000
  0
ARC
  5
8F
330
19
100
AcDbEntity
  8
+ Zeichnungen 5
  6
CONTINUOUS
 62
     7
370
    18
100
AcDbCircle
 10
60.28333333333318
 20
-175.41666666666652
 30
0.00000000000000
 40
2.08333333333321
100
AcDbArc
 50
75.58712602252911
 51
284.41287397747521
  0
LINE
  5
90
330
19
100
AcDbEntity
  8
+ Zeichnungen 5
  6
CONTINUOUS
 62
     7
370
    18
100
AcDbLine
 10
60.80189065630595
 20
-173.39890154639855
 30
0.00000000000000
 11
68.39810934369363
 21
-175.35109845360091
 31
0.00000000000000
  0
ARC
  5
91
330
19
100
AcDbEntity
  8
+ Zeichnungen 5
  6
CONTINUOUS
 62
     7
370
    18
100
AcDbCircle
 10
68.91666666666640
 20
-173.33333333333312
 30
0.00000000000000
 40
2.08333333333338
100
AcDbArc
 50
255.58712602252598
 51
104.41287397747095
  0
LINE
  5
92
330
19
100
AcDbEntity
  8
+ Zeichnungen 5
  6
CONTINUOUS
 62
     7
370
    18
100
AcDbLine
 10
68.39810934369363
 20
-171.31556821306535
 30
0.00000000000000
 11
60.80189065630595
 21
-173.26776512026754
 31
0.00000000000000
  0
ARC
  5
93
330
19
100
AcDbEntity
  8
+ Zeichnungen 5
  6
CONTINUOUS
 62
     7
370
    18
100
AcDbCircle
 10
60.28333333333318
 20
-171.24999999999974
 30
0.00000000000000
 40
2.08333333333338
100
AcDbArc
 50
75.58712602252786
 51
284.41287397747396
  0
LINE
  5
94
330
19
100
AcDbEntity
  8
+ Zeichnungen 5
  6
CONTINUOUS
 62
     7
370
    18
100
AcDbLine
 10
60.80189065630595
 20
-169.23223487973192
 30
0.00000000000000
 11
68.39810934369363
 21
-171.18443178693411
 31
0.00000000000000
  0
ARC
  5
95
330
19
100
AcDbEntity
  8
+ Zeichnungen 5
  6
CONTINUOUS
 62
     7
370
    18
100
AcDbCircle
 10
68.91666666666640
 20
-169.16666666666652
 30
0.00000000000000
 40
2.08333333333321
100
AcDbArc
 50
255.58712602252479
 51
104.41287397746976
  0
LINE
  5
96
330
19
100
AcDbEntity
  8
+ Zeichnungen 5
  6
CONTINUOUS
 62
     7
370
    18
100
AcDbLine
 10
68.39810934369363
 20
-167.14890154639855
 30
0.00000000000000
 11
60.80189065630595
 21
-169.10109845360091
 31
0.00000000000000
  0
ARC
  5
97
330
19
100
AcDbEntity
  8
+ Zeichnungen 5
  6
CONTINUOUS
 62
     7
370
    18
100
AcDbCircle
 10
60.28333333333318
 20
-167.08333333333314
 30
0.00000000000000
 40
2.08333333333338
100
AcDbArc
 50
75.58712602252786
 51
284.41287397747396
  0
LINE
  5
98
330
19
100
AcDbEntity
  8
+ Zeichnungen 5
  6
CONTINUOUS
 62
     7
370
    18
100
AcDbLine
 10
60.80189065630595
 20
-165.06556821306535
 30
0.00000000000000
 11
68.39810934369363
 21
-167.01776512026754
 31
0.00000000000000
  0
ARC
  5
99
330
19
100
AcDbEntity
  8
+ Zeichnungen 5
  6
CONTINUOUS
 62
     7
370
    18
100
AcDbCircle
 10
68.91666666666640
 20
-164.99999999999972
 30
0.00000000000000
 40
2.08333333333338
100
AcDbArc
 50
255.58712602252598
 51
104.41287397747095
  0
LINE
  5
9A
330
19
100
AcDbEntity
  8
+ Zeichnungen 5
  6
CONTINUOUS
 62
     7
370
    18
100
AcDbLine
 10
68.39810934369363
 20
-162.98223487973195
 30
0.00000000000000
 11
60.80189065630595
 21
-164.93443178693411
 31
0.00000000000000
  0
ARC
  5
9B
330
19
100
AcDbEntity
  8
+ Zeichnungen 5
  6
CONTINUOUS
 62
     7
370
    18
100
AcDbCircle
 10
60.28333333333318
 20
-162.91666666666652
 30
0.00000000000000
 40
2.08333333333321
100
AcDbArc
 50
75.58712602252911
 51
284.41287397747521
  0
LINE
  5
9C
330
19
100
AcDbEntity
  8
+ Zeichnungen 5
  6
CONTINUOUS
 62
     7
370
    18
100
AcDbLine
 10
60.80189065630595
 20
-160.89890154639855
 30
0.00000000000000
 11
68.39810934369363
 21
-162.85109845360091
 31
0.00000000000000
  0
ARC
  5
9D
330
19
100
AcDbEntity
  8
+ Zeichnungen 5
  6
CONTINUOUS
 62
     7
370
    18
100
AcDbCircle
 10
68.91666666666640
 20
-160.83333333333314
 30
0.00000000000000
 40
2.08333333333338
100
AcDbArc
 50
255.58712602252598
 51
104.41287397746976
  0
LINE
  5
9E
330
19
100
AcDbEntity
  8
+ Zeichnungen 5
  6
CONTINUOUS
 62
     7
370
    18
100
AcDbLine
 10
68.39810934369363
 20
-158.81556821306532
 30
0.00000000000000
 11
60.80189065630595
 21
-160.76776512026751
 31
0.00000000000000
  0
ARC
  5
9F
330
19
100
AcDbEntity
  8
+ Zeichnungen 5
  6
CONTINUOUS
 62
     7
370
    18
100
AcDbCircle
 10
60.28333333333318
 20
-158.74999999999972
 30
0.00000000000000
 40
2.08333333333338
100
AcDbArc
 50
75.58712602252786
 51
284.41287397747396
  0
LINE
  5
A0
330
19
100
AcDbEntity
  8
+ Zeichnungen 5
  6
CONTINUOUS
 62
     7
370
    18
100
AcDbLine
 10
60.80189065630595
 20
-156.73223487973195
 30
0.00000000000000
 11
68.39810934369363
 21
-158.68443178693414
 31
0.00000000000000
  0
ARC
  5
A1
330
19
100
AcDbEntity
  8
+ Zeichnungen 5
  6
CONTINUOUS
 62
     7
370
    18
100
AcDbCircle
 10
68.91666666666640
 20
-156.66666666666652
 30
0.00000000000000
 40
2.08333333333321
100
AcDbArc
 50
255.58712602252479
 51
104.41287397746970
  0
LINE
  5
A2
330
19
100
AcDbEntity
  8
+ Zeichnungen 5
  6
CONTINUOUS
 62
     7
370
    18
100
AcDbLine
 10
68.39810934369363
 20
-154.64890154639875
 30
0.00000000000000
 11
60.80189065630595
 21
-156.60109845360091
 31
0.00000000000000
  0
ARC
  5
A3
330
19
100
AcDbEntity
  8
+ Zeichnungen 5
  6
CONTINUOUS
 62
     7
370
    18
100
AcDbCircle
 10
60.28333333333318
 20
-154.58333333333312
 30
0.00000000000000
 40
2.08333333333338
100
AcDbArc
 50
75.58712602252786
 51
284.41287397747396
  0
LINE
  5
A4
330
19
100
AcDbEntity
  8
+ Zeichnungen 5
  6
CONTINUOUS
 62
     7
370
    18
100
AcDbLine
 10
60.80189065630595
 20
-152.56556821306532
 30
0.00000000000000
 11
68.39810934369363
 21
-154.51776512026751
 31
0.00000000000000
  0
ARC
  5
A5
330
19
100
AcDbEntity
  8
+ Zeichnungen 5
  6
CONTINUOUS
 62
     7
370
    18
100
AcDbCircle
 10
68.91666666666640
 20
-152.49999999999974
 30
0.00000000000000
 40
2.08333333333338
100
AcDbArc
 50
255.58712602252598
 51
104.41287397747089
  0
LINE
  5
A6
330
19
100
AcDbEntity
  8
+ Zeichnungen 5
  6
CONTINUOUS
 62
     7
370
    18
100
AcDbLine
 10
68.39810934369363
 20
-150.48223487973212
 30
0.00000000000000
 11
60.80189065630595
 21
-152.43443178693414
 31
0.00000000000000
  0
ARC
  5
A7
330
19
100
AcDbEntity
  8
+ Zeichnungen 5
  6
CONTINUOUS
 62
     7
370
    18
100
AcDbCircle
 10
60.28333333333318
 20
-150.41666666666652
 30
0.00000000000000
 40
2.08333333333321
100
AcDbArc
 50
75.58712602252911
 51
284.41287397747521
  0
LINE
  5
A8
330
19
100
AcDbEntity
  8
+ Zeichnungen 5
  6
CONTINUOUS
 62
     7
370
    18
100
AcDbLine
 10
60.80189065630595
 20
-148.39890154639855
 30
0.00000000000000
 11
68.39810934369363
 21
-150.35109845360091
 31
0.00000000000000
  0
ARC
  5
A9
330
19
100
AcDbEntity
  8
+ Zeichnungen 5
  6
CONTINUOUS
 62
     7
370
    18
100
AcDbCircle
 10
68.91666666666640
 20
-148.33333333333312
 30
0.00000000000000
 40
2.08333333333338
100
AcDbArc
 50
255.58712602252598
 51
104.41287397747215
  0
LINE
  5
AA
330
19
100
AcDbEntity
  8
+ Zeichnungen 5
  6
CONTINUOUS
 62
     7
370
    18
100
AcDbLine
 10
68.39810934369363
 20
-146.31556821306532
 30
0.00000000000000
 11
60.80189065630595
 21
-148.26776512026751
 31
0.00000000000000
  0
ARC
  5
AB
330
19
100
AcDbEntity
  8
+ Zeichnungen 5
  6
CONTINUOUS
 62
     7
370
    18
100
AcDbCircle
 10
60.28333333333318
 20
-146.24999999999974
 30
0.00000000000000
 40
2.08333333333338
100
AcDbArc
 50
75.58712602252786
 51
284.41287397747396
  0
LINE
  5
AC
330
19
100
AcDbEntity
  8
+ Zeichnungen 5
  6
CONTINUOUS
 62
     7
370
    18
100
AcDbLine
 10
60.80189065630595
 20
-144.23223487973212
 30
0.00000000000000
 11
68.39810934369363
 21
-146.18443178693414
 31
0.00000000000000
  0
ARC
  5
AD
330
19
100
AcDbEntity
  8
+ Zeichnungen 5
  6
CONTINUOUS
 62
     7
370
    18
100
AcDbCircle
 10
68.91666666666640
 20
-144.16666666666652
 30
0.00000000000000
 40
2.08333333333321
100
AcDbArc
 50
255.58712602252479
 51
104.41287397746851
  0
LINE
  5
AE
330
19
100
AcDbEntity
  8
+ Zeichnungen 5
  6
CONTINUOUS
 62
     7
370
    18
100
AcDbLine
 10
68.39810934369363
 20
-142.14890154639855
 30
0.00000000000000
 11
60.80189065630595
 21
-144.10109845360091
 31
0.00000000000000
  0
ARC
  5
AF
330
19
100
AcDbEntity
  8
+ Zeichnungen 5
  6
CONTINUOUS
 62
     7
370
    18
100
AcDbCircle
 10
60.28333333333318
 20
-142.08333333333294
 30
0.00000000000000
 40
2.08333333333355
100
AcDbArc
 50
75.58712602252666
 51
284.41287397747277
  0
LINE
  5
B0
330
19
100
AcDbEntity
  8
+ Zeichnungen 5
  6
CONTINUOUS
 62
     7
370
    18
100
AcDbLine
 10
60.80189065630595
 20
-140.06556821306535
 30
0.00000000000000
 11
68.39810934369363
 21
-142.01776512026751
 31
0.00000000000000
  0
ARC
  5
B1
330
19
100
AcDbEntity
  8
+ Zeichnungen 5
  6
CONTINUOUS
 62
     7
370
    18
100
AcDbCircle
 10
68.91666666666640
 20
-139.99999999999974
 30
0.00000000000000
 40
2.08333333333338
100
AcDbArc
 50
255.58712602252598
 51
359.99999999999903
  0
ENDBLK
  5
B2
330
19
100
AcDbEntity
  8
0
100
AcDbBlockEnd
  0
BLOCK
  5
B3
330
1A
100
AcDbEntity
  8
0
100
AcDbBlockBegin
  2
*U3
 70
     1
 10
0.00000000000000
 20
0.00000000000000
 30
0.00000000000000
  3
*U3
  1

  0
ARC
  5
B4
330
1A
100
AcDbEntity
  8
+ Zeichnungen 5
  6
CONTINUOUS
 62
     7
370
    18
100
AcDbCircle
 10
54.99999999999997
 20
-139.01351351351329
 30
0.00000000000000
 40
0.98648648648645
100
AcDbArc
 50
270.00000000000000
 51
14.65106557907438
  0
LINE
  5
B5
330
1A
100
AcDbEntity
  8
+ Zeichnungen 5
  6
CONTINUOUS
 62
     7
370
    18
100
AcDbLine
 10
55.95441001638503
 20
-138.76399976911426
 30
0.00000000000000
 11
55.03207647010083
 21
-135.23600023088522
 31
0.00000000000000
  0
ARC
  5
B6
330
1A
100
AcDbEntity
  8
+ Zeichnungen 5
  6
CONTINUOUS
 62
     7
370
    18
100
AcDbCircle
 10
55.98648648648624
 20
-134.98648648648623
 30
0.00000000000000
 40
0.98648648648667
100
AcDbArc
 50
345.34893442092300
 51
194.65106557907177
  0
LINE
  5
B7
330
1A
100
AcDbEntity
  8
+ Zeichnungen 5
  6
CONTINUOUS
 62
     7
370
    18
100
AcDbLine
 10
56.94089650287165
 20
-135.23600023088522
 30
0.00000000000000
 11
56.01856295658746
 21
-138.76399976911426
 31
0.00000000000000
  0
ARC
  5
B8
330
1A
100
AcDbEntity
  8
+ Zeichnungen 5
  6
CONTINUOUS
 62
     7
370
    18
100
AcDbCircle
 10
56.97297297297287
 20
-139.01351351351329
 30
0.00000000000000
 40
0.98648648648667
100
AcDbArc
 50
165.34893442092823
 51
14.65106557907700
  0
LINE
  5
B9
330
1A
100
AcDbEntity
  8
+ Zeichnungen 5
  6
CONTINUOUS
 62
     7
370
    18
100
AcDbLine
 10
57.92738298935793
 20
-138.76399976911426
 30
0.00000000000000
 11
57.00504944307409
 21
-135.23600023088514
 31
0.00000000000000
  0
ARC
  5
BA
330
1A
100
AcDbEntity
  8
+ Zeichnungen 5
  6
CONTINUOUS
 62
     7
370
    18
100
AcDbCircle
 10
57.95945945945950
 20
-134.98648648648623
 30
0.00000000000000
 40
0.98648648648665
100
AcDbArc
 50
345.34893442092300
 51
194.65106557906680
  0
LINE
  5
BB
330
1A
100
AcDbEntity
  8
+ Zeichnungen 5
  6
CONTINUOUS
 62
     7
370
    18
100
AcDbLine
 10
58.91386947584455
 20
-135.23600023088522
 30
0.00000000000000
 11
57.99153592956072
 21
-138.76399976911418
 31
0.00000000000000
  0
ARC
  5
BC
330
1A
100
AcDbEntity
  8
+ Zeichnungen 5
  6
CONTINUOUS
 62
     7
370
    18
100
AcDbCircle
 10
58.94594594594577
 20
-139.01351351351329
 30
0.00000000000000
 40
0.98648648648635
100
AcDbArc
 50
165.34893442091803
 51
14.65106557907183
  0
LINE
  5
BD
330
1A
100
AcDbEntity
  8
+ Zeichnungen 5
  6
CONTINUOUS
 62
     7
370
    18
100
AcDbLine
 10
59.90035596233082
 20
-138.76399976911426
 30
0.00000000000000
 11
58.97802241604698
 21
-135.23600023088522
 31
0.00000000000000
  0
ARC
  5
BE
330
1A
100
AcDbEntity
  8
+ Zeichnungen 5
  6
CONTINUOUS
 62
     7
370
    18
100
AcDbCircle
 10
59.93243243243239
 20
-134.98648648648623
 30
0.00000000000000
 40
0.98648648648667
100
AcDbArc
 50
345.34893442092300
 51
194.65106557907177
  0
LINE
  5
BF
330
1A
100
AcDbEntity
  8
+ Zeichnungen 5
  6
CONTINUOUS
 62
     7
370
    18
100
AcDbLine
 10
60.88684244881744
 20
-135.23600023088522
 30
0.00000000000000
 11
59.96450890253361
 21
-138.76399976911426
 31
0.00000000000000
  0
ARC
  5
C0
330
1A
100
AcDbEntity
  8
+ Zeichnungen 5
  6
CONTINUOUS
 62
     7
370
    18
100
AcDbCircle
 10
60.91891891891865
 20
-139.01351351351329
 30
0.00000000000000
 40
0.98648648648631
100
AcDbArc
 50
165.34893442092283
 51
14.65106557907291
  0
LINE
  5
C1
330
1A
100
AcDbEntity
  8
+ Zeichnungen 5
  6
CONTINUOUS
 62
     7
370
    18
100
AcDbLine
 10
61.87332893530406
 20
-138.76399976911426
 30
0.00000000000000
 11
60.95099538901987
 21
-135.23600023088531
 31
0.00000000000000
  0
ARC
  5
C2
330
1A
100
AcDbEntity
  8
+ Zeichnungen 5
  6
CONTINUOUS
 62
     7
370
    18
100
AcDbCircle
 10
61.90540540540493
 20
-134.98648648648623
 30
0.00000000000000
 40
0.98648648648635
100
AcDbArc
 50
345.34893442093312
 51
194.65106557908197
  0
LINE
  5
C3
330
1A
100
AcDbEntity
  8
+ Zeichnungen 5
  6
CONTINUOUS
 62
     7
370
    18
100
AcDbLine
 10
62.85981542179034
 20
-135.23600023088514
 30
0.00000000000000
 11
61.93748187550649
 21
-138.76399976911426
 31
0.00000000000000
  0
ARC
  5
C4
330
1A
100
AcDbEntity
  8
+ Zeichnungen 5
  6
CONTINUOUS
 62
     7
370
    18
100
AcDbCircle
 10
62.89189189189155
 20
-139.01351351351329
 30
0.00000000000000
 40
0.98648648648633
100
AcDbArc
 50
165.34893442092300
 51
14.65106557907177
  0
LINE
  5
C5
330
1A
100
AcDbEntity
  8
+ Zeichnungen 5
  6
CONTINUOUS
 62
     7
370
    18
100
AcDbLine
 10
63.84630190827696
 20
-138.76399976911426
 30
0.00000000000000
 11
62.92396836199313
 21
-135.23600023088522
 31
0.00000000000000
  0
ARC
  5
C6
330
1A
100
AcDbEntity
  8
+ Zeichnungen 5
  6
CONTINUOUS
 62
     7
370
    18
100
AcDbCircle
 10
63.87837837837817
 20
-134.98648648648623
 30
0.00000000000000
 40
0.98648648648633
100
AcDbArc
 50
345.34893442092823
 51
194.65106557907700
  0
LINE
  5
C7
330
1A
100
AcDbEntity
  8
+ Zeichnungen 5
  6
CONTINUOUS
 62
     7
370
    18
100
AcDbLine
 10
64.83278839476324
 20
-135.23600023088522
 30
0.00000000000000
 11
63.91045484847939
 21
-138.76399976911426
 31
0.00000000000000
  0
ARC
  5
C8
330
1A
100
AcDbEntity
  8
+ Zeichnungen 5
  6
CONTINUOUS
 62
     7
370
    18
100
AcDbCircle
 10
64.86486486486480
 20
-139.01351351351329
 30
0.00000000000000
 40
0.98648648648667
100
AcDbArc
 50
165.34893442092823
 51
14.65106557907700
  0
LINE
  5
C9
330
1A
100
AcDbEntity
  8
+ Zeichnungen 5
  6
CONTINUOUS
 62
     7
370
    18
100
AcDbLine
 10
65.81927488124985
 20
-138.76399976911426
 30
0.00000000000000
 11
64.89694133496603
 21
-135.23600023088514
 31
0.00000000000000
  0
ARC
  5
CA
330
1A
100
AcDbEntity
  8
+ Zeichnungen 5
  6
CONTINUOUS
 62
     7
370
    18
100
AcDbCircle
 10
65.85135135135144
 20
-134.98648648648623
 30
0.00000000000000
 40
0.98648648648665
100
AcDbArc
 50
345.34893442092300
 51
194.65106557906680
  0
LINE
  5
CB
330
1A
100
AcDbEntity
  8
+ Zeichnungen 5
  6
CONTINUOUS
 62
     7
370
    18
100
AcDbLine
 10
66.80576136773648
 20
-135.23600023088522
 30
0.00000000000000
 11
65.88342782145229
 21
-138.76399976911418
 31
0.00000000000000
  0
ARC
  5
CC
330
1A
100
AcDbEntity
  8
+ Zeichnungen 5
  6
CONTINUOUS
 62
     7
370
    18
100
AcDbCircle
 10
66.83783783783770
 20
-139.01351351351329
 30
0.00000000000000
 40
0.98648648648669
100
AcDbArc
 50
165.34893442092323
 51
14.65106557907700
  0
LINE
  5
CD
330
1A
100
AcDbEntity
  8
+ Zeichnungen 5
  6
CONTINUOUS
 62
     7
370
    18
100
AcDbLine
 10
67.79224785422277
 20
-138.76399976911426
 30
0.00000000000000
 11
66.86991430793891
 21
-135.23600023088514
 31
0.00000000000000
  0
ARC
  5
CE
330
1A
100
AcDbEntity
  8
+ Zeichnungen 5
  6
CONTINUOUS
 62
     7
370
    18
100
AcDbCircle
 10
67.82432432432432
 20
-134.98648648648623
 30
0.00000000000000
 40
0.98648648648665
100
AcDbArc
 50
345.34893442092300
 51
194.65106557906680
  0
LINE
  5
CF
330
1A
100
AcDbEntity
  8
+ Zeichnungen 5
  6
CONTINUOUS
 62
     7
370
    18
100
AcDbLine
 10
68.77873434070938
 20
-135.23600023088522
 30
0.00000000000000
 11
67.85640079442555
 21
-138.76399976911418
 31
0.00000000000000
  0
ARC
  5
D0
330
1A
100
AcDbEntity
  8
+ Zeichnungen 5
  6
CONTINUOUS
 62
     7
370
    18
100
AcDbCircle
 10
68.81081081081059
 20
-139.01351351351329
 30
0.00000000000000
 40
0.98648648648635
100
AcDbArc
 50
165.34893442091803
 51
14.65106557907183
  0
LINE
  5
D1
330
1A
100
AcDbEntity
  8
+ Zeichnungen 5
  6
CONTINUOUS
 62
     7
370
    18
100
AcDbLine
 10
69.76522082719565
 20
-138.76399976911426
 30
0.00000000000000
 11
68.84288728091181
 21
-135.23600023088522
 31
0.00000000000000
  0
ARC
  5
D2
330
1A
100
AcDbEntity
  8
+ Zeichnungen 5
  6
CONTINUOUS
 62
     7
370
    18
100
AcDbCircle
 10
69.79729729729722
 20
-134.98648648648623
 30
0.00000000000000
 40
0.98648648648667
100
AcDbArc
 50
345.34893442092300
 51
194.65106557907177
  0
LINE
  5
D3
330
1A
100
AcDbEntity
  8
+ Zeichnungen 5
  6
CONTINUOUS
 62
     7
370
    18
100
AcDbLine
 10
70.75170731368229
 20
-135.23600023088522
 30
0.00000000000000
 11
69.82937376739844
 21
-138.76399976911426
 31
0.00000000000000
  0
ARC
  5
D4
330
1A
100
AcDbEntity
  8
+ Zeichnungen 5
  6
CONTINUOUS
 62
     7
370
    18
100
AcDbCircle
 10
70.78378378378349
 20
-139.01351351351329
 30
0.00000000000000
 40
0.98648648648633
100
AcDbArc
 50
165.34893442092300
 51
14.65106557907313
  0
LINE
  5
D5
330
1A
100
AcDbEntity
  8
+ Zeichnungen 5
  6
CONTINUOUS
 62
     7
370
    18
100
AcDbLine
 10
71.73819380016890
 20
-138.76399976911426
 30
0.00000000000000
 11
70.81586025388471
 21
-135.23600023088531
 31
0.00000000000000
  0
ARC
  5
D6
330
1A
100
AcDbEntity
  8
+ Zeichnungen 5
  6
CONTINUOUS
 62
     7
370
    18
100
AcDbCircle
 10
71.77027027026976
 20
-134.98648648648623
 30
0.00000000000000
 40
0.98648648648635
100
AcDbArc
 50
345.34893442093312
 51
194.65106557908197
  0
LINE
  5
D7
330
1A
100
AcDbEntity
  8
+ Zeichnungen 5
  6
CONTINUOUS
 62
     7
370
    18
100
AcDbLine
 10
72.72468028665517
 20
-135.23600023088514
 30
0.00000000000000
 11
71.80234674037133
 21
-138.76399976911426
 31
0.00000000000000
  0
ARC
  5
D8
330
1A
100
AcDbEntity
  8
+ Zeichnungen 5
  6
CONTINUOUS
 62
     7
370
    18
100
AcDbCircle
 10
72.75675675675640
 20
-139.01351351351329
 30
0.00000000000000
 40
0.98648648648633
100
AcDbArc
 50
165.34893442092300
 51
14.65106557907177
  0
LINE
  5
D9
330
1A
100
AcDbEntity
  8
+ Zeichnungen 5
  6
CONTINUOUS
 62
     7
370
    18
100
AcDbLine
 10
73.71116677314181
 20
-138.76399976911426
 30
0.00000000000000
 11
72.78883322685796
 21
-135.23600023088522
 31
0.00000000000000
  0
ARC
  5
DA
330
1A
100
AcDbEntity
  8
+ Zeichnungen 5
  6
CONTINUOUS
 62
     7
370
    18
100
AcDbCircle
 10
73.74324324324302
 20
-134.98648648648623
 30
0.00000000000000
 40
0.98648648648633
100
AcDbArc
 50
345.34893442092823
 51
194.65106557907700
  0
LINE
  5
DB
330
1A
100
AcDbEntity
  8
+ Zeichnungen 5
  6
CONTINUOUS
 62
     7
370
    18
100
AcDbLine
 10
74.69765325962807
 20
-135.23600023088522
 30
0.00000000000000
 11
73.77531971334423
 21
-138.76399976911426
 31
0.00000000000000
  0
ARC
  5
DC
330
1A
100
AcDbEntity
  8
+ Zeichnungen 5
  6
CONTINUOUS
 62
     7
370
    18
100
AcDbCircle
 10
74.72972972972964
 20
-139.01351351351329
 30
0.00000000000000
 40
0.98648648648667
100
AcDbArc
 50
165.34893442092823
 51
14.65106557907700
  0
LINE
  5
DD
330
1A
100
AcDbEntity
  8
+ Zeichnungen 5
  6
CONTINUOUS
 62
     7
370
    18
100
AcDbLine
 10
75.68413974611471
 20
-138.76399976911426
 30
0.00000000000000
 11
74.76180619983086
 21
-135.23600023088514
 31
0.00000000000000
  0
ARC
  5
DE
330
1A
100
AcDbEntity
  8
+ Zeichnungen 5
  6
CONTINUOUS
 62
     7
370
    18
100
AcDbCircle
 10
75.71621621621627
 20
-134.98648648648623
 30
0.00000000000000
 40
0.98648648648665
100
AcDbArc
 50
345.34893442091800
 51
194.65106557906680
  0
LINE
  5
DF
330
1A
100
AcDbEntity
  8
+ Zeichnungen 5
  6
CONTINUOUS
 62
     7
370
    18
100
AcDbLine
 10
76.67062623260134
 20
-135.23600023088531
 30
0.00000000000000
 11
75.74829268631713
 21
-138.76399976911426
 31
0.00000000000000
  0
ARC
  5
E0
330
1A
100
AcDbEntity
  8
+ Zeichnungen 5
  6
CONTINUOUS
 62
     7
370
    18
100
AcDbCircle
 10
76.70270270270254
 20
-139.01351351351329
 30
0.00000000000000
 40
0.98648648648667
100
AcDbArc
 50
165.34893442092823
 51
14.65106557907836
  0
LINE
  5
E1
330
1A
100
AcDbEntity
  8
+ Zeichnungen 5
  6
CONTINUOUS
 62
     7
370
    18
100
AcDbLine
 10
77.65711271908759
 20
-138.76399976911426
 30
0.00000000000000
 11
76.73477917280376
 21
-135.23600023088522
 31
0.00000000000000
  0
ARC
  5
E2
330
1A
100
AcDbEntity
  8
+ Zeichnungen 5
  6
CONTINUOUS
 62
     7
370
    18
100
AcDbCircle
 10
77.68918918918882
 20
-134.98648648648623
 30
0.00000000000000
 40
0.98648648648633
100
AcDbArc
 50
345.34893442092823
 51
194.65106557907700
  0
LINE
  5
E3
330
1A
100
AcDbEntity
  8
+ Zeichnungen 5
  6
CONTINUOUS
 62
     7
370
    18
100
AcDbLine
 10
78.64359920557423
 20
-135.23600023088522
 30
0.00000000000000
 11
77.72126565929038
 21
-138.76399976911426
 31
0.00000000000000
  0
ARC
  5
E4
330
1A
100
AcDbEntity
  8
+ Zeichnungen 5
  6
CONTINUOUS
 62
     7
370
    18
100
AcDbCircle
 10
78.67567567567545
 20
-139.01351351351329
 30
0.00000000000000
 40
0.98648648648633
100
AcDbArc
 50
165.34893442092300
 51
14.65106557907177
  0
LINE
  5
E5
330
1A
100
AcDbEntity
  8
+ Zeichnungen 5
  6
CONTINUOUS
 62
     7
370
    18
100
AcDbLine
 10
79.63008569206049
 20
-138.76399976911426
 30
0.00000000000000
 11
78.70775214577665
 21
-135.23600023088522
 31
0.00000000000000
  0
ARC
  5
E6
330
1A
100
AcDbEntity
  8
+ Zeichnungen 5
  6
CONTINUOUS
 62
     7
370
    18
100
AcDbCircle
 10
79.66216216216206
 20
-134.98648648648623
 30
0.00000000000000
 40
0.98648648648667
100
AcDbArc
 50
345.34893442092300
 51
194.65106557907177
  0
LINE
  5
E7
330
1A
100
AcDbEntity
  8
+ Zeichnungen 5
  6
CONTINUOUS
 62
     7
370
    18
100
AcDbLine
 10
80.61657217854712
 20
-135.23600023088522
 30
0.00000000000000
 11
79.69423863226328
 21
-138.76399976911426
 31
0.00000000000000
  0
ARC
  5
E8
330
1A
100
AcDbEntity
  8
+ Zeichnungen 5
  6
CONTINUOUS
 62
     7
370
    18
100
AcDbCircle
 10
80.64864864864835
 20
-139.01351351351329
 30
0.00000000000000
 40
0.98648648648633
100
AcDbArc
 50
165.34893442092300
 51
14.65106557907313
  0
LINE
  5
E9
330
1A
100
AcDbEntity
  8
+ Zeichnungen 5
  6
CONTINUOUS
 62
     7
370
    18
100
AcDbLine
 10
81.60305866503376
 20
-138.76399976911426
 30
0.00000000000000
 11
80.68072511874956
 21
-135.23600023088531
 31
0.00000000000000
  0
ARC
  5
EA
330
1A
100
AcDbEntity
  8
+ Zeichnungen 5
  6
CONTINUOUS
 62
     7
370
    18
100
AcDbCircle
 10
81.63513513513460
 20
-134.98648648648623
 30
0.00000000000000
 40
0.98648648648635
100
AcDbArc
 50
345.34893442093312
 51
194.65106557908197
  0
LINE
  5
EB
330
1A
100
AcDbEntity
  8
+ Zeichnungen 5
  6
CONTINUOUS
 62
     7
370
    18
100
AcDbLine
 10
82.58954515152001
 20
-135.23600023088514
 30
0.00000000000000
 11
81.66721160523618
 21
-138.76399976911426
 31
0.00000000000000
  0
ARC
  5
EC
330
1A
100
AcDbEntity
  8
+ Zeichnungen 5
  6
CONTINUOUS
 62
     7
370
    18
100
AcDbCircle
 10
82.62162162162123
 20
-139.01351351351329
 30
0.00000000000000
 40
0.98648648648633
100
AcDbArc
 50
165.34893442092300
 51
14.65106557907177
  0
LINE
  5
ED
330
1A
100
AcDbEntity
  8
+ Zeichnungen 5
  6
CONTINUOUS
 62
     7
370
    18
100
AcDbLine
 10
83.57603163800664
 20
-138.76399976911426
 30
0.00000000000000
 11
82.65369809172280
 21
-135.23600023088522
 31
0.00000000000000
  0
ARC
  5
EE
330
1A
100
AcDbEntity
  8
+ Zeichnungen 5
  6
CONTINUOUS
 62
     7
370
    18
100
AcDbCircle
 10
83.60810810810787
 20
-134.98648648648623
 30
0.00000000000000
 40
0.98648648648633
100
AcDbArc
 50
345.34893442092823
 51
194.65106557907700
  0
LINE
  5
EF
330
1A
100
AcDbEntity
  8
+ Zeichnungen 5
  6
CONTINUOUS
 62
     7
370
    18
100
AcDbLine
 10
84.56251812449291
 20
-135.23600023088522
 30
0.00000000000000
 11
83.64018457820909
 21
-138.76399976911426
 31
0.00000000000000
  0
ARC
  5
F0
330
1A
100
AcDbEntity
  8
+ Zeichnungen 5
  6
CONTINUOUS
 62
     7
370
    18
100
AcDbCircle
 10
84.59459459459450
 20
-139.01351351351329
 30
0.00000000000000
 40
0.98648648648667
100
AcDbArc
 50
165.34893442092823
 51
14.65106557907700
  0
LINE
  5
F1
330
1A
100
AcDbEntity
  8
+ Zeichnungen 5
  6
CONTINUOUS
 62
     7
370
    18
100
AcDbLine
 10
85.54900461097954
 20
-138.76399976911426
 30
0.00000000000000
 11
84.62667106469570
 21
-135.23600023088514
 31
0.00000000000000
  0
ARC
  5
F2
330
1A
100
AcDbEntity
  8
+ Zeichnungen 5
  6
CONTINUOUS
 62
     7
370
    18
100
AcDbCircle
 10
85.58108108108111
 20
-134.98648648648623
 30
0.00000000000000
 40
0.98648648648665
100
AcDbArc
 50
345.34893442091800
 51
194.65106557906680
  0
LINE
  5
F3
330
1A
100
AcDbEntity
  8
+ Zeichnungen 5
  6
CONTINUOUS
 62
     7
370
    18
100
AcDbLine
 10
86.53549109746616
 20
-135.23600023088531
 30
0.00000000000000
 11
85.61315755118199
 21
-138.76399976911426
 31
0.00000000000000
  0
ARC
  5
F4
330
1A
100
AcDbEntity
  8
+ Zeichnungen 5
  6
CONTINUOUS
 62
     7
370
    18
100
AcDbCircle
 10
86.56756756756739
 20
-139.01351351351329
 30
0.00000000000000
 40
0.98648648648667
100
AcDbArc
 50
165.34893442092823
 51
14.65106557907836
  0
LINE
  5
F5
330
1A
100
AcDbEntity
  8
+ Zeichnungen 5
  6
CONTINUOUS
 62
     7
370
    18
100
AcDbLine
 10
87.52197758395244
 20
-138.76399976911426
 30
0.00000000000000
 11
86.59964403766861
 21
-135.23600023088522
 31
0.00000000000000
  0
ARC
  5
F6
330
1A
100
AcDbEntity
  8
+ Zeichnungen 5
  6
CONTINUOUS
 62
     7
370
    18
100
AcDbCircle
 10
87.55405405405365
 20
-134.98648648648623
 30
0.00000000000000
 40
0.98648648648633
100
AcDbArc
 50
345.34893442092823
 51
194.65106557907700
  0
LINE
  5
F7
330
1A
100
AcDbEntity
  8
+ Zeichnungen 5
  6
CONTINUOUS
 62
     7
370
    18
100
AcDbLine
 10
88.50846407043906
 20
-135.23600023088522
 30
0.00000000000000
 11
87.58613052415522
 21
-138.76399976911426
 31
0.00000000000000
  0
ARC
  5
F8
330
1A
100
AcDbEntity
  8
+ Zeichnungen 5
  6
CONTINUOUS
 62
     7
370
    18
100
AcDbCircle
 10
88.54054054054028
 20
-139.01351351351329
 30
0.00000000000000
 40
0.98648648648633
100
AcDbArc
 50
165.34893442092300
 51
14.65106557907677
  0
LINE
  5
F9
330
1A
100
AcDbEntity
  8
+ Zeichnungen 5
  6
CONTINUOUS
 62
     7
370
    18
100
AcDbLine
 10
89.49495055692535
 20
-138.76399976911418
 30
0.00000000000000
 11
88.57261701064151
 21
-135.23600023088522
 31
0.00000000000000
  0
ARC
  5
FA
330
1A
100
AcDbEntity
  8
+ Zeichnungen 5
  6
CONTINUOUS
 62
     7
370
    18
100
AcDbCircle
 10
89.52702702702655
 20
-134.98648648648623
 30
0.00000000000000
 40
0.98648648648633
100
AcDbArc
 50
345.34893442093318
 51
194.65106557907700
  0
LINE
  5
FB
330
1A
100
AcDbEntity
  8
+ Zeichnungen 5
  6
CONTINUOUS
 62
     7
370
    18
100
AcDbLine
 10
90.48143704341196
 20
-135.23600023088514
 30
0.00000000000000
 11
89.55910349712814
 21
-138.76399976911426
 31
0.00000000000000
  0
ARC
  5
FC
330
1A
100
AcDbEntity
  8
+ Zeichnungen 5
  6
CONTINUOUS
 62
     7
370
    18
100
AcDbCircle
 10
90.51351351351318
 20
-139.01351351351329
 30
0.00000000000000
 40
0.98648648648633
100
AcDbArc
 50
165.34893442092300
 51
14.65106557907313
  0
LINE
  5
FD
330
1A
100
AcDbEntity
  8
+ Zeichnungen 5
  6
CONTINUOUS
 62
     7
370
    18
100
AcDbLine
 10
91.46792352989858
 20
-138.76399976911426
 30
0.00000000000000
 11
90.54558998361439
 21
-135.23600023088531
 31
0.00000000000000
  0
ARC
  5
FE
330
1A
100
AcDbEntity
  8
+ Zeichnungen 5
  6
CONTINUOUS
 62
     7
370
    18
100
AcDbCircle
 10
91.49999999999946
 20
-134.98648648648623
 30
0.00000000000000
 40
0.98648648648635
100
AcDbArc
 50
345.34893442093312
 51
194.65106557908197
  0
LINE
  5
FF
330
1A
100
AcDbEntity
  8
+ Zeichnungen 5
  6
CONTINUOUS
 62
     7
370
    18
100
AcDbLine
 10
92.45441001638487
 20
-135.23600023088514
 30
0.00000000000000
 11
91.53207647010103
 21
-138.76399976911418
 31
0.00000000000000
  0
ARC
  5
100
330
1A
100
AcDbEntity
  8
+ Zeichnungen 5
  6
CONTINUOUS
 62
     7
370
    18
100
AcDbCircle
 10
92.48648648648607
 20
-139.01351351351317
 30
0.00000000000000
 40
0.98648648648633
100
AcDbArc
 50
165.34893442092300
 51
14.65106557907177
  0
LINE
  5
101
330
1A
100
AcDbEntity
  8
+ Zeichnungen 5
  6
CONTINUOUS
 62
     7
370
    18
100
AcDbLine
 10
93.44089650287148
 20
-138.76399976911418
 30
0.00000000000000
 11
92.51856295658766
 21
-135.23600023088531
 31
0.00000000000000
  0
ARC
  5
102
330
1A
100
AcDbEntity
  8
+ Zeichnungen 5
  6
CONTINUOUS
 62
     7
370
    18
100
AcDbCircle
 10
93.47297297297270
 20
-134.98648648648631
 30
0.00000000000000
 40
0.98648648648633
100
AcDbArc
 50
345.34893442092823
 51
194.65106557907700
  0
LINE
  5
103
330
1A
100
AcDbEntity
  8
+ Zeichnungen 5
  6
CONTINUOUS
 62
     7
370
    18
100
AcDbLine
 10
94.42738298935811
 20
-135.23600023088531
 30
0.00000000000000
 11
93.50504944307392
 21
-138.76399976911418
 31
0.00000000000000
  0
ARC
  5
104
330
1A
100
AcDbEntity
  8
+ Zeichnungen 5
  6
CONTINUOUS
 62
     7
370
    18
100
AcDbCircle
 10
94.45945945945933
 20
-139.01351351351317
 30
0.00000000000000
 40
0.98648648648667
100
AcDbArc
 50
165.34893442092823
 51
14.65106557907200
  0
LINE
  5
105
330
1A
100
AcDbEntity
  8
+ Zeichnungen 5
  6
CONTINUOUS
 62
     7
370
    18
100
AcDbLine
 10
95.41386947584439
 20
-138.76399976911426
 30
0.00000000000000
 11
94.49153592956056
 21
-135.23600023088531
 31
0.00000000000000
  0
ARC
  5
106
330
1A
100
AcDbEntity
  8
+ Zeichnungen 5
  6
CONTINUOUS
 62
     7
370
    18
100
AcDbCircle
 10
95.44594594594597
 20
-134.98648648648631
 30
0.00000000000000
 40
0.98648648648667
100
AcDbArc
 50
345.34893442091800
 51
194.65106557907177
  0
LINE
  5
107
330
1A
100
AcDbEntity
  8
+ Zeichnungen 5
  6
CONTINUOUS
 62
     7
370
    18
100
AcDbLine
 10
96.40035596233101
 20
-135.23600023088542
 30
0.00000000000000
 11
95.47802241604718
 21
-138.76399976911418
 31
0.00000000000000
  0
ARC
  5
108
330
1A
100
AcDbEntity
  8
+ Zeichnungen 5
  6
CONTINUOUS
 62
     7
370
    18
100
AcDbCircle
 10
96.43243243243222
 20
-139.01351351351317
 30
0.00000000000000
 40
0.98648648648667
100
AcDbArc
 50
165.34893442092823
 51
14.65106557907836
  0
LINE
  5
109
330
1A
100
AcDbEntity
  8
+ Zeichnungen 5
  6
CONTINUOUS
 62
     7
370
    18
100
AcDbLine
 10
97.38684244881763
 20
-138.76399976911418
 30
0.00000000000000
 11
96.46450890253344
 21
-135.23600023088531
 31
0.00000000000000
  0
ARC
  5
10A
330
1A
100
AcDbEntity
  8
+ Zeichnungen 5
  6
CONTINUOUS
 62
     7
370
    18
100
AcDbCircle
 10
97.41891891891885
 20
-134.98648648648631
 30
0.00000000000000
 40
0.98648648648667
100
AcDbArc
 50
345.34893442091800
 51
194.65106557907177
  0
LINE
  5
10B
330
1A
100
AcDbEntity
  8
+ Zeichnungen 5
  6
CONTINUOUS
 62
     7
370
    18
100
AcDbLine
 10
98.37332893530392
 20
-135.23600023088542
 30
0.00000000000000
 11
97.45099538902008
 21
-138.76399976911418
 31
0.00000000000000
  0
ARC
  5
10C
330
1A
100
AcDbEntity
  8
+ Zeichnungen 5
  6
CONTINUOUS
 62
     7
370
    18
100
AcDbCircle
 10
98.40540540540512
 20
-139.01351351351317
 30
0.00000000000000
 40
0.98648648648633
100
AcDbArc
 50
165.34893442092300
 51
14.65106557907438
  0
LINE
  5
10D
330
1A
100
AcDbEntity
  8
+ Zeichnungen 5
  6
CONTINUOUS
 62
     7
370
    18
100
AcDbLine
 10
99.35981542179017
 20
-138.76399976911418
 30
0.00000000000000
 11
98.43748187550634
 21
-135.23600023088542
 31
0.00000000000000
  0
ARC
  5
10E
330
1A
100
AcDbEntity
  8
+ Zeichnungen 5
  6
CONTINUOUS
 62
     7
370
    18
100
AcDbCircle
 10
99.39189189189140
 20
-134.98648648648631
 30
0.00000000000000
 40
0.98648648648635
100
AcDbArc
 50
345.34893442092823
 51
194.65106557908197
  0
LINE
  5
10F
330
1A
100
AcDbEntity
  8
+ Zeichnungen 5
  6
CONTINUOUS
 62
     7
370
    18
100
AcDbLine
 10
100.34630190827681
 20
-135.23600023088531
 30
0.00000000000000
 11
99.42396836199296
 21
-138.76399976911426
 31
0.00000000000000
  0
ARC
  5
110
330
1A
100
AcDbEntity
  8
+ Zeichnungen 5
  6
CONTINUOUS
 62
     7
370
    18
100
AcDbCircle
 10
100.37837837837803
 20
-139.01351351351317
 30
0.00000000000000
 40
0.98648648648630
100
AcDbArc
 50
165.34893442092797
 51
14.65106557906677
  0
LINE
  5
111
330
1A
100
AcDbEntity
  8
+ Zeichnungen 5
  6
CONTINUOUS
 62
     7
370
    18
100
AcDbLine
 10
101.33278839476344
 20
-138.76399976911426
 30
0.00000000000000
 11
100.41045484847960
 21
-135.23600023088531
 31
0.00000000000000
  0
ARC
  5
112
330
1A
100
AcDbEntity
  8
+ Zeichnungen 5
  6
CONTINUOUS
 62
     7
370
    18
100
AcDbCircle
 10
101.36486486486464
 20
-134.98648648648631
 30
0.00000000000000
 40
0.98648648648633
100
AcDbArc
 50
345.34893442092323
 51
194.65106557907700
  0
LINE
  5
113
330
1A
100
AcDbEntity
  8
+ Zeichnungen 5
  6
CONTINUOUS
 62
     7
370
    18
100
AcDbLine
 10
102.31927488125005
 20
-135.23600023088542
 30
0.00000000000000
 11
101.39694133496586
 21
-138.76399976911418
 31
0.00000000000000
  0
ARC
  5
114
330
1A
100
AcDbEntity
  8
+ Zeichnungen 5
  6
CONTINUOUS
 62
     7
370
    18
100
AcDbCircle
 10
102.35135135135093
 20
-139.01351351351317
 30
0.00000000000000
 40
0.98648648648633
100
AcDbArc
 50
165.34893442092300
 51
14.65106557906813
  0
LINE
  5
115
330
1A
100
AcDbEntity
  8
+ Zeichnungen 5
  6
CONTINUOUS
 62
     7
370
    18
100
AcDbLine
 10
103.30576136773634
 20
-138.76399976911426
 30
0.00000000000000
 11
102.38342782145249
 21
-135.23600023088531
 31
0.00000000000000
  0
ARC
  5
116
330
1A
100
AcDbEntity
  8
+ Zeichnungen 5
  6
CONTINUOUS
 62
     7
370
    18
100
AcDbCircle
 10
103.33783783783790
 20
-134.98648648648631
 30
0.00000000000000
 40
0.98648648648667
100
AcDbArc
 50
345.34893442091800
 51
194.65106557907177
  0
LINE
  5
117
330
1A
100
AcDbEntity
  8
+ Zeichnungen 5
  6
CONTINUOUS
 62
     7
370
    18
100
AcDbLine
 10
104.29224785422296
 20
-135.23600023088542
 30
0.00000000000000
 11
103.36991430793913
 21
-138.76399976911418
 31
0.00000000000000
  0
ARC
  5
118
330
1A
100
AcDbEntity
  8
+ Zeichnungen 5
  6
CONTINUOUS
 62
     7
370
    18
100
AcDbCircle
 10
104.32432432432417
 20
-139.01351351351317
 30
0.00000000000000
 40
0.98648648648667
100
AcDbArc
 50
165.34893442092823
 51
14.65106557907336
  0
LINE
  5
119
330
1A
100
AcDbEntity
  8
+ Zeichnungen 5
  6
CONTINUOUS
 62
     7
370
    18
100
AcDbLine
 10
105.27873434070922
 20
-138.76399976911426
 30
0.00000000000000
 11
104.35640079442575
 21
-135.23600023088531
 31
0.00000000000000
  0
ARC
  5
11A
330
1A
100
AcDbEntity
  8
+ Zeichnungen 5
  6
CONTINUOUS
 62
     7
370
    18
100
AcDbCircle
 10
105.31081081081079
 20
-134.98648648648631
 30
0.00000000000000
 40
0.98648648648633
100
AcDbArc
 50
345.34893442092323
 51
194.65106557907700
  0
LINE
  5
11B
330
1A
100
AcDbEntity
  8
+ Zeichnungen 5
  6
CONTINUOUS
 62
     7
370
    18
100
AcDbLine
 10
106.26522082719586
 20
-135.23600023088542
 30
0.00000000000000
 11
105.34288728091201
 21
-138.76399976911418
 31
0.00000000000000
  0
ARC
  5
11C
330
1A
100
AcDbEntity
  8
+ Zeichnungen 5
  6
CONTINUOUS
 62
     7
370
    18
100
AcDbCircle
 10
106.29729729729708
 20
-139.01351351351317
 30
0.00000000000000
 40
0.98648648648667
100
AcDbArc
 50
165.34893442092823
 51
14.65106557907836
  0
LINE
  5
11D
330
1A
100
AcDbEntity
  8
+ Zeichnungen 5
  6
CONTINUOUS
 62
     7
370
    18
100
AcDbLine
 10
107.25170731368249
 20
-138.76399976911418
 30
0.00000000000000
 11
106.32937376739828
 21
-135.23600023088531
 31
0.00000000000000
  0
ARC
  5
11E
330
1A
100
AcDbEntity
  8
+ Zeichnungen 5
  6
CONTINUOUS
 62
     7
370
    18
100
AcDbCircle
 10
107.28378378378369
 20
-134.98648648648631
 30
0.00000000000000
 40
0.98648648648667
100
AcDbArc
 50
345.34893442092300
 51
194.65106557907177
  0
LINE
  5
11F
330
1A
100
AcDbEntity
  8
+ Zeichnungen 5
  6
CONTINUOUS
 62
     7
370
    18
100
AcDbLine
 10
108.23819380016874
 20
-135.23600023088531
 30
0.00000000000000
 11
107.31586025388491
 21
-138.76399976911418
 31
0.00000000000000
  0
ARC
  5
120
330
1A
100
AcDbEntity
  8
+ Zeichnungen 5
  6
CONTINUOUS
 62
     7
370
    18
100
AcDbCircle
 10
108.27027027026998
 20
-139.01351351351317
 30
0.00000000000000
 40
0.98648648648633
100
AcDbArc
 50
165.34893442092300
 51
14.65106557907313
  0
LINE
  5
121
330
1A
100
AcDbEntity
  8
+ Zeichnungen 5
  6
CONTINUOUS
 62
     7
370
    18
100
AcDbLine
 10
109.22468028665502
 20
-138.76399976911418
 30
0.00000000000000
 11
108.30234674037119
 21
-135.23600023088542
 31
0.00000000000000
  0
ARC
  5
122
330
1A
100
AcDbEntity
  8
+ Zeichnungen 5
  6
CONTINUOUS
 62
     7
370
    18
100
AcDbCircle
 10
109.25675675675660
 20
-134.98648648648631
 30
0.00000000000000
 40
0.98648648648669
100
AcDbArc
 50
345.34893442092300
 51
194.65106557907677
  0
LINE
  5
123
330
1A
100
AcDbEntity
  8
+ Zeichnungen 5
  6
CONTINUOUS
 62
     7
370
    18
100
AcDbLine
 10
110.21116677314164
 20
-135.23600023088531
 30
0.00000000000000
 11
109.28883322685780
 21
-138.76399976911418
 31
0.00000000000000
  0
ARC
  5
124
330
1A
100
AcDbEntity
  8
+ Zeichnungen 5
  6
CONTINUOUS
 62
     7
370
    18
100
AcDbCircle
 10
110.24324324324286
 20
-139.01351351351317
 30
0.00000000000000
 40
0.98648648648633
100
AcDbArc
 50
165.34893442092300
 51
14.65106557907177
  0
LINE
  5
125
330
1A
100
AcDbEntity
  8
+ Zeichnungen 5
  6
CONTINUOUS
 62
     7
370
    18
100
AcDbLine
 10
111.19765325962827
 20
-138.76399976911418
 30
0.00000000000000
 11
110.27531971334409
 21
-135.23600023088531
 31
0.00000000000000
  0
ARC
  5
126
330
1A
100
AcDbEntity
  8
+ Zeichnungen 5
  6
CONTINUOUS
 62
     7
370
    18
100
AcDbCircle
 10
111.22972972972950
 20
-134.98648648648631
 30
0.00000000000000
 40
0.98648648648667
100
AcDbArc
 50
345.34893442092300
 51
194.65106557907177
  0
LINE
  5
127
330
1A
100
AcDbEntity
  8
+ Zeichnungen 5
  6
CONTINUOUS
 62
     7
370
    18
100
AcDbLine
 10
112.18413974611491
 20
-135.23600023088531
 30
0.00000000000000
 11
111.26180619983072
 21
-138.76399976911418
 31
0.00000000000000
  0
ARC
  5
128
330
1A
100
AcDbEntity
  8
+ Zeichnungen 5
  6
CONTINUOUS
 62
     7
370
    18
100
AcDbCircle
 10
112.21621621621576
 20
-139.01351351351317
 30
0.00000000000000
 40
0.98648648648633
100
AcDbArc
 50
165.34893442092300
 51
14.65106557906677
  0
LINE
  5
129
330
1A
100
AcDbEntity
  8
+ Zeichnungen 5
  6
CONTINUOUS
 62
     7
370
    18
100
AcDbLine
 10
113.17062623260117
 20
-138.76399976911426
 30
0.00000000000000
 11
112.24829268631733
 21
-135.23600023088531
 31
0.00000000000000
  0
ARC
  5
12A
330
1A
100
AcDbEntity
  8
+ Zeichnungen 5
  6
CONTINUOUS
 62
     7
370
    18
100
AcDbCircle
 10
113.20270270270274
 20
-134.98648648648631
 30
0.00000000000000
 40
0.98648648648667
100
AcDbArc
 50
345.34893442091800
 51
194.65106557907177
  0
LINE
  5
12B
330
1A
100
AcDbEntity
  8
+ Zeichnungen 5
  6
CONTINUOUS
 62
     7
370
    18
100
AcDbLine
 10
114.15711271908779
 20
-135.23600023088542
 30
0.00000000000000
 11
113.23477917280395
 21
-138.76399976911418
 31
0.00000000000000
  0
ARC
  5
12C
330
1A
100
AcDbEntity
  8
+ Zeichnungen 5
  6
CONTINUOUS
 62
     7
370
    18
100
AcDbCircle
 10
114.18918918918902
 20
-139.01351351351317
 30
0.00000000000000
 40
0.98648648648667
100
AcDbArc
 50
165.34893442092823
 51
14.65106557907836
  0
LINE
  5
12D
330
1A
100
AcDbEntity
  8
+ Zeichnungen 5
  6
CONTINUOUS
 62
     7
370
    18
100
AcDbLine
 10
115.14359920557406
 20
-138.76399976911418
 30
0.00000000000000
 11
114.22126565929024
 21
-135.23600023088531
 31
0.00000000000000
  0
ARC
  5
12E
330
1A
100
AcDbEntity
  8
+ Zeichnungen 5
  6
CONTINUOUS
 62
     7
370
    18
100
AcDbCircle
 10
115.17567567567565
 20
-134.98648648648631
 30
0.00000000000000
 40
0.98648648648667
100
AcDbArc
 50
345.34893442092300
 51
194.65106557907177
  0
LINE
  5
12F
330
1A
100
AcDbEntity
  8
+ Zeichnungen 5
  6
CONTINUOUS
 62
     7
370
    18
100
AcDbLine
 10
116.13008569206069
 20
-135.23600023088531
 30
0.00000000000000
 11
115.20775214577650
 21
-138.76399976911418
 31
0.00000000000000
  0
ARC
  5
130
330
1A
100
AcDbEntity
  8
+ Zeichnungen 5
  6
CONTINUOUS
 62
     7
370
    18
100
AcDbCircle
 10
116.16216216216191
 20
-139.01351351351317
 30
0.00000000000000
 40
0.98648648648667
100
AcDbArc
 50
165.34893442092823
 51
14.65106557907700
  0
LINE
  5
131
330
1A
100
AcDbEntity
  8
+ Zeichnungen 5
  6
CONTINUOUS
 62
     7
370
    18
100
AcDbLine
 10
117.11657217854732
 20
-138.76399976911418
 30
0.00000000000000
 11
116.19423863226314
 21
-135.23600023088531
 31
0.00000000000000
  0
ARC
  5
132
330
1A
100
AcDbEntity
  8
+ Zeichnungen 5
  6
CONTINUOUS
 62
     7
370
    18
100
AcDbCircle
 10
117.14864864864818
 20
-134.98648648648631
 30
0.00000000000000
 40
0.98648648648633
100
AcDbArc
 50
345.34893442092823
 51
194.65106557907700
  0
LINE
  5
133
330
1A
100
AcDbEntity
  8
+ Zeichnungen 5
  6
CONTINUOUS
 62
     7
370
    18
100
AcDbLine
 10
118.10305866503359
 20
-135.23600023088531
 30
0.00000000000000
 11
117.18072511874976
 21
-138.76399976911418
 31
0.00000000000000
  0
ARC
  5
134
330
1A
100
AcDbEntity
  8
+ Zeichnungen 5
  6
CONTINUOUS
 62
     7
370
    18
100
AcDbCircle
 10
118.13513513513480
 20
-139.01351351351317
 30
0.00000000000000
 40
0.98648648648633
100
AcDbArc
 50
165.34893442092300
 51
14.65106557907313
  0
LINE
  5
135
330
1A
100
AcDbEntity
  8
+ Zeichnungen 5
  6
CONTINUOUS
 62
     7
370
    18
100
AcDbLine
 10
119.08954515151987
 20
-138.76399976911418
 30
0.00000000000000
 11
118.16721160523602
 21
-135.23600023088542
 31
0.00000000000000
  0
ARC
  5
136
330
1A
100
AcDbEntity
  8
+ Zeichnungen 5
  6
CONTINUOUS
 62
     7
370
    18
100
AcDbCircle
 10
119.12162162162143
 20
-134.98648648648631
 30
0.00000000000000
 40
0.98648648648669
100
AcDbArc
 50
345.34893442092300
 51
194.65106557907677
  0
LINE
  5
137
330
1A
100
AcDbEntity
  8
+ Zeichnungen 5
  6
CONTINUOUS
 62
     7
370
    18
100
AcDbLine
 10
120.07603163800650
 20
-135.23600023088531
 30
0.00000000000000
 11
119.15369809172266
 21
-138.76399976911426
 31
0.00000000000000
  0
ARC
  5
138
330
1A
100
AcDbEntity
  8
+ Zeichnungen 5
  6
CONTINUOUS
 62
     7
370
    18
100
AcDbCircle
 10
120.10810810810807
 20
-139.01351351351317
 30
0.00000000000000
 40
0.98648648648665
100
AcDbArc
 50
165.34893442093320
 51
14.65106557907700
  0
LINE
  5
139
330
1A
100
AcDbEntity
  8
+ Zeichnungen 5
  6
CONTINUOUS
 62
     7
370
    18
100
AcDbLine
 10
121.06251812449311
 20
-138.76399976911418
 30
0.00000000000000
 11
120.14018457820892
 21
-135.23600023088531
 31
0.00000000000000
  0
ARC
  5
13A
330
1A
100
AcDbEntity
  8
+ Zeichnungen 5
  6
CONTINUOUS
 62
     7
370
    18
100
AcDbCircle
 10
121.09459459459433
 20
-134.98648648648631
 30
0.00000000000000
 40
0.98648648648667
100
AcDbArc
 50
345.34893442092300
 51
194.65106557907177
  0
LINE
  5
13B
330
1A
100
AcDbEntity
  8
+ Zeichnungen 5
  6
CONTINUOUS
 62
     7
370
    18
100
AcDbLine
 10
122.04900461097974
 20
-135.23600023088531
 30
0.00000000000000
 11
121.12667106469554
 21
-138.76399976911418
 31
0.00000000000000
  0
ARC
  5
13C
330
1A
100
AcDbEntity
  8
+ Zeichnungen 5
  6
CONTINUOUS
 62
     7
370
    18
100
AcDbCircle
 10
122.08108108108061
 20
-139.01351351351317
 30
0.00000000000000
 40
0.98648648648633
100
AcDbArc
 50
165.34893442092300
 51
14.65106557906677
  0
LINE
  5
13D
330
1A
100
AcDbEntity
  8
+ Zeichnungen 5
  6
CONTINUOUS
 62
     7
370
    18
100
AcDbLine
 10
123.03549109746602
 20
-138.76399976911426
 30
0.00000000000000
 11
122.11315755118218
 21
-135.23600023088522
 31
0.00000000000000
  0
ARC
  5
13E
330
1A
100
AcDbEntity
  8
+ Zeichnungen 5
  6
CONTINUOUS
 62
     7
370
    18
100
AcDbCircle
 10
123.06756756756759
 20
-134.98648648648631
 30
0.00000000000000
 40
0.98648648648665
100
AcDbArc
 50
345.34893442091800
 51
194.65106557906680
  0
LINE
  5
13F
330
1A
100
AcDbEntity
  8
+ Zeichnungen 5
  6
CONTINUOUS
 62
     7
370
    18
100
AcDbLine
 10
124.02197758395300
 20
-135.23600023088542
 30
0.00000000000000
 11
123.09964403766881
 21
-138.76399976911409
 31
0.00000000000000
  0
ARC
  5
140
330
1A
100
AcDbEntity
  8
+ Zeichnungen 5
  6
CONTINUOUS
 62
     7
370
    18
100
AcDbCircle
 10
124.05405405405385
 20
-139.01351351351317
 30
0.00000000000000
 40
0.98648648648669
100
AcDbArc
 50
165.34893442092323
 51
14.65106557907836
  0
LINE
  5
141
330
1A
100
AcDbEntity
  8
+ Zeichnungen 5
  6
CONTINUOUS
 62
     7
370
    18
100
AcDbLine
 10
125.00846407043892
 20
-138.76399976911418
 30
0.00000000000000
 11
124.08613052415507
 21
-135.23600023088531
 31
0.00000000000000
  0
ARC
  5
142
330
1A
100
AcDbEntity
  8
+ Zeichnungen 5
  6
CONTINUOUS
 62
     7
370
    18
100
AcDbCircle
 10
125.04054054054048
 20
-134.98648648648631
 30
0.00000000000000
 40
0.98648648648667
100
AcDbArc
 50
345.34893442092300
 51
194.65106557907177
  0
LINE
  5
143
330
1A
100
AcDbEntity
  8
+ Zeichnungen 5
  6
CONTINUOUS
 62
     7
370
    18
100
AcDbLine
 10
125.99495055692553
 20
-135.23600023088531
 30
0.00000000000000
 11
125.07261701064134
 21
-138.76399976911418
 31
0.00000000000000
  0
ARC
  5
144
330
1A
100
AcDbEntity
  8
+ Zeichnungen 5
  6
CONTINUOUS
 62
     7
370
    18
100
AcDbCircle
 10
126.02702702702675
 20
-139.01351351351317
 30
0.00000000000000
 40
0.98648648648667
100
AcDbArc
 50
165.34893442092823
 51
14.65106557907700
  0
LINE
  5
145
330
1A
100
AcDbEntity
  8
+ Zeichnungen 5
  6
CONTINUOUS
 62
     7
370
    18
100
AcDbLine
 10
126.98143704341216
 20
-138.76399976911418
 30
0.00000000000000
 11
126.05910349712798
 21
-135.23600023088531
 31
0.00000000000000
  0
ARC
  5
146
330
1A
100
AcDbEntity
  8
+ Zeichnungen 5
  6
CONTINUOUS
 62
     7
370
    18
100
AcDbCircle
 10
127.01351351351303
 20
-134.98648648648631
 30
0.00000000000000
 40
0.98648648648633
100
AcDbArc
 50
345.34893442092823
 51
194.65106557907700
  0
LINE
  5
147
330
1A
100
AcDbEntity
  8
+ Zeichnungen 5
  6
CONTINUOUS
 62
     7
370
    18
100
AcDbLine
 10
127.96792352989844
 20
-135.23600023088531
 30
0.00000000000000
 11
127.04558998361459
 21
-138.76399976911418
 31
0.00000000000000
  0
ARC
  5
148
330
1A
100
AcDbEntity
  8
+ Zeichnungen 5
  6
CONTINUOUS
 62
     7
370
    18
100
AcDbCircle
 10
127.99999999999964
 20
-139.01351351351317
 30
0.00000000000000
 40
0.98648648648633
100
AcDbArc
 50
165.34893442092300
 51
269.99999999999739
  0
ENDBLK
  5
149
330
1A
100
AcDbEntity
  8
0
100
AcDbBlockEnd
  0
BLOCK
  5
14A
330
1B
100
AcDbEntity
  8
0
100
AcDbBlockBegin
  2
*U4
 70
     1
 10
0.00000000000000
 20
0.00000000000000
 30
0.00000000000000
  3
*U4
  1

  0
ARC
  5
14B
330
1B
100
AcDbEntity
  8
+ Zeichnungen 5
  6
CONTINUOUS
 62
     7
370
    18
100
AcDbCircle
 10
128.00000000000000
 20
-138.66666666666620
 30
0.00000000000000
 40
4.66666666666646
100
AcDbArc
 50
351.14183621249447
 51
90.00000000000000
  0
LINE
  5
14C
330
1B
100
AcDbEntity
  8
+ Zeichnungen 5
  6
CONTINUOUS
 62
     7
370
    18
100
AcDbLine
 10
132.61100532089986
 20
-139.38528179899299
 30
0.00000000000000
 11
128.05566134576648
 21
-168.61471820100613
 31
0.00000000000000
  0
ARC
  5
14D
330
1B
100
AcDbEntity
  8
+ Zeichnungen 5
  6
CONTINUOUS
 62
     7
370
    18
100
AcDbCircle
 10
132.66666666666669
 20
-169.33333333333297
 30
0.00000000000000
 40
4.66666666666683
100
AcDbArc
 50
171.14183621249347
 51
210.00000000000000
  0
ARC
  5
14E
330
1B
100
AcDbEntity
  8
+ Zeichnungen 5
  6
CONTINUOUS
 62
     7
370
    18
100
AcDbCircle
 10
132.66666666666669
 20
-169.33333333333297
 30
0.00000000000000
 40
4.66666666666683
100
AcDbArc
 50
293.71528178267829
 51
8.85816378750627
  0
LINE
  5
14F
330
1B
100
AcDbEntity
  8
+ Zeichnungen 5
  6
CONTINUOUS
 62
     7
370
    18
100
AcDbLine
 10
137.27767198756655
 20
-168.61471820100621
 30
0.00000000000000
 11
132.72232801243354
 21
-139.38528179899299
 31
0.00000000000000
  0
ARC
  5
150
330
1B
100
AcDbEntity
  8
+ Zeichnungen 5
  6
CONTINUOUS
 62
     7
370
    18
100
AcDbCircle
 10
137.33333333333340
 20
-138.66666666666620
 30
0.00000000000000
 40
4.66666666666646
100
AcDbArc
 50
351.14183621249447
 51
188.85816378750613
  0
LINE
  5
151
330
1B
100
AcDbEntity
  8
+ Zeichnungen 5
  6
CONTINUOUS
 62
     7
370
    18
100
AcDbLine
 10
141.94433865423326
 20
-139.38528179899299
 30
0.00000000000000
 11
137.38899467909985
 21
-168.61471820100621
 31
0.00000000000000
  0
ARC
  5
152
330
1B
100
AcDbEntity
  8
+ Zeichnungen 5
  6
CONTINUOUS
 62
     7
370
    18
100
AcDbCircle
 10
141.99999999999972
 20
-169.33333333333306
 30
0.00000000000000
 40
4.66666666666648
100
AcDbArc
 50
171.14183621249279
 51
269.99999999999966
  0
ENDBLK
  5
153
330
1B
100
AcDbEntity
  8
0
100
AcDbBlockEnd
  0
BLOCK
  5
154
330
1C
100
AcDbEntity
  8
0
100
AcDbBlockBegin
  2
*U5
 70
     1
 10
0.00000000000000
 20
0.00000000000000
 30
0.00000000000000
  3
*U5
  1

  0
MTEXT
  5
155
330
1C
100
AcDbEntity
  8
+ Zeichnungen 5
 62
     7
370
    30
100
AcDbMText
 10
137.01074184392394
 20
-229.26217782649113
 30
0.00000000000000
 40
2.80000000000000
 41
0.00000000000000
 71
     7
 72
     1
  1
\fArial Narrow|b0|i0;Hörl + Hartmann
 11
1.00000000000000
 21
0.00000000000000
 31
0.00000000000000
 73
     1
 44
1.00000000000000
  0
MTEXT
  5
156
330
1C
100
AcDbEntity
  8
+ Zeichnungen 5
 62
     7
370
    30
100
AcDbMText
 10
137.01074184392394
 20
-230.86217782649112
 30
0.00000000000000
 40
2.80000000000000
 41
0.00000000000000
 71
     1
 72
     1
  1
\fArial Narrow|b0|i0;Dämmschale für Ringanker\Pauf Dünnbettmörtel oder altern.\Pverklebt mit Montageschaum
 11
1.00000000000000
 21
0.00000000000000
 31
0.00000000000000
 73
     1
 44
1.00000000000000
  0
LINE
  5
157
330
1C
100
AcDbEntity
  8
+ Zeichnungen 5
  6
CONTINUOUS
 62
    12
370
    25
100
AcDbLine
 10
67.40384624391587
 20
-177.97193004187108
 30
0.00000000000000
 11
136.23205080756881
 21
-230.06217782649114
 31
0.00000000000000
  0
HATCH
  5
158
330
1C
100
AcDbEntity
  8
+ Zeichnungen 5
 62
    12
100
AcDbHatch
 10
0.00000000000000
 20
0.00000000000000
 30
0.00000000000000
210
0.00000000000000
220
0.00000000000000
230
1.00000000000000
  2
SOLID
 70
     1
 71
     0
 91
        1
 92
        0
 93
       16
 72
     1
 10
68.15384624391587
 20
-177.97193004187108
 11
68.09675589329933
 21
-177.68491746759730
 72
     1
 10
68.09675589329933
 20
-177.68491746759730
 11
67.93417632980578
 21
-177.44159995598119
 72
     1
 10
67.93417632980578
 20
-177.44159995598119
 11
67.69085881818968
 21
-177.27902039248764
 72
     1
 10
67.69085881818968
 20
-177.27902039248764
 11
67.40384624391587
 21
-177.22193004187108
 72
     1
 10
67.40384624391587
 20
-177.22193004187108
 11
67.11683366964205
 21
-177.27902039248764
 72
     1
 10
67.11683366964205
 20
-177.27902039248764
 11
66.87351615802596
 21
-177.44159995598119
 72
     1
 10
66.87351615802596
 20
-177.44159995598119
 11
66.71093659453241
 21
-177.68491746759730
 72
     1
 10
66.71093659453241
 20
-177.68491746759730
 11
66.65384624391588
 21
-177.97193004187108
 72
     1
 10
66.65384624391588
 20
-177.97193004187108
 11
66.71093659453241
 21
-178.25894261614491
 72
     1
 10
66.71093659453241
 20
-178.25894261614491
 11
66.87351615802596
 21
-178.50226012776102
 72
     1
 10
66.87351615802596
 20
-178.50226012776102
 11
67.11683366964205
 21
-178.66483969125457
 72
     1
 10
67.11683366964205
 20
-178.66483969125457
 11
67.40384624391587
 21
-178.72193004187108
 72
     1
 10
67.40384624391587
 20
-178.72193004187108
 11
67.69085881818968
 21
-178.66483969125457
 72
     1
 10
67.69085881818968
 20
-178.66483969125457
 11
67.93417632980578
 21
-178.50226012776102
 72
     1
 10
67.93417632980578
 20
-178.50226012776102
 11
68.09675589329933
 21
-178.25894261614491
 72
     1
 10
68.09675589329933
 20
-178.25894261614491
 11
68.15384624391587
 21
-177.97193004187108
 97
        0
 75
     0
 76
     0
 98
        1
 10
0.00000000000000
 20
0.00000000000000
  0
LWPOLYLINE
  5
159
330
1C
100
AcDbEntity
  8
+ Zeichnungen 5
  6
CONTINUOUS
 62
    12
370
    25
100
AcDbPolyline
 90
       17
 70
   128
 10
68.15384624391587
 20
-177.97193004187108
 10
68.09675589329933
 20
-177.68491746759730
 10
67.93417632980578
 20
-177.44159995598119
 10
67.69085881818968
 20
-177.27902039248764
 10
67.40384624391587
 20
-177.22193004187108
 10
67.11683366964205
 20
-177.27902039248764
 10
66.87351615802596
 20
-177.44159995598119
 10
66.71093659453241
 20
-177.68491746759730
 10
66.65384624391588
 20
-177.97193004187108
 10
66.71093659453241
 20
-178.25894261614491
 10
66.87351615802596
 20
-178.50226012776102
 10
67.11683366964205
 20
-178.66483969125457
 10
67.40384624391587
 20
-178.72193004187108
 10
67.69085881818968
 20
-178.66483969125457
 10
67.93417632980578
 20
-178.50226012776102
 10
68.09675589329933
 20
-178.25894261614491
 10
68.15384624391587
 20
-177.97193004187108
  0
LINE
  5
15A
330
1C
100
AcDbEntity
  8
+ Zeichnungen 5
  6
CONTINUOUS
 62
    12
370
    25
100
AcDbLine
 10
136.23205080756881
 20
-230.06217782649114
 30
0.00000000000000
 11
181.98000943723656
 21
-230.06217782649114
 31
0.00000000000000
  0
ENDBLK
  5
15B
330
1C
100
AcDbEntity
  8
0
100
AcDbBlockEnd
  0
BLOCK
  5
15C
330
1D
100
AcDbEntity
  8
0
100
AcDbBlockBegin
  2
*U6
 70
     1
 10
0.00000000000000
 20
0.00000000000000
 30
0.00000000000000
  3
*U6
  1

  0
LINE
  5
15D
330
1D
100
AcDbEntity
  8
+ Zeichnungen 5
  6
CONTINUOUS
 62
    12
370
    25
100
AcDbLine
 10
113.99999999999994
 20
-182.00000000000000
 30
0.00000000000000
 11
136.23205080756881
 21
-230.06217782649114
 31
0.00000000000000
  0
HATCH
  5
15E
330
1D
100
AcDbEntity
  8
+ Zeichnungen 5
 62
    12
100
AcDbHatch
 10
0.00000000000000
 20
0.00000000000000
 30
0.00000000000000
210
0.00000000000000
220
0.00000000000000
230
1.00000000000000
  2
SOLID
 70
     1
 71
     0
 91
        1
 92
        0
 93
       16
 72
     1
 10
114.74999999999996
 20
-182.00000000000000
 11
114.69290964938341
 21
-181.71298742572617
 72
     1
 10
114.69290964938341
 20
-181.71298742572617
 11
114.53033008588986
 21
-181.46966991411006
 72
     1
 10
114.53033008588986
 20
-181.46966991411006
 11
114.28701257427376
 21
-181.30709035061653
 72
     1
 10
114.28701257427376
 20
-181.30709035061653
 11
113.99999999999994
 21
-181.25000000000000
 72
     1
 10
113.99999999999994
 20
-181.25000000000000
 11
113.71298742572614
 21
-181.30709035061653
 72
     1
 10
113.71298742572614
 20
-181.30709035061653
 11
113.46966991411003
 21
-181.46966991411006
 72
     1
 10
113.46966991411003
 20
-181.46966991411006
 11
113.30709035061648
 21
-181.71298742572617
 72
     1
 10
113.30709035061648
 20
-181.71298742572617
 11
113.24999999999994
 21
-182.00000000000000
 72
     1
 10
113.24999999999994
 20
-182.00000000000000
 11
113.30709035061648
 21
-182.28701257427383
 72
     1
 10
113.30709035061648
 20
-182.28701257427383
 11
113.46966991411003
 21
-182.53033008588991
 72
     1
 10
113.46966991411003
 20
-182.53033008588991
 11
113.71298742572614
 21
-182.69290964938344
 72
     1
 10
113.71298742572614
 20
-182.69290964938344
 11
113.99999999999994
 21
-182.75000000000000
 72
     1
 10
113.99999999999994
 20
-182.75000000000000
 11
114.28701257427376
 21
-182.69290964938344
 72
     1
 10
114.28701257427376
 20
-182.69290964938344
 11
114.53033008588986
 21
-182.53033008588991
 72
     1
 10
114.53033008588986
 20
-182.53033008588991
 11
114.69290964938341
 21
-182.28701257427383
 72
     1
 10
114.69290964938341
 20
-182.28701257427383
 11
114.74999999999996
 21
-182.00000000000000
 97
        0
 75
     0
 76
     0
 98
        1
 10
0.00000000000000
 20
0.00000000000000
  0
LWPOLYLINE
  5
15F
330
1D
100
AcDbEntity
  8
+ Zeichnungen 5
  6
CONTINUOUS
 62
    12
370
    25
100
AcDbPolyline
 90
       17
 70
   128
 10
114.74999999999996
 20
-182.00000000000000
 10
114.69290964938341
 20
-181.71298742572617
 10
114.53033008588986
 20
-181.46966991411006
 10
114.28701257427376
 20
-181.30709035061653
 10
113.99999999999994
 20
-181.25000000000000
 10
113.71298742572614
 20
-181.30709035061653
 10
113.46966991411003
 20
-181.46966991411006
 10
113.30709035061648
 20
-181.71298742572617
 10
113.24999999999994
 20
-182.00000000000000
 10
113.30709035061648
 20
-182.28701257427383
 10
113.46966991411003
 20
-182.53033008588991
 10
113.71298742572614
 20
-182.69290964938344
 10
113.99999999999994
 20
-182.75000000000000
 10
114.28701257427376
 20
-182.69290964938344
 10
114.53033008588986
 20
-182.53033008588991
 10
114.69290964938341
 20
-182.28701257427383
 10
114.74999999999996
 20
-182.00000000000000
  0
LINE
  5
160
330
1D
100
AcDbEntity
  8
+ Zeichnungen 5
  6
CONTINUOUS
 62
    12
370
    25
100
AcDbLine
 10
136.23205080756881
 20
-230.06217782649114
 30
0.00000000000000
 11
138.43189491179450
 21
-230.03598780733390
 31
0.00000000000000
  0
ENDBLK
  5
161
330
1D
100
AcDbEntity
  8
0
100
AcDbBlockEnd
  0
BLOCK
  5
162
330
1E
100
AcDbEntity
  8
0
100
AcDbBlockBegin
  2
*U7
 70
     1
 10
0.00000000000000
 20
0.00000000000000
 30
0.00000000000000
  3
*U7
  1

  0
MTEXT
  5
163
330
1E
100
AcDbEntity
  8
+ Zeichnungen 5
 62
     7
370
    30
100
AcDbMText
 10
158.79999999999993
 20
-93.20000000000000
 30
0.00000000000000
 40
2.80000000000000
 41
0.00000000000000
 71
     7
 72
     1
  1
\fArial Narrow|b0|i0;Sparrenebene mit
 11
1.00000000000000
 21
0.00000000000000
 31
0.00000000000000
 73
     1
 44
1.00000000000000
  0
MTEXT
  5
164
330
1E
100
AcDbEntity
  8
+ Zeichnungen 5
 62
     7
370
    30
100
AcDbMText
 10
158.79999999999993
 20
-94.80000000000000
 30
0.00000000000000
 40
2.80000000000000
 41
0.00000000000000
 71
     1
 72
     1
  1
\fArial Narrow|b0|i0;Zwischensparrendämmung
 11
1.00000000000000
 21
0.00000000000000
 31
0.00000000000000
 73
     1
 44
1.00000000000000
  0
LINE
  5
165
330
1E
100
AcDbEntity
  8
+ Zeichnungen 5
  6
CONTINUOUS
 62
    12
370
    25
100
AcDbLine
 10
137.26868044515106
 20
-141.68203497615255
 30
0.00000000000000
 11
157.99999999999994
 21
-94.00000000000000
 31
0.00000000000000
  0
HATCH
  5
166
330
1E
100
AcDbEntity
  8
+ Zeichnungen 5
 62
    12
100
AcDbHatch
 10
0.00000000000000
 20
0.00000000000000
 30
0.00000000000000
210
0.00000000000000
220
0.00000000000000
230
1.00000000000000
  2
SOLID
 70
     1
 71
     0
 91
        1
 92
        0
 93
       16
 72
     1
 10
138.01868044515106
 20
-141.68203497615255
 11
137.96159009453453
 21
-141.39502240187872
 72
     1
 10
137.96159009453453
 20
-141.39502240187872
 11
137.79901053104098
 21
-141.15170489026264
 72
     1
 10
137.79901053104098
 20
-141.15170489026264
 11
137.55569301942489
 21
-140.98912532676908
 72
     1
 10
137.55569301942489
 20
-140.98912532676908
 11
137.26868044515106
 21
-140.93203497615255
 72
     1
 10
137.26868044515106
 20
-140.93203497615255
 11
136.98166787087726
 21
-140.98912532676908
 72
     1
 10
136.98166787087726
 20
-140.98912532676908
 11
136.73835035926115
 21
-141.15170489026264
 72
     1
 10
136.73835035926115
 20
-141.15170489026264
 11
136.57577079576760
 21
-141.39502240187872
 72
     1
 10
136.57577079576760
 20
-141.39502240187872
 11
136.51868044515106
 21
-141.68203497615255
 72
     1
 10
136.51868044515106
 20
-141.68203497615255
 11
136.57577079576760
 21
-141.96904755042635
 72
     1
 10
136.57577079576760
 20
-141.96904755042635
 11
136.73835035926115
 21
-142.21236506204247
 72
     1
 10
136.73835035926115
 20
-142.21236506204247
 11
136.98166787087726
 21
-142.37494462553602
 72
     1
 10
136.98166787087726
 20
-142.37494462553602
 11
137.26868044515106
 21
-142.43203497615255
 72
     1
 10
137.26868044515106
 20
-142.43203497615255
 11
137.55569301942489
 21
-142.37494462553602
 72
     1
 10
137.55569301942489
 20
-142.37494462553602
 11
137.79901053104098
 21
-142.21236506204247
 72
     1
 10
137.79901053104098
 20
-142.21236506204247
 11
137.96159009453453
 21
-141.96904755042635
 72
     1
 10
137.96159009453453
 20
-141.96904755042635
 11
138.01868044515106
 21
-141.68203497615255
 97
        0
 75
     0
 76
     0
 98
        1
 10
0.00000000000000
 20
0.00000000000000
  0
LWPOLYLINE
  5
167
330
1E
100
AcDbEntity
  8
+ Zeichnungen 5
  6
CONTINUOUS
 62
    12
370
    25
100
AcDbPolyline
 90
       17
 70
   128
 10
138.01868044515106
 20
-141.68203497615255
 10
137.96159009453453
 20
-141.39502240187872
 10
137.79901053104098
 20
-141.15170489026264
 10
137.55569301942489
 20
-140.98912532676908
 10
137.26868044515106
 20
-140.93203497615255
 10
136.98166787087726
 20
-140.98912532676908
 10
136.73835035926115
 20
-141.15170489026264
 10
136.57577079576760
 20
-141.39502240187872
 10
136.51868044515106
 20
-141.68203497615255
 10
136.57577079576760
 20
-141.96904755042635
 10
136.73835035926115
 20
-142.21236506204247
 10
136.98166787087726
 20
-142.37494462553602
 10
137.26868044515106
 20
-142.43203497615255
 10
137.55569301942489
 20
-142.37494462553602
 10
137.79901053104098
 20
-142.21236506204247
 10
137.96159009453453
 20
-141.96904755042635
 10
138.01868044515106
 20
-141.68203497615255
  0
LINE
  5
168
330
1E
100
AcDbEntity
  8
+ Zeichnungen 5
  6
CONTINUOUS
 62
    12
370
    25
100
AcDbLine
 10
157.99999999999994
 20
-94.00000000000000
 30
0.00000000000000
 11
198.15167914074647
 21
-94.00000000000000
 31
0.00000000000000
  0
ENDBLK
  5
169
330
1E
100
AcDbEntity
  8
0
100
AcDbBlockEnd
  0
BLOCK
  5
16A
330
1F
100
AcDbEntity
  8
0
100
AcDbBlockBegin
  2
*U8
 70
     1
 10
0.00000000000000
 20
0.00000000000000
 30
0.00000000000000
  3
*U8
  1

  0
MTEXT
  5
16B
330
1F
100
AcDbEntity
  8
+ Zeichnungen 5
 62
     7
370
    30
100
AcDbMText
 10
149.40705994199956
 20
-187.20000000000002
 30
0.00000000000000
 40
2.80000000000000
 41
0.00000000000000
 71
     7
 72
     1
  1
\fArial Narrow|b0|i0;Dampfsperre (diffusionsdicht);
 11
1.00000000000000
 21
0.00000000000000
 31
0.00000000000000
 73
     1
 44
1.00000000000000
  0
MTEXT
  5
16C
330
1F
100
AcDbEntity
  8
+ Zeichnungen 5
 62
     7
370
    30
100
AcDbMText
 10
149.40705994199956
 20
-188.80000000000001
 30
0.00000000000000
 40
2.80000000000000
 41
0.00000000000000
 71
     1
 72
     1
  1
\fArial Narrow|b0|i0;dicht verklebt mit Putz-\Panschlussband
 11
1.00000000000000
 21
0.00000000000000
 31
0.00000000000000
 73
     1
 44
1.00000000000000
  0
LINE
  5
16D
330
1F
100
AcDbEntity
  8
+ Zeichnungen 5
  6
CONTINUOUS
 62
    12
370
    25
100
AcDbLine
 10
141.95000000000010
 20
-174.44999999999982
 30
0.00000000000000
 11
148.15705994199956
 21
-188.00000000000003
 31
0.00000000000000
  0
HATCH
  5
16E
330
1F
100
AcDbEntity
  8
+ Zeichnungen 5
 62
    12
100
AcDbHatch
 10
0.00000000000000
 20
0.00000000000000
 30
0.00000000000000
210
0.00000000000000
220
0.00000000000000
230
1.00000000000000
  2
SOLID
 70
     1
 71
     0
 91
        1
 92
        0
 93
       16
 72
     1
 10
142.70000000000013
 20
-174.44999999999982
 11
142.64290964938360
 21
-174.16298742572599
 72
     1
 10
142.64290964938360
 20
-174.16298742572599
 11
142.48033008589002
 21
-173.91966991410990
 72
     1
 10
142.48033008589002
 20
-173.91966991410990
 11
142.23701257427393
 21
-173.75709035061638
 72
     1
 10
142.23701257427393
 20
-173.75709035061638
 11
141.95000000000010
 21
-173.69999999999982
 72
     1
 10
141.95000000000010
 20
-173.69999999999982
 11
141.66298742572630
 21
-173.75709035061638
 72
     1
 10
141.66298742572630
 20
-173.75709035061638
 11
141.41966991411019
 21
-173.91966991410990
 72
     1
 10
141.41966991411019
 20
-173.91966991410990
 11
141.25709035061664
 21
-174.16298742572599
 72
     1
 10
141.25709035061664
 20
-174.16298742572599
 11
141.20000000000010
 21
-174.44999999999982
 72
     1
 10
141.20000000000010
 20
-174.44999999999982
 11
141.25709035061664
 21
-174.73701257427365
 72
     1
 10
141.25709035061664
 20
-174.73701257427365
 11
141.41966991411019
 21
-174.98033008588976
 72
     1
 10
141.41966991411019
 20
-174.98033008588976
 11
141.66298742572630
 21
-175.14290964938328
 72
     1
 10
141.66298742572630
 20
-175.14290964938328
 11
141.95000000000010
 21
-175.19999999999982
 72
     1
 10
141.95000000000010
 20
-175.19999999999982
 11
142.23701257427393
 21
-175.14290964938328
 72
     1
 10
142.23701257427393
 20
-175.14290964938328
 11
142.48033008589002
 21
-174.98033008588976
 72
     1
 10
142.48033008589002
 20
-174.98033008588976
 11
142.64290964938360
 21
-174.73701257427365
 72
     1
 10
142.64290964938360
 20
-174.73701257427365
 11
142.70000000000013
 21
-174.44999999999982
 97
        0
 75
     0
 76
     0
 98
        1
 10
0.00000000000000
 20
0.00000000000000
  0
LWPOLYLINE
  5
16F
330
1F
100
AcDbEntity
  8
+ Zeichnungen 5
  6
CONTINUOUS
 62
    12
370
    25
100
AcDbPolyline
 90
       17
 70
   128
 10
142.70000000000013
 20
-174.44999999999982
 10
142.64290964938360
 20
-174.16298742572599
 10
142.48033008589002
 20
-173.91966991410990
 10
142.23701257427393
 20
-173.75709035061638
 10
141.95000000000010
 20
-173.69999999999982
 10
141.66298742572630
 20
-173.75709035061638
 10
141.41966991411019
 20
-173.91966991410990
 10
141.25709035061664
 20
-174.16298742572599
 10
141.20000000000010
 20
-174.44999999999982
 10
141.25709035061664
 20
-174.73701257427365
 10
141.41966991411019
 20
-174.98033008588976
 10
141.66298742572630
 20
-175.14290964938328
 10
141.95000000000010
 20
-175.19999999999982
 10
142.23701257427393
 20
-175.14290964938328
 10
142.48033008589002
 20
-174.98033008588976
 10
142.64290964938360
 20
-174.73701257427365
 10
142.70000000000013
 20
-174.44999999999982
  0
LINE
  5
170
330
1F
100
AcDbEntity
  8
+ Zeichnungen 5
  6
CONTINUOUS
 62
    12
370
    25
100
AcDbLine
 10
148.15705994199956
 20
-188.00000000000003
 30
0.00000000000000
 11
192.79013488367917
 21
-188.00000000000003
 31
0.00000000000000
  0
ENDBLK
  5
171
330
1F
100
AcDbEntity
  8
0
100
AcDbBlockEnd
  0
BLOCK
  5
172
330
20
100
AcDbEntity
  8
0
100
AcDbBlockBegin
  2
*U9
 70
     1
 10
0.00000000000000
 20
0.00000000000000
 30
0.00000000000000
  3
*U9
  1

  0
LINE
  5
173
330
20
100
AcDbEntity
  8
+ Zeichnungen 5
  6
CONTINUOUS
 62
     7
370
    18
100
AcDbLine
 10
69.20000000000013
 20
-101.00000000000003
 30
0.00000000000000
 11
69.20000000000013
 21
-103.80000000000025
 31
0.00000000000000
  0
LINE
  5
174
330
20
100
AcDbEntity
  8
+ Zeichnungen 5
  6
CONTINUOUS
 62
     7
370
    18
100
AcDbLine
 10
69.20000000000013
 20
-103.80000000000017
 30
0.00000000000000
 11
70.80000000000013
 21
-103.80000000000017
 31
0.00000000000000
  0
LINE
  5
175
330
20
100
AcDbEntity
  8
+ Zeichnungen 5
  6
CONTINUOUS
 62
     7
370
    18
100
AcDbLine
 10
70.80000000000018
 20
-103.80000000000025
 30
0.00000000000000
 11
70.80000000000013
 21
-102.80000000000010
 31
0.00000000000000
  0
LINE
  5
176
330
20
100
AcDbEntity
  8
+ Zeichnungen 5
  6
CONTINUOUS
 62
     7
370
    18
100
AcDbLine
 10
70.80000000000013
 20
-102.80000000000010
 30
0.00000000000000
 11
73.20000000000015
 21
-102.80000000000010
 31
0.00000000000000
  0
LINE
  5
177
330
20
100
AcDbEntity
  8
+ Zeichnungen 5
  6
CONTINUOUS
 62
     7
370
    18
100
AcDbLine
 10
73.20000000000015
 20
-102.80000000000010
 30
0.00000000000000
 11
73.20000000000015
 21
-106.00000000000009
 31
0.00000000000000
  0
LINE
  5
178
330
20
100
AcDbEntity
  8
+ Zeichnungen 5
  6
CONTINUOUS
 62
     7
370
    18
100
AcDbLine
 10
75.00000000000016
 20
-101.00000000000011
 30
0.00000000000000
 11
77.00000000000017
 21
-102.99999999999997
 31
0.00000000000000
  0
LINE
  5
179
330
20
100
AcDbEntity
  8
+ Zeichnungen 5
  6
CONTINUOUS
 62
     7
370
    18
100
AcDbLine
 10
77.00000000000017
 20
-103.00000000000016
 30
0.00000000000000
 11
83.00000000000017
 21
-103.00000000000016
 31
0.00000000000000
  0
LINE
  5
17A
330
20
100
AcDbEntity
  8
+ Zeichnungen 5
  6
CONTINUOUS
 62
     7
370
    18
100
AcDbLine
 10
83.00000000000017
 20
-103.00000000000016
 30
0.00000000000000
 11
85.00000000000013
 21
-101.00000000000020
 31
0.00000000000000
  0
LINE
  5
17B
330
20
100
AcDbEntity
  8
+ Zeichnungen 5
  6
CONTINUOUS
 62
     7
370
    18
100
AcDbLine
 10
85.00000000000013
 20
-101.00000000000011
 30
0.00000000000000
 11
95.00000000000014
 21
-101.00000000000011
 31
0.00000000000000
  0
LINE
  5
17C
330
20
100
AcDbEntity
  8
+ Zeichnungen 5
  6
CONTINUOUS
 62
     7
370
    18
100
AcDbLine
 10
103.00000000000018
 20
-102.99999999999997
 30
0.00000000000000
 11
105.00000000000023
 21
-101.00000000000011
 31
0.00000000000000
  0
LINE
  5
17D
330
20
100
AcDbEntity
  8
+ Zeichnungen 5
  6
CONTINUOUS
 62
     7
370
    18
100
AcDbLine
 10
97.00000000000023
 20
-103.00000000000016
 30
0.00000000000000
 11
103.00000000000023
 21
-103.00000000000016
 31
0.00000000000000
  0
LINE
  5
17E
330
20
100
AcDbEntity
  8
+ Zeichnungen 5
  6
CONTINUOUS
 62
     7
370
    18
100
AcDbLine
 10
95.00000000000023
 20
-101.00000000000020
 30
0.00000000000000
 11
97.00000000000023
 21
-103.00000000000016
 31
0.00000000000000
  0
LINE
  5
17F
330
20
100
AcDbEntity
  8
+ Zeichnungen 5
  6
CONTINUOUS
 62
     7
370
    18
100
AcDbLine
 10
75.00000000000016
 20
-101.00000000000003
 30
0.00000000000000
 11
69.20000000000013
 21
-101.00000000000003
 31
0.00000000000000
  0
LINE
  5
180
330
20
100
AcDbEntity
  8
+ Zeichnungen 5
  6
CONTINUOUS
 62
     7
370
    18
100
AcDbLine
 10
105.00000000000014
 20
-101.00000000000011
 30
0.00000000000000
 11
107.00000000000014
 21
-101.00000000000011
 31
0.00000000000000
  0
LINE
  5
181
330
20
100
AcDbEntity
  8
+ Zeichnungen 5
  6
CONTINUOUS
 62
     7
370
    18
100
AcDbLine
 10
107.00000000000014
 20
-101.00000000000011
 30
0.00000000000000
 11
107.00000000000014
 21
-104.00000000000023
 31
0.00000000000000
  0
LINE
  5
182
330
20
100
AcDbEntity
  8
+ Zeichnungen 5
  6
CONTINUOUS
 62
     7
370
    18
100
AcDbLine
 10
107.00000000000014
 20
-104.00000000000023
 30
0.00000000000000
 11
109.00000000000016
 21
-104.00000000000023
 31
0.00000000000000
  0
LINE
  5
183
330
20
100
AcDbEntity
  8
+ Zeichnungen 5
  6
CONTINUOUS
 62
     7
370
    18
100
AcDbLine
 10
109.00000000000016
 20
-104.00000000000023
 30
0.00000000000000
 11
109.00000000000016
 21
-103.00000000000016
 31
0.00000000000000
  0
LINE
  5
184
330
20
100
AcDbEntity
  8
+ Zeichnungen 5
  6
CONTINUOUS
 62
     7
370
    18
100
AcDbLine
 10
109.00000000000016
 20
-103.00000000000016
 30
0.00000000000000
 11
111.00000000000016
 21
-103.00000000000016
 31
0.00000000000000
  0
LINE
  5
185
330
20
100
AcDbEntity
  8
+ Zeichnungen 5
  6
CONTINUOUS
 62
     7
370
    18
100
AcDbLine
 10
111.00000000000016
 20
-103.00000000000016
 30
0.00000000000000
 11
111.00000000000010
 21
-106.00000000000027
 31
0.00000000000000
  0
LINE
  5
186
330
20
100
AcDbEntity
  8
+ Zeichnungen 5
  6
CONTINUOUS
 62
     7
370
    18
100
AcDbLine
 10
84.24264068711935
 20
-106.00000000000018
 30
0.00000000000000
 11
86.24264068711953
 21
-104.00000000000004
 31
0.00000000000000
  0
LINE
  5
187
330
20
100
AcDbEntity
  8
+ Zeichnungen 5
  6
CONTINUOUS
 62
     7
370
    18
100
AcDbLine
 10
86.24264068711953
 20
-104.00000000000004
 30
0.00000000000000
 11
93.75735931288081
 21
-104.00000000000004
 31
0.00000000000000
  0
LINE
  5
188
330
20
100
AcDbEntity
  8
+ Zeichnungen 5
  6
CONTINUOUS
 62
     7
370
    18
100
AcDbLine
 10
95.75735931288104
 20
-106.00000000000037
 30
0.00000000000000
 11
93.75735931288081
 21
-104.00000000000004
 31
0.00000000000000
  0
LINE
  5
189
330
20
100
AcDbEntity
  8
+ Zeichnungen 5
  6
CONTINUOUS
 62
     7
370
    18
100
AcDbLine
 10
73.20000000000015
 20
-106.00000000000001
 30
0.00000000000000
 11
77.80000000000015
 21
-106.00000000000009
 31
0.00000000000000
  0
LINE
  5
18A
330
20
100
AcDbEntity
  8
+ Zeichnungen 5
  6
CONTINUOUS
 62
     7
370
    18
100
AcDbLine
 10
79.80000000000017
 20
-106.00000000000018
 30
0.00000000000000
 11
84.24264068711923
 21
-106.00000000000009
 31
0.00000000000000
  0
LINE
  5
18B
330
20
100
AcDbEntity
  8
+ Zeichnungen 5
  6
CONTINUOUS
 62
     7
370
    18
100
AcDbLine
 10
95.75735931288104
 20
-106.00000000000045
 30
0.00000000000000
 11
100.37867965644057
 21
-106.00000000000037
 31
0.00000000000000
  0
LINE
  5
18C
330
20
100
AcDbEntity
  8
+ Zeichnungen 5
  6
CONTINUOUS
 62
     7
370
    18
100
AcDbLine
 10
102.37867965644053
 20
-106.00000000000045
 30
0.00000000000000
 11
111.00000000000010
 21
-106.00000000000009
 31
0.00000000000000
  0
ARC
  5
18D
330
20
100
AcDbEntity
  8
+ Zeichnungen 5
  6
CONTINUOUS
 62
     7
370
    18
100
AcDbCircle
 10
78.80000000000014
 20
-106.00000000000009
 30
0.00000000000000
 40
1.00000000000002
100
AcDbArc
 50
180.00000000000000
 51
0.00000000000000
  0
ARC
  5
18E
330
20
100
AcDbEntity
  8
+ Zeichnungen 5
  6
CONTINUOUS
 62
     7
370
    18
100
AcDbCircle
 10
101.37867965644054
 20
-106.00000000000027
 30
0.00000000000000
 40
1.00000000000002
100
AcDbArc
 50
180.00000000000000
 51
0.00000000000000
  0
ENDBLK
  5
18F
330
20
100
AcDbEntity
  8
0
100
AcDbBlockEnd
  0
BLOCK
  5
190
330
21
100
AcDbEntity
  8
0
100
AcDbBlockBegin
  2
*U10
 70
     1
 10
0.00000000000000
 20
0.00000000000000
 30
0.00000000000000
  3
*U10
  1

  0
LINE
  5
191
330
21
100
AcDbEntity
  8
+ Zeichnungen 5
  6
CONTINUOUS
 62
     7
370
    18
100
AcDbLine
 10
28.00000000000011
 20
-100.99999999999993
 30
0.00000000000000
 11
28.00000000000011
 21
-116.99999999999987
 31
0.00000000000000
  0
LINE
  5
192
330
21
100
AcDbEntity
  8
+ Zeichnungen 5
  6
CONTINUOUS
 62
     7
370
    18
100
AcDbLine
 10
28.00000000000010
 20
-116.99999999999987
 30
0.00000000000000
 11
30.00000000000011
 21
-116.99999999999987
 31
0.00000000000000
  0
LINE
  5
193
330
21
100
AcDbEntity
  8
+ Zeichnungen 5
  6
CONTINUOUS
 62
     7
370
    18
100
AcDbLine
 10
30.00000000000012
 20
-116.99999999999977
 30
0.00000000000000
 11
30.00000000000012
 21
-102.99999999999997
 31
0.00000000000000
  0
LINE
  5
194
330
21
100
AcDbEntity
  8
+ Zeichnungen 5
  6
CONTINUOUS
 62
     7
370
    18
100
AcDbLine
 10
30.00000000000012
 20
-102.99999999999997
 30
0.00000000000000
 11
35.00000000000012
 21
-102.99999999999990
 31
0.00000000000000
  0
LINE
  5
195
330
21
100
AcDbEntity
  8
+ Zeichnungen 5
  6
CONTINUOUS
 62
     7
370
    18
100
AcDbLine
 10
35.00000000000012
 20
-102.99999999999997
 30
0.00000000000000
 11
35.00000000000010
 21
-105.99999999999993
 31
0.00000000000000
  0
LINE
  5
196
330
21
100
AcDbEntity
  8
+ Zeichnungen 5
  6
CONTINUOUS
 62
     7
370
    18
100
AcDbLine
 10
37.00000000000012
 20
-100.99999999999993
 30
0.00000000000000
 11
39.00000000000014
 21
-102.99999999999982
 31
0.00000000000000
  0
LINE
  5
197
330
21
100
AcDbEntity
  8
+ Zeichnungen 5
  6
CONTINUOUS
 62
     7
370
    18
100
AcDbLine
 10
39.00000000000012
 20
-102.99999999999997
 30
0.00000000000000
 11
45.00000000000013
 21
-102.99999999999997
 31
0.00000000000000
  0
LINE
  5
198
330
21
100
AcDbEntity
  8
+ Zeichnungen 5
  6
CONTINUOUS
 62
     7
370
    18
100
AcDbLine
 10
45.00000000000013
 20
-102.99999999999997
 30
0.00000000000000
 11
47.00000000000011
 21
-101.00000000000003
 31
0.00000000000000
  0
LINE
  5
199
330
21
100
AcDbEntity
  8
+ Zeichnungen 5
  6
CONTINUOUS
 62
     7
370
    18
100
AcDbLine
 10
47.00000000000011
 20
-100.99999999999993
 30
0.00000000000000
 11
57.00000000000011
 21
-100.99999999999993
 31
0.00000000000000
  0
LINE
  5
19A
330
21
100
AcDbEntity
  8
+ Zeichnungen 5
  6
CONTINUOUS
 62
     7
370
    18
100
AcDbLine
 10
65.00000000000016
 20
-102.99999999999982
 30
0.00000000000000
 11
67.00000000000020
 21
-100.99999999999993
 31
0.00000000000000
  0
LINE
  5
19B
330
21
100
AcDbEntity
  8
+ Zeichnungen 5
  6
CONTINUOUS
 62
     7
370
    18
100
AcDbLine
 10
59.00000000000020
 20
-102.99999999999997
 30
0.00000000000000
 11
65.00000000000020
 21
-102.99999999999997
 31
0.00000000000000
  0
LINE
  5
19C
330
21
100
AcDbEntity
  8
+ Zeichnungen 5
  6
CONTINUOUS
 62
     7
370
    18
100
AcDbLine
 10
57.00000000000019
 20
-101.00000000000003
 30
0.00000000000000
 11
59.00000000000020
 21
-102.99999999999997
 31
0.00000000000000
  0
LINE
  5
19D
330
21
100
AcDbEntity
  8
+ Zeichnungen 5
  6
CONTINUOUS
 62
     7
370
    18
100
AcDbLine
 10
37.00000000000012
 20
-100.99999999999986
 30
0.00000000000000
 11
28.00000000000011
 21
-100.99999999999986
 31
0.00000000000000
  0
LINE
  5
19E
330
21
100
AcDbEntity
  8
+ Zeichnungen 5
  6
CONTINUOUS
 62
     7
370
    18
100
AcDbLine
 10
67.00000000000010
 20
-100.99999999999993
 30
0.00000000000000
 11
69.00000000000010
 21
-100.99999999999993
 31
0.00000000000000
  0
LINE
  5
19F
330
21
100
AcDbEntity
  8
+ Zeichnungen 5
  6
CONTINUOUS
 62
     7
370
    18
100
AcDbLine
 10
69.00000000000010
 20
-100.99999999999993
 30
0.00000000000000
 11
69.00000000000010
 21
-104.00000000000004
 31
0.00000000000000
  0
LINE
  5
1A0
330
21
100
AcDbEntity
  8
+ Zeichnungen 5
  6
CONTINUOUS
 62
     7
370
    18
100
AcDbLine
 10
69.00000000000010
 20
-104.00000000000004
 30
0.00000000000000
 11
71.00000000000010
 21
-104.00000000000004
 31
0.00000000000000
  0
LINE
  5
1A1
330
21
100
AcDbEntity
  8
+ Zeichnungen 5
  6
CONTINUOUS
 62
     7
370
    18
100
AcDbLine
 10
71.00000000000010
 20
-104.00000000000004
 30
0.00000000000000
 11
71.00000000000010
 21
-102.99999999999997
 31
0.00000000000000
  0
LINE
  5
1A2
330
21
100
AcDbEntity
  8
+ Zeichnungen 5
  6
CONTINUOUS
 62
     7
370
    18
100
AcDbLine
 10
71.00000000000010
 20
-102.99999999999997
 30
0.00000000000000
 11
73.00000000000010
 21
-102.99999999999997
 31
0.00000000000000
  0
LINE
  5
1A3
330
21
100
AcDbEntity
  8
+ Zeichnungen 5
  6
CONTINUOUS
 62
     7
370
    18
100
AcDbLine
 10
73.00000000000010
 20
-102.99999999999997
 30
0.00000000000000
 11
73.00000000000006
 21
-106.00000000000009
 31
0.00000000000000
  0
LINE
  5
1A4
330
21
100
AcDbEntity
  8
+ Zeichnungen 5
  6
CONTINUOUS
 62
     7
370
    18
100
AcDbLine
 10
46.24264068711932
 20
-106.00000000000001
 30
0.00000000000000
 11
48.24264068711950
 21
-103.99999999999987
 31
0.00000000000000
  0
LINE
  5
1A5
330
21
100
AcDbEntity
  8
+ Zeichnungen 5
  6
CONTINUOUS
 62
     7
370
    18
100
AcDbLine
 10
48.24264068711950
 20
-103.99999999999987
 30
0.00000000000000
 11
55.75735931288078
 21
-103.99999999999987
 31
0.00000000000000
  0
LINE
  5
1A6
330
21
100
AcDbEntity
  8
+ Zeichnungen 5
  6
CONTINUOUS
 62
     7
370
    18
100
AcDbLine
 10
57.75735931288101
 20
-106.00000000000018
 30
0.00000000000000
 11
55.75735931288078
 21
-103.99999999999987
 31
0.00000000000000
  0
LINE
  5
1A7
330
21
100
AcDbEntity
  8
+ Zeichnungen 5
  6
CONTINUOUS
 62
     7
370
    18
100
AcDbLine
 10
35.00000000000012
 20
-105.99999999999993
 30
0.00000000000000
 11
39.80000000000013
 21
-105.99999999999993
 31
0.00000000000000
  0
LINE
  5
1A8
330
21
100
AcDbEntity
  8
+ Zeichnungen 5
  6
CONTINUOUS
 62
     7
370
    18
100
AcDbLine
 10
41.80000000000013
 20
-106.00000000000001
 30
0.00000000000000
 11
46.24264068711919
 21
-105.99999999999993
 31
0.00000000000000
  0
LINE
  5
1A9
330
21
100
AcDbEntity
  8
+ Zeichnungen 5
  6
CONTINUOUS
 62
     7
370
    18
100
AcDbLine
 10
57.75735931288101
 20
-106.00000000000027
 30
0.00000000000000
 11
62.37867965644053
 21
-106.00000000000018
 31
0.00000000000000
  0
LINE
  5
1AA
330
21
100
AcDbEntity
  8
+ Zeichnungen 5
  6
CONTINUOUS
 62
     7
370
    18
100
AcDbLine
 10
64.37867965644050
 20
-106.00000000000027
 30
0.00000000000000
 11
73.00000000000006
 21
-105.99999999999993
 31
0.00000000000000
  0
ARC
  5
1AB
330
21
100
AcDbEntity
  8
+ Zeichnungen 5
  6
CONTINUOUS
 62
     7
370
    18
100
AcDbCircle
 10
40.80000000000013
 20
-105.99999999999993
 30
0.00000000000000
 40
1.00000000000000
100
AcDbArc
 50
180.00000000000000
 51
0.00000000000000
  0
ARC
  5
1AC
330
21
100
AcDbEntity
  8
+ Zeichnungen 5
  6
CONTINUOUS
 62
     7
370
    18
100
AcDbCircle
 10
63.37867965644050
 20
-106.00000000000009
 30
0.00000000000000
 40
1.00000000000002
100
AcDbArc
 50
180.00000000000000
 51
0.00000000000000
  0
ENDBLK
  5
1AD
330
21
100
AcDbEntity
  8
0
100
AcDbBlockEnd
  0
BLOCK
  5
1AE
330
22
100
AcDbEntity
  8
0
100
AcDbBlockBegin
  2
*U11
 70
     1
 10
0.00000000000000
 20
0.00000000000000
 30
0.00000000000000
  3
*U11
  1

  0
LINE
  5
1AF
330
22
100
AcDbEntity
  8
+ Zeichnungen 5
  6
CONTINUOUS
 62
     7
370
    18
100
AcDbLine
 10
107.20000000000017
 20
-101.00000000000003
 30
0.00000000000000
 11
107.20000000000017
 21
-103.80000000000025
 31
0.00000000000000
  0
LINE
  5
1B0
330
22
100
AcDbEntity
  8
+ Zeichnungen 5
  6
CONTINUOUS
 62
     7
370
    18
100
AcDbLine
 10
107.20000000000017
 20
-103.80000000000017
 30
0.00000000000000
 11
108.80000000000017
 21
-103.80000000000017
 31
0.00000000000000
  0
LINE
  5
1B1
330
22
100
AcDbEntity
  8
+ Zeichnungen 5
  6
CONTINUOUS
 62
     7
370
    18
100
AcDbLine
 10
108.80000000000021
 20
-103.80000000000025
 30
0.00000000000000
 11
108.80000000000017
 21
-102.80000000000010
 31
0.00000000000000
  0
LINE
  5
1B2
330
22
100
AcDbEntity
  8
+ Zeichnungen 5
  6
CONTINUOUS
 62
     7
370
    18
100
AcDbLine
 10
108.80000000000017
 20
-102.80000000000010
 30
0.00000000000000
 11
111.20000000000017
 21
-102.80000000000010
 31
0.00000000000000
  0
LINE
  5
1B3
330
22
100
AcDbEntity
  8
+ Zeichnungen 5
  6
CONTINUOUS
 62
     7
370
    18
100
AcDbLine
 10
111.20000000000017
 20
-102.80000000000010
 30
0.00000000000000
 11
111.20000000000017
 21
-106.00000000000009
 31
0.00000000000000
  0
LINE
  5
1B4
330
22
100
AcDbEntity
  8
+ Zeichnungen 5
  6
CONTINUOUS
 62
     7
370
    18
100
AcDbLine
 10
113.00000000000020
 20
-101.00000000000011
 30
0.00000000000000
 11
115.00000000000020
 21
-102.99999999999997
 31
0.00000000000000
  0
LINE
  5
1B5
330
22
100
AcDbEntity
  8
+ Zeichnungen 5
  6
CONTINUOUS
 62
     7
370
    18
100
AcDbLine
 10
115.00000000000020
 20
-103.00000000000016
 30
0.00000000000000
 11
121.00000000000020
 21
-103.00000000000016
 31
0.00000000000000
  0
LINE
  5
1B6
330
22
100
AcDbEntity
  8
+ Zeichnungen 5
  6
CONTINUOUS
 62
     7
370
    18
100
AcDbLine
 10
121.00000000000020
 20
-103.00000000000016
 30
0.00000000000000
 11
123.00000000000016
 21
-101.00000000000020
 31
0.00000000000000
  0
LINE
  5
1B7
330
22
100
AcDbEntity
  8
+ Zeichnungen 5
  6
CONTINUOUS
 62
     7
370
    18
100
AcDbLine
 10
123.00000000000016
 20
-101.00000000000011
 30
0.00000000000000
 11
133.00000000000017
 21
-101.00000000000011
 31
0.00000000000000
  0
LINE
  5
1B8
330
22
100
AcDbEntity
  8
+ Zeichnungen 5
  6
CONTINUOUS
 62
     7
370
    18
100
AcDbLine
 10
141.00000000000020
 20
-102.99999999999997
 30
0.00000000000000
 11
143.00000000000026
 21
-101.00000000000011
 31
0.00000000000000
  0
LINE
  5
1B9
330
22
100
AcDbEntity
  8
+ Zeichnungen 5
  6
CONTINUOUS
 62
     7
370
    18
100
AcDbLine
 10
135.00000000000026
 20
-103.00000000000016
 30
0.00000000000000
 11
141.00000000000026
 21
-103.00000000000016
 31
0.00000000000000
  0
LINE
  5
1BA
330
22
100
AcDbEntity
  8
+ Zeichnungen 5
  6
CONTINUOUS
 62
     7
370
    18
100
AcDbLine
 10
133.00000000000026
 20
-101.00000000000020
 30
0.00000000000000
 11
135.00000000000026
 21
-103.00000000000016
 31
0.00000000000000
  0
LINE
  5
1BB
330
22
100
AcDbEntity
  8
+ Zeichnungen 5
  6
CONTINUOUS
 62
     7
370
    18
100
AcDbLine
 10
113.00000000000020
 20
-101.00000000000003
 30
0.00000000000000
 11
107.20000000000017
 21
-101.00000000000003
 31
0.00000000000000
  0
LINE
  5
1BC
330
22
100
AcDbEntity
  8
+ Zeichnungen 5
  6
CONTINUOUS
 62
     7
370
    18
100
AcDbLine
 10
143.00000000000017
 20
-101.00000000000011
 30
0.00000000000000
 11
145.00000000000017
 21
-101.00000000000011
 31
0.00000000000000
  0
LINE
  5
1BD
330
22
100
AcDbEntity
  8
+ Zeichnungen 5
  6
CONTINUOUS
 62
     7
370
    18
100
AcDbLine
 10
145.00000000000017
 20
-101.00000000000011
 30
0.00000000000000
 11
145.00000000000017
 21
-104.00000000000023
 31
0.00000000000000
  0
LINE
  5
1BE
330
22
100
AcDbEntity
  8
+ Zeichnungen 5
  6
CONTINUOUS
 62
     7
370
    18
100
AcDbLine
 10
145.00000000000017
 20
-104.00000000000023
 30
0.00000000000000
 11
147.00000000000017
 21
-104.00000000000023
 31
0.00000000000000
  0
LINE
  5
1BF
330
22
100
AcDbEntity
  8
+ Zeichnungen 5
  6
CONTINUOUS
 62
     7
370
    18
100
AcDbLine
 10
147.00000000000017
 20
-104.00000000000023
 30
0.00000000000000
 11
147.00000000000017
 21
-103.00000000000016
 31
0.00000000000000
  0
LINE
  5
1C0
330
22
100
AcDbEntity
  8
+ Zeichnungen 5
  6
CONTINUOUS
 62
     7
370
    18
100
AcDbLine
 10
147.00000000000017
 20
-103.00000000000016
 30
0.00000000000000
 11
149.00000000000020
 21
-103.00000000000016
 31
0.00000000000000
  0
LINE
  5
1C1
330
22
100
AcDbEntity
  8
+ Zeichnungen 5
  6
CONTINUOUS
 62
     7
370
    18
100
AcDbLine
 10
149.00000000000020
 20
-103.00000000000016
 30
0.00000000000000
 11
149.00000000000014
 21
-106.00000000000027
 31
0.00000000000000
  0
LINE
  5
1C2
330
22
100
AcDbEntity
  8
+ Zeichnungen 5
  6
CONTINUOUS
 62
     7
370
    18
100
AcDbLine
 10
122.24264068711939
 20
-106.00000000000018
 30
0.00000000000000
 11
124.24264068711958
 21
-104.00000000000004
 31
0.00000000000000
  0
LINE
  5
1C3
330
22
100
AcDbEntity
  8
+ Zeichnungen 5
  6
CONTINUOUS
 62
     7
370
    18
100
AcDbLine
 10
124.24264068711958
 20
-104.00000000000004
 30
0.00000000000000
 11
131.75735931288085
 21
-104.00000000000004
 31
0.00000000000000
  0
LINE
  5
1C4
330
22
100
AcDbEntity
  8
+ Zeichnungen 5
  6
CONTINUOUS
 62
     7
370
    18
100
AcDbLine
 10
133.75735931288108
 20
-106.00000000000037
 30
0.00000000000000
 11
131.75735931288085
 21
-104.00000000000004
 31
0.00000000000000
  0
LINE
  5
1C5
330
22
100
AcDbEntity
  8
+ Zeichnungen 5
  6
CONTINUOUS
 62
     7
370
    18
100
AcDbLine
 10
111.20000000000017
 20
-106.00000000000001
 30
0.00000000000000
 11
115.80000000000020
 21
-106.00000000000009
 31
0.00000000000000
  0
LINE
  5
1C6
330
22
100
AcDbEntity
  8
+ Zeichnungen 5
  6
CONTINUOUS
 62
     7
370
    18
100
AcDbLine
 10
117.80000000000020
 20
-106.00000000000018
 30
0.00000000000000
 11
122.24264068711926
 21
-106.00000000000009
 31
0.00000000000000
  0
LINE
  5
1C7
330
22
100
AcDbEntity
  8
+ Zeichnungen 5
  6
CONTINUOUS
 62
     7
370
    18
100
AcDbLine
 10
133.75735931288108
 20
-106.00000000000045
 30
0.00000000000000
 11
138.37867965644060
 21
-106.00000000000037
 31
0.00000000000000
  0
LINE
  5
1C8
330
22
100
AcDbEntity
  8
+ Zeichnungen 5
  6
CONTINUOUS
 62
     7
370
    18
100
AcDbLine
 10
140.37867965644054
 20
-106.00000000000045
 30
0.00000000000000
 11
149.00000000000014
 21
-106.00000000000009
 31
0.00000000000000
  0
ARC
  5
1C9
330
22
100
AcDbEntity
  8
+ Zeichnungen 5
  6
CONTINUOUS
 62
     7
370
    18
100
AcDbCircle
 10
116.80000000000018
 20
-106.00000000000009
 30
0.00000000000000
 40
1.00000000000002
100
AcDbArc
 50
180.00000000000000
 51
0.00000000000000
  0
ARC
  5
1CA
330
22
100
AcDbEntity
  8
+ Zeichnungen 5
  6
CONTINUOUS
 62
     7
370
    18
100
AcDbCircle
 10
139.37867965644057
 20
-106.00000000000027
 30
0.00000000000000
 40
1.00000000000002
100
AcDbArc
 50
180.00000000000000
 51
0.00000000000000
  0
ENDBLK
  5
1CB
330
22
100
AcDbEntity
  8
0
100
AcDbBlockEnd
  0
BLOCK
  5
1CC
330
23
100
AcDbEntity
  8
0
100
AcDbBlockBegin
  2
*U12
 70
     1
 10
0.00000000000000
 20
0.00000000000000
 30
0.00000000000000
  3
*U12
  1

  0
LINE
  5
1CD
330
23
100
AcDbEntity
  8
+ Zeichnungen 5
  6
CONTINUOUS
 62
     7
370
    18
100
AcDbLine
 10
145.20000000000019
 20
-101.00000000000003
 30
0.00000000000000
 11
145.20000000000019
 21
-103.80000000000025
 31
0.00000000000000
  0
LINE
  5
1CE
330
23
100
AcDbEntity
  8
+ Zeichnungen 5
  6
CONTINUOUS
 62
     7
370
    18
100
AcDbLine
 10
145.20000000000019
 20
-103.80000000000017
 30
0.00000000000000
 11
146.80000000000021
 21
-103.80000000000017
 31
0.00000000000000
  0
LINE
  5
1CF
330
23
100
AcDbEntity
  8
+ Zeichnungen 5
  6
CONTINUOUS
 62
     7
370
    18
100
AcDbLine
 10
146.80000000000024
 20
-103.80000000000025
 30
0.00000000000000
 11
146.80000000000021
 21
-102.80000000000010
 31
0.00000000000000
  0
LINE
  5
1D0
330
23
100
AcDbEntity
  8
+ Zeichnungen 5
  6
CONTINUOUS
 62
     7
370
    18
100
AcDbLine
 10
146.80000000000021
 20
-102.80000000000010
 30
0.00000000000000
 11
149.20000000000019
 21
-102.80000000000010
 31
0.00000000000000
  0
LINE
  5
1D1
330
23
100
AcDbEntity
  8
+ Zeichnungen 5
  6
CONTINUOUS
 62
     7
370
    18
100
AcDbLine
 10
149.20000000000019
 20
-102.80000000000010
 30
0.00000000000000
 11
149.20000000000019
 21
-106.00000000000009
 31
0.00000000000000
  0
LINE
  5
1D2
330
23
100
AcDbEntity
  8
+ Zeichnungen 5
  6
CONTINUOUS
 62
     7
370
    18
100
AcDbLine
 10
151.00000000000026
 20
-101.00000000000011
 30
0.00000000000000
 11
153.00000000000026
 21
-102.99999999999997
 31
0.00000000000000
  0
LINE
  5
1D3
330
23
100
AcDbEntity
  8
+ Zeichnungen 5
  6
CONTINUOUS
 62
     7
370
    18
100
AcDbLine
 10
153.00000000000020
 20
-103.00000000000016
 30
0.00000000000000
 11
159.00000000000026
 21
-103.00000000000016
 31
0.00000000000000
  0
LINE
  5
1D4
330
23
100
AcDbEntity
  8
+ Zeichnungen 5
  6
CONTINUOUS
 62
     7
370
    18
100
AcDbLine
 10
159.00000000000026
 20
-103.00000000000016
 30
0.00000000000000
 11
161.00000000000020
 21
-101.00000000000020
 31
0.00000000000000
  0
LINE
  5
1D5
330
23
100
AcDbEntity
  8
+ Zeichnungen 5
  6
CONTINUOUS
 62
     7
370
    18
100
AcDbLine
 10
161.00000000000020
 20
-101.00000000000011
 30
0.00000000000000
 11
171.00000000000020
 21
-101.00000000000011
 31
0.00000000000000
  0
LINE
  5
1D6
330
23
100
AcDbEntity
  8
+ Zeichnungen 5
  6
CONTINUOUS
 62
     7
370
    18
100
AcDbLine
 10
179.00000000000026
 20
-102.99999999999997
 30
0.00000000000000
 11
181.00000000000028
 21
-101.00000000000011
 31
0.00000000000000
  0
LINE
  5
1D7
330
23
100
AcDbEntity
  8
+ Zeichnungen 5
  6
CONTINUOUS
 62
     7
370
    18
100
AcDbLine
 10
173.00000000000028
 20
-103.00000000000016
 30
0.00000000000000
 11
179.00000000000026
 21
-103.00000000000016
 31
0.00000000000000
  0
LINE
  5
1D8
330
23
100
AcDbEntity
  8
+ Zeichnungen 5
  6
CONTINUOUS
 62
     7
370
    18
100
AcDbLine
 10
171.00000000000028
 20
-101.00000000000020
 30
0.00000000000000
 11
173.00000000000028
 21
-103.00000000000016
 31
0.00000000000000
  0
LINE
  5
1D9
330
23
100
AcDbEntity
  8
+ Zeichnungen 5
  6
CONTINUOUS
 62
     7
370
    18
100
AcDbLine
 10
151.00000000000026
 20
-101.00000000000003
 30
0.00000000000000
 11
145.20000000000019
 21
-101.00000000000003
 31
0.00000000000000
  0
LINE
  5
1DA
330
23
100
AcDbEntity
  8
+ Zeichnungen 5
  6
CONTINUOUS
 62
     7
370
    18
100
AcDbLine
 10
181.00000000000020
 20
-101.00000000000011
 30
0.00000000000000
 11
183.00000000000023
 21
-101.00000000000011
 31
0.00000000000000
  0
LINE
  5
1DB
330
23
100
AcDbEntity
  8
+ Zeichnungen 5
  6
CONTINUOUS
 62
     7
370
    18
100
AcDbLine
 10
183.00000000000023
 20
-101.00000000000011
 30
0.00000000000000
 11
183.00000000000023
 21
-104.00000000000023
 31
0.00000000000000
  0
LINE
  5
1DC
330
23
100
AcDbEntity
  8
+ Zeichnungen 5
  6
CONTINUOUS
 62
     7
370
    18
100
AcDbLine
 10
183.00000000000023
 20
-104.00000000000023
 30
0.00000000000000
 11
185.00000000000023
 21
-104.00000000000023
 31
0.00000000000000
  0
LINE
  5
1DD
330
23
100
AcDbEntity
  8
+ Zeichnungen 5
  6
CONTINUOUS
 62
     7
370
    18
100
AcDbLine
 10
185.00000000000023
 20
-104.00000000000023
 30
0.00000000000000
 11
185.00000000000023
 21
-103.00000000000016
 31
0.00000000000000
  0
LINE
  5
1DE
330
23
100
AcDbEntity
  8
+ Zeichnungen 5
  6
CONTINUOUS
 62
     7
370
    18
100
AcDbLine
 10
185.00000000000023
 20
-103.00000000000016
 30
0.00000000000000
 11
187.00000000000017
 21
-103.00000000000016
 31
0.00000000000000
  0
LINE
  5
1DF
330
23
100
AcDbEntity
  8
+ Zeichnungen 5
  6
CONTINUOUS
 62
     7
370
    18
100
AcDbLine
 10
187.00000000000017
 20
-103.00000000000016
 30
0.00000000000000
 11
187.00000000000017
 21
-106.00000000000027
 31
0.00000000000000
  0
LINE
  5
1E0
330
23
100
AcDbEntity
  8
+ Zeichnungen 5
  6
CONTINUOUS
 62
     7
370
    18
100
AcDbLine
 10
160.24264068711938
 20
-106.00000000000018
 30
0.00000000000000
 11
162.24264068711960
 21
-104.00000000000004
 31
0.00000000000000
  0
LINE
  5
1E1
330
23
100
AcDbEntity
  8
+ Zeichnungen 5
  6
CONTINUOUS
 62
     7
370
    18
100
AcDbLine
 10
162.24264068711960
 20
-104.00000000000004
 30
0.00000000000000
 11
169.75735931288088
 21
-104.00000000000004
 31
0.00000000000000
  0
LINE
  5
1E2
330
23
100
AcDbEntity
  8
+ Zeichnungen 5
  6
CONTINUOUS
 62
     7
370
    18
100
AcDbLine
 10
171.75735931288105
 20
-106.00000000000037
 30
0.00000000000000
 11
169.75735931288088
 21
-104.00000000000004
 31
0.00000000000000
  0
LINE
  5
1E3
330
23
100
AcDbEntity
  8
+ Zeichnungen 5
  6
CONTINUOUS
 62
     7
370
    18
100
AcDbLine
 10
149.20000000000019
 20
-106.00000000000001
 30
0.00000000000000
 11
153.80000000000018
 21
-106.00000000000009
 31
0.00000000000000
  0
LINE
  5
1E4
330
23
100
AcDbEntity
  8
+ Zeichnungen 5
  6
CONTINUOUS
 62
     7
370
    18
100
AcDbLine
 10
155.80000000000024
 20
-106.00000000000018
 30
0.00000000000000
 11
160.24264068711929
 21
-106.00000000000009
 31
0.00000000000000
  0
LINE
  5
1E5
330
23
100
AcDbEntity
  8
+ Zeichnungen 5
  6
CONTINUOUS
 62
     7
370
    18
100
AcDbLine
 10
171.75735931288105
 20
-106.00000000000045
 30
0.00000000000000
 11
176.37867965644062
 21
-106.00000000000037
 31
0.00000000000000
  0
LINE
  5
1E6
330
23
100
AcDbEntity
  8
+ Zeichnungen 5
  6
CONTINUOUS
 62
     7
370
    18
100
AcDbLine
 10
178.37867965644060
 20
-106.00000000000045
 30
0.00000000000000
 11
187.00000000000017
 21
-106.00000000000009
 31
0.00000000000000
  0
ARC
  5
1E7
330
23
100
AcDbEntity
  8
+ Zeichnungen 5
  6
CONTINUOUS
 62
     7
370
    18
100
AcDbCircle
 10
154.80000000000021
 20
-106.00000000000009
 30
0.00000000000000
 40
1.00000000000002
100
AcDbArc
 50
180.00000000000000
 51
0.00000000000000
  0
ARC
  5
1E8
330
23
100
AcDbEntity
  8
+ Zeichnungen 5
  6
CONTINUOUS
 62
     7
370
    18
100
AcDbCircle
 10
177.37867965644060
 20
-106.00000000000027
 30
0.00000000000000
 40
1.00000000000002
100
AcDbArc
 50
180.00000000000000
 51
0.00000000000000
  0
ENDBLK
  5
1E9
330
23
100
AcDbEntity
  8
0
100
AcDbBlockEnd
  0
BLOCK
  5
1EA
330
24
100
AcDbEntity
  8
0
100
AcDbBlockBegin
  2
*U13
 70
     1
 10
0.00000000000000
 20
0.00000000000000
 30
0.00000000000000
  3
*U13
  1

  0
LINE
  5
1EB
330
24
100
AcDbEntity
  8
+ Zeichnungen 5
  6
CONTINUOUS
 62
     7
370
    18
100
AcDbLine
 10
183.20000000000024
 20
-101.00000000000003
 30
0.00000000000000
 11
183.20000000000024
 21
-103.80000000000025
 31
0.00000000000000
  0
LINE
  5
1EC
330
24
100
AcDbEntity
  8
+ Zeichnungen 5
  6
CONTINUOUS
 62
     7
370
    18
100
AcDbLine
 10
183.20000000000024
 20
-103.80000000000017
 30
0.00000000000000
 11
184.80000000000024
 21
-103.80000000000017
 31
0.00000000000000
  0
LINE
  5
1ED
330
24
100
AcDbEntity
  8
+ Zeichnungen 5
  6
CONTINUOUS
 62
     7
370
    18
100
AcDbLine
 10
184.80000000000024
 20
-103.80000000000025
 30
0.00000000000000
 11
184.80000000000024
 21
-102.80000000000010
 31
0.00000000000000
  0
LINE
  5
1EE
330
24
100
AcDbEntity
  8
+ Zeichnungen 5
  6
CONTINUOUS
 62
     7
370
    18
100
AcDbLine
 10
184.80000000000024
 20
-102.80000000000010
 30
0.00000000000000
 11
187.20000000000024
 21
-102.80000000000010
 31
0.00000000000000
  0
LINE
  5
1EF
330
24
100
AcDbEntity
  8
+ Zeichnungen 5
  6
CONTINUOUS
 62
     7
370
    18
100
AcDbLine
 10
187.20000000000024
 20
-102.80000000000010
 30
0.00000000000000
 11
187.20000000000024
 21
-106.00000000000009
 31
0.00000000000000
  0
LINE
  5
1F0
330
24
100
AcDbEntity
  8
+ Zeichnungen 5
  6
CONTINUOUS
 62
     7
370
    18
100
AcDbLine
 10
189.00000000000023
 20
-101.00000000000011
 30
0.00000000000000
 11
191.00000000000028
 21
-102.99999999999997
 31
0.00000000000000
  0
LINE
  5
1F1
330
24
100
AcDbEntity
  8
+ Zeichnungen 5
  6
CONTINUOUS
 62
     7
370
    18
100
AcDbLine
 10
191.00000000000028
 20
-103.00000000000016
 30
0.00000000000000
 11
197.00000000000023
 21
-103.00000000000016
 31
0.00000000000000
  0
LINE
  5
1F2
330
24
100
AcDbEntity
  8
+ Zeichnungen 5
  6
CONTINUOUS
 62
     7
370
    18
100
AcDbLine
 10
189.00000000000023
 20
-101.00000000000003
 30
0.00000000000000
 11
183.20000000000024
 21
-101.00000000000003
 31
0.00000000000000
  0
LINE
  5
1F3
330
24
100
AcDbEntity
  8
+ Zeichnungen 5
  6
CONTINUOUS
 62
     7
370
    18
100
AcDbLine
 10
187.20000000000024
 20
-106.00000000000001
 30
0.00000000000000
 11
191.80000000000027
 21
-106.00000000000009
 31
0.00000000000000
  0
LINE
  5
1F4
330
24
100
AcDbEntity
  8
+ Zeichnungen 5
  6
CONTINUOUS
 62
     7
370
    18
100
AcDbLine
 10
193.80000000000021
 20
-106.00000000000018
 30
0.00000000000000
 11
197.00000000000031
 21
-106.00000000000009
 31
0.00000000000000
  0
ARC
  5
1F5
330
24
100
AcDbEntity
  8
+ Zeichnungen 5
  6
CONTINUOUS
 62
     7
370
    18
100
AcDbCircle
 10
192.80000000000024
 20
-106.00000000000009
 30
0.00000000000000
 40
0.99999999999998
100
AcDbArc
 50
180.00000000000000
 51
0.00000000000000
  0
ENDBLK
  5
1F6
330
24
100
AcDbEntity
  8
0
100
AcDbBlockEnd
  0
BLOCK
  5
1F7
330
25
100
AcDbEntity
  8
0
100
AcDbBlockBegin
  2
*U14
 70
     1
 10
0.00000000000000
 20
0.00000000000000
 30
0.00000000000000
  3
*U14
  1

  0
MTEXT
  5
1F8
330
25
100
AcDbEntity
  8
+ Zeichnungen 5
 62
     7
370
    30
100
AcDbMText
 10
96.79999999999996
 20
-87.19999999999995
 30
0.00000000000000
 40
2.80000000000000
 41
0.00000000000000
 71
     7
 72
     1
  1
\fArial Narrow|b0|i0;Schalung bzw.
 11
1.00000000000000
 21
0.00000000000000
 31
0.00000000000000
 73
     1
 44
1.00000000000000
  0
MTEXT
  5
1F9
330
25
100
AcDbEntity
  8
+ Zeichnungen 5
 62
     7
370
    30
100
AcDbMText
 10
96.79999999999996
 20
-88.79999999999994
 30
0.00000000000000
 40
2.80000000000000
 41
0.00000000000000
 71
     1
 72
     1
  1
\fArial Narrow|b0|i0;Holzfaserplatte
 11
1.00000000000000
 21
0.00000000000000
 31
0.00000000000000
 73
     1
 44
1.00000000000000
  0
LINE
  5
1FA
330
25
100
AcDbEntity
  8
+ Zeichnungen 5
  6
CONTINUOUS
 62
    12
370
    25
100
AcDbLine
 10
78.51192368839431
 20
-128.22257551669324
 30
0.00000000000000
 11
95.99999999999996
 21
-87.99999999999996
 31
0.00000000000000
  0
HATCH
  5
1FB
330
25
100
AcDbEntity
  8
+ Zeichnungen 5
 62
    12
100
AcDbHatch
 10
0.00000000000000
 20
0.00000000000000
 30
0.00000000000000
210
0.00000000000000
220
0.00000000000000
230
1.00000000000000
  2
SOLID
 70
     1
 71
     0
 91
        1
 92
        0
 93
       16
 72
     1
 10
79.26192368839429
 20
-128.22257551669324
 11
79.20483333777779
 21
-127.93556294241945
 72
     1
 10
79.20483333777779
 20
-127.93556294241945
 11
79.04225377428421
 21
-127.69224543080334
 72
     1
 10
79.04225377428421
 20
-127.69224543080334
 11
78.79893626266812
 21
-127.52966586730979
 72
     1
 10
78.79893626266812
 20
-127.52966586730979
 11
78.51192368839431
 21
-127.47257551669324
 72
     1
 10
78.51192368839431
 20
-127.47257551669324
 11
78.22491111412050
 21
-127.52966586730979
 72
     1
 10
78.22491111412050
 20
-127.52966586730979
 11
77.98159360250439
 21
-127.69224543080334
 72
     1
 10
77.98159360250439
 20
-127.69224543080334
 11
77.81901403901084
 21
-127.93556294241945
 72
     1
 10
77.81901403901084
 20
-127.93556294241945
 11
77.76192368839431
 21
-128.22257551669324
 72
     1
 10
77.76192368839431
 20
-128.22257551669324
 11
77.81901403901084
 21
-128.50958809096707
 72
     1
 10
77.81901403901084
 20
-128.50958809096707
 11
77.98159360250439
 21
-128.75290560258318
 72
     1
 10
77.98159360250439
 20
-128.75290560258318
 11
78.22491111412050
 21
-128.91548516607673
 72
     1
 10
78.22491111412050
 20
-128.91548516607673
 11
78.51192368839431
 21
-128.97257551669324
 72
     1
 10
78.51192368839431
 20
-128.97257551669324
 11
78.79893626266812
 21
-128.91548516607673
 72
     1
 10
78.79893626266812
 20
-128.91548516607673
 11
79.04225377428421
 21
-128.75290560258318
 72
     1
 10
79.04225377428421
 20
-128.75290560258318
 11
79.20483333777779
 21
-128.50958809096707
 72
     1
 10
79.20483333777779
 20
-128.50958809096707
 11
79.26192368839429
 21
-128.22257551669324
 97
        0
 75
     0
 76
     0
 98
        1
 10
0.00000000000000
 20
0.00000000000000
  0
LWPOLYLINE
  5
1FC
330
25
100
AcDbEntity
  8
+ Zeichnungen 5
  6
CONTINUOUS
 62
    12
370
    25
100
AcDbPolyline
 90
       17
 70
   128
 10
79.26192368839429
 20
-128.22257551669324
 10
79.20483333777779
 20
-127.93556294241945
 10
79.04225377428421
 20
-127.69224543080334
 10
78.79893626266812
 20
-127.52966586730979
 10
78.51192368839431
 20
-127.47257551669324
 10
78.22491111412050
 20
-127.52966586730979
 10
77.98159360250439
 20
-127.69224543080334
 10
77.81901403901084
 20
-127.93556294241945
 10
77.76192368839431
 20
-128.22257551669324
 10
77.81901403901084
 20
-128.50958809096707
 10
77.98159360250439
 20
-128.75290560258318
 10
78.22491111412050
 20
-128.91548516607673
 10
78.51192368839431
 20
-128.97257551669324
 10
78.79893626266812
 20
-128.91548516607673
 10
79.04225377428421
 20
-128.75290560258318
 10
79.20483333777779
 20
-128.50958809096707
 10
79.26192368839429
 20
-128.22257551669324
  0
LINE
  5
1FD
330
25
100
AcDbEntity
  8
+ Zeichnungen 5
  6
CONTINUOUS
 62
    12
370
    25
100
AcDbLine
 10
95.99999999999996
 20
-87.99999999999996
 30
0.00000000000000
 11
119.19260060264381
 21
-87.99999999999996
 31
0.00000000000000
  0
ENDBLK
  5
1FE
330
25
100
AcDbEntity
  8
0
100
AcDbBlockEnd
  0
BLOCK
  5
1FF
330
26
100
AcDbEntity
  8
0
100
AcDbBlockBegin
  2
*U15
 70
     1
 10
0.00000000000000
 20
0.00000000000000
 30
0.00000000000000
  3
*U15
  1

  0
MTEXT
  5
200
330
26
100
AcDbEntity
  8
+ Zeichnungen 5
 62
     7
370
    30
100
AcDbMText
 10
128.79999999999993
 20
-87.19999999999995
 30
0.00000000000000
 40
2.80000000000000
 41
0.00000000000000
 71
     7
 72
     1
  1
\fArial Narrow|b0|i0;oberseitige Dämmung
 11
1.00000000000000
 21
0.00000000000000
 31
0.00000000000000
 73
     1
 44
1.00000000000000
  0
MTEXT
  5
201
330
26
100
AcDbEntity
  8
+ Zeichnungen 5
 62
     7
370
    30
100
AcDbMText
 10
128.79999999999993
 20
-88.79999999999994
 30
0.00000000000000
 40
2.80000000000000
 41
0.00000000000000
 71
     1
 72
     1
  1
\fArial Narrow|b0|i0;Ringanker
 11
1.00000000000000
 21
0.00000000000000
 31
0.00000000000000
 73
     1
 44
1.00000000000000
  0
LINE
  5
202
330
26
100
AcDbEntity
  8
+ Zeichnungen 5
  6
CONTINUOUS
 62
    12
370
    25
100
AcDbLine
 10
106.21939586645473
 20
-138.09538950715424
 30
0.00000000000000
 11
127.99999999999994
 21
-87.99999999999996
 31
0.00000000000000
  0
HATCH
  5
203
330
26
100
AcDbEntity
  8
+ Zeichnungen 5
 62
    12
100
AcDbHatch
 10
0.00000000000000
 20
0.00000000000000
 30
0.00000000000000
210
0.00000000000000
220
0.00000000000000
230
1.00000000000000
  2
SOLID
 70
     1
 71
     0
 91
        1
 92
        0
 93
       16
 72
     1
 10
106.96939586645473
 20
-138.09538950715424
 11
106.91230551583818
 21
-137.80837693288044
 72
     1
 10
106.91230551583818
 20
-137.80837693288044
 11
106.74972595234465
 21
-137.56505942126435
 72
     1
 10
106.74972595234465
 20
-137.56505942126435
 11
106.50640844072855
 21
-137.40247985777080
 72
     1
 10
106.50640844072855
 20
-137.40247985777080
 11
106.21939586645473
 21
-137.34538950715424
 72
     1
 10
106.21939586645473
 20
-137.34538950715424
 11
105.93238329218090
 21
-137.40247985777080
 72
     1
 10
105.93238329218090
 20
-137.40247985777080
 11
105.68906578056480
 21
-137.56505942126435
 72
     1
 10
105.68906578056480
 20
-137.56505942126435
 11
105.52648621707127
 21
-137.80837693288044
 72
     1
 10
105.52648621707127
 20
-137.80837693288044
 11
105.46939586645472
 21
-138.09538950715424
 72
     1
 10
105.46939586645472
 20
-138.09538950715424
 11
105.52648621707127
 21
-138.38240208142807
 72
     1
 10
105.52648621707127
 20
-138.38240208142807
 11
105.68906578056480
 21
-138.62571959304418
 72
     1
 10
105.68906578056480
 20
-138.62571959304418
 11
105.93238329218090
 21
-138.78829915653773
 72
     1
 10
105.93238329218090
 20
-138.78829915653773
 11
106.21939586645473
 21
-138.84538950715427
 72
     1
 10
106.21939586645473
 20
-138.84538950715427
 11
106.50640844072855
 21
-138.78829915653773
 72
     1
 10
106.50640844072855
 20
-138.78829915653773
 11
106.74972595234465
 21
-138.62571959304418
 72
     1
 10
106.74972595234465
 20
-138.62571959304418
 11
106.91230551583818
 21
-138.38240208142807
 72
     1
 10
106.91230551583818
 20
-138.38240208142807
 11
106.96939586645473
 21
-138.09538950715424
 97
        0
 75
     0
 76
     0
 98
        1
 10
0.00000000000000
 20
0.00000000000000
  0
LWPOLYLINE
  5
204
330
26
100
AcDbEntity
  8
+ Zeichnungen 5
  6
CONTINUOUS
 62
    12
370
    25
100
AcDbPolyline
 90
       17
 70
   128
 10
106.96939586645473
 20
-138.09538950715424
 10
106.91230551583818
 20
-137.80837693288044
 10
106.74972595234465
 20
-137.56505942126435
 10
106.50640844072855
 20
-137.40247985777080
 10
106.21939586645473
 20
-137.34538950715424
 10
105.93238329218090
 20
-137.40247985777080
 10
105.68906578056480
 20
-137.56505942126435
 10
105.52648621707127
 20
-137.80837693288044
 10
105.46939586645472
 20
-138.09538950715424
 10
105.52648621707127
 20
-138.38240208142807
 10
105.68906578056480
 20
-138.62571959304418
 10
105.93238329218090
 20
-138.78829915653773
 10
106.21939586645473
 20
-138.84538950715427
 10
106.50640844072855
 20
-138.78829915653773
 10
106.74972595234465
 20
-138.62571959304418
 10
106.91230551583818
 20
-138.38240208142807
 10
106.96939586645473
 20
-138.09538950715424
  0
LINE
  5
205
330
26
100
AcDbEntity
  8
+ Zeichnungen 5
  6
CONTINUOUS
 62
    12
370
    25
100
AcDbLine
 10
127.99999999999994
 20
-87.99999999999996
 30
0.00000000000000
 11
160.98617078149294
 21
-87.99999999999996
 31
0.00000000000000
  0
ENDBLK
  5
206
330
26
100
AcDbEntity
  8
0
100
AcDbBlockEnd
  0
BLOCK
  5
207
330
27
100
AcDbEntity
  8
0
100
AcDbBlockBegin
  2
*D1
 70
     1
 10
0.00000000000000
 20
0.00000000000000
 30
0.00000000000000
  3
*D1
  1

  0
LINE
  5
208
330
27
100
AcDbEntity
  8
+ Zeichnungen 5
  6
CONTINUOUS
 62
     7
370
    25
100
AcDbLine
 10
52.99999999999996
 20
-201.99999999999994
 30
0.00000000000000
 11
72.99999999999962
 21
-201.99999999999994
 31
0.00000000000000
  0
LINE
  5
209
330
27
100
AcDbEntity
  8
+ Zeichnungen 5
  6
CONTINUOUS
 62
     7
370
    25
100
AcDbLine
 10
54.99999999999996
 20
-204.49999999999994
 30
0.00000000000000
 11
54.99999999999997
 21
-192.99999999999972
 31
0.00000000000000
  0
LINE
  5
20A
330
27
100
AcDbEntity
  8
+ Zeichnungen 5
  6
CONTINUOUS
 62
     7
370
    25
100
AcDbLine
 10
56.76776695296633
 20
-200.23223304703362
 30
0.00000000000000
 11
53.23223304703360
 21
-203.76776695296633
 31
0.00000000000000
  0
LINE
  5
20B
330
27
100
AcDbEntity
  8
+ Zeichnungen 5
  6
CONTINUOUS
 62
     7
370
    25
100
AcDbLine
 10
70.99999999999962
 20
-204.49999999999994
 30
0.00000000000000
 11
70.99999999999962
 21
-192.99999999999972
 31
0.00000000000000
  0
LINE
  5
20C
330
27
100
AcDbEntity
  8
+ Zeichnungen 5
  6
CONTINUOUS
 62
     7
370
    25
100
AcDbLine
 10
72.76776695296599
 20
-200.23223304703362
 30
0.00000000000000
 11
69.23223304703326
 21
-203.76776695296633
 31
0.00000000000000
  0
MTEXT
  5
20D
330
27
100
AcDbEntity
  8
+ Zeichnungen 5
 62
     7
370
    30
100
AcDbMText
 10
62.99999999999979
 20
-200.79999999999998
 30
0.00000000000000
 40
2.80000000000000
 41
0.00000000000000
 71
     8
 72
     1
  1
\fArial Narrow|b0|i0;80
 11
1.00000000000000
 21
0.00000000000000
 31
0.00000000000000
 73
     1
 44
1.00000000000000
  0
ENDBLK
  5
20E
330
27
100
AcDbEntity
  8
0
100
AcDbBlockEnd
  0
BLOCK
  5
20F
330
28
100
AcDbEntity
  8
0
100
AcDbBlockBegin
  2
*D2
 70
     1
 10
0.00000000000000
 20
0.00000000000000
 30
0.00000000000000
  3
*D2
  1

  0
LINE
  5
210
330
28
100
AcDbEntity
  8
+ Zeichnungen 5
  6
CONTINUOUS
 62
     7
370
    25
100
AcDbLine
 10
68.99999999999962
 20
-202.00000000000006
 30
0.00000000000000
 11
113.99999999999999
 21
-202.00000000000006
 31
0.00000000000000
  0
LINE
  5
211
330
28
100
AcDbEntity
  8
+ Zeichnungen 5
  6
CONTINUOUS
 62
     7
370
    25
100
AcDbLine
 10
70.99999999999962
 20
-204.50000000000003
 30
0.00000000000000
 11
70.99999999999962
 21
-192.99999999999972
 31
0.00000000000000
  0
LINE
  5
212
330
28
100
AcDbEntity
  8
+ Zeichnungen 5
  6
CONTINUOUS
 62
     7
370
    25
100
AcDbLine
 10
72.76776695296599
 20
-200.23223304703367
 30
0.00000000000000
 11
69.23223304703326
 21
-203.76776695296641
 31
0.00000000000000
  0
LINE
  5
213
330
28
100
AcDbEntity
  8
+ Zeichnungen 5
  6
CONTINUOUS
 62
     7
370
    25
100
AcDbLine
 10
111.99999999999999
 20
-204.50000000000003
 30
0.00000000000000
 11
111.99999999999999
 21
-192.99999999999972
 31
0.00000000000000
  0
LINE
  5
214
330
28
100
AcDbEntity
  8
+ Zeichnungen 5
  6
CONTINUOUS
 62
     7
370
    25
100
AcDbLine
 10
113.76776695296637
 20
-200.23223304703367
 30
0.00000000000000
 11
110.23223304703362
 21
-203.76776695296641
 31
0.00000000000000
  0
MTEXT
  5
215
330
28
100
AcDbEntity
  8
+ Zeichnungen 5
 62
     7
370
    30
100
AcDbMText
 10
89.99999999999997
 20
-200.80000000000001
 30
0.00000000000000
 40
2.80000000000000
 41
0.00000000000000
 71
     8
 72
     1
  1
\fArial Narrow|b0|i0;205
 11
1.00000000000000
 21
0.00000000000000
 31
0.00000000000000
 73
     1
 44
1.00000000000000
  0
ENDBLK
  5
216
330
28
100
AcDbEntity
  8
0
100
AcDbBlockEnd
  0
BLOCK
  5
217
330
29
100
AcDbEntity
  8
0
100
AcDbBlockBegin
  2
*D3
 70
     1
 10
0.00000000000000
 20
0.00000000000000
 30
0.00000000000000
  3
*D3
  1

  0
LINE
  5
218
330
29
100
AcDbEntity
  8
+ Zeichnungen 5
  6
CONTINUOUS
 62
     7
370
    25
100
AcDbLine
 10
109.99999999999999
 20
-202.00000000000014
 30
0.00000000000000
 11
129.99999999999960
 21
-202.00000000000014
 31
0.00000000000000
  0
LINE
  5
219
330
29
100
AcDbEntity
  8
+ Zeichnungen 5
  6
CONTINUOUS
 62
     7
370
    25
100
AcDbLine
 10
111.99999999999999
 20
-204.50000000000011
 30
0.00000000000000
 11
111.99999999999999
 21
-192.99999999999972
 31
0.00000000000000
  0
LINE
  5
21A
330
29
100
AcDbEntity
  8
+ Zeichnungen 5
  6
CONTINUOUS
 62
     7
370
    25
100
AcDbLine
 10
113.76776695296637
 20
-200.23223304703376
 30
0.00000000000000
 11
110.23223304703362
 21
-203.76776695296650
 31
0.00000000000000
  0
LINE
  5
21B
330
29
100
AcDbEntity
  8
+ Zeichnungen 5
  6
CONTINUOUS
 62
     7
370
    25
100
AcDbLine
 10
127.99999999999962
 20
-204.50000000000011
 30
0.00000000000000
 11
127.99999999999962
 21
-192.99999999999969
 31
0.00000000000000
  0
LINE
  5
21C
330
29
100
AcDbEntity
  8
+ Zeichnungen 5
  6
CONTINUOUS
 62
     7
370
    25
100
AcDbLine
 10
129.76776695296596
 20
-200.23223304703376
 30
0.00000000000000
 11
126.23223304703323
 21
-203.76776695296650
 31
0.00000000000000
  0
MTEXT
  5
21D
330
29
100
AcDbEntity
  8
+ Zeichnungen 5
 62
     7
370
    30
100
AcDbMText
 10
117.99999999999997
 20
-200.80000000000010
 30
0.00000000000000
 40
2.80000000000000
 41
0.00000000000000
 71
     8
 72
     1
  1
\fArial Narrow|b0|i0;80
 11
1.00000000000000
 21
0.00000000000000
 31
0.00000000000000
 73
     1
 44
1.00000000000000
  0
ENDBLK
  5
21E
330
29
100
AcDbEntity
  8
0
100
AcDbBlockEnd
  0
BLOCK
  5
21F
330
2A
100
AcDbEntity
  8
0
100
AcDbBlockBegin
  2
*D4
 70
     1
 10
0.00000000000000
 20
0.00000000000000
 30
0.00000000000000
  3
*D4
  1

  0
LINE
  5
220
330
2A
100
AcDbEntity
  8
+ Zeichnungen 5
  6
CONTINUOUS
 62
     7
370
    25
100
AcDbLine
 10
45.43164412061345
 20
-191.99999999999960
 30
0.00000000000000
 11
45.43164412061346
 21
-137.99999999999972
 31
0.00000000000000
  0
LINE
  5
221
330
2A
100
AcDbEntity
  8
+ Zeichnungen 5
  6
CONTINUOUS
 62
     7
370
    25
100
AcDbLine
 10
42.93164412061345
 20
-189.99999999999960
 30
0.00000000000000
 11
51.99999999999996
 21
-189.99999999999969
 31
0.00000000000000
  0
LINE
  5
222
330
2A
100
AcDbEntity
  8
+ Zeichnungen 5
  6
CONTINUOUS
 62
     7
370
    25
100
AcDbLine
 10
43.66387716764708
 20
-188.23223304703325
 30
0.00000000000000
 11
47.19941107357982
 21
-191.76776695296599
 31
0.00000000000000
  0
LINE
  5
223
330
2A
100
AcDbEntity
  8
+ Zeichnungen 5
  6
CONTINUOUS
 62
     7
370
    25
100
AcDbLine
 10
42.93164412061346
 20
-139.99999999999972
 30
0.00000000000000
 11
51.99999999999997
 21
-139.99999999999974
 31
0.00000000000000
  0
LINE
  5
224
330
2A
100
AcDbEntity
  8
+ Zeichnungen 5
  6
CONTINUOUS
 62
     7
370
    25
100
AcDbLine
 10
43.66387716764709
 20
-138.23223304703333
 30
0.00000000000000
 11
47.19941107357983
 21
-141.76776695296607
 31
0.00000000000000
  0
MTEXT
  5
225
330
2A
100
AcDbEntity
  8
+ Zeichnungen 5
 62
     7
370
    30
100
AcDbMText
 10
44.23164412061346
 20
-164.99999999999966
 30
0.00000000000000
 40
2.80000000000000
 41
0.00000000000000
 71
     8
 72
     1
  1
\fArial Narrow|b0|i0;250
 11
0.00000000000000
 21
1.00000000000000
 31
0.00000000000000
 73
     1
 44
1.00000000000000
  0
ENDBLK
  5
226
330
2A
100
AcDbEntity
  8
0
100
AcDbBlockEnd
  0
BLOCK
  5
227
330
2B
100
AcDbEntity
  8
0
100
AcDbBlockBegin
  2
*U16
 70
     1
 10
0.00000000000000
 20
0.00000000000000
 30
0.00000000000000
  3
*U16
  1

  0
LINE
  5
228
330
2B
100
AcDbEntity
  8
+ Zeichnungen 5
  6
DC_VERDECKT
 62
     5
370
    35
100
AcDbLine
 10
129.49999999999969
 20
-197.99999999999997
 30
0.00000000000000
 11
129.49999999999974
 21
-180.21757791582772
 31
0.00000000000000
  0
LINE
  5
229
330
2B
100
AcDbEntity
  8
+ Zeichnungen 5
  6
CONTINUOUS
 62
     5
370
    18
100
AcDbLine
 10
129.09999999999974
 20
-187.00000000000000
 30
0.00000000000000
 11
129.09999999999974
 21
-179.20000000000002
 31
0.00000000000000
  0
LINE
  5
22A
330
2B
100
AcDbEntity
  8
+ Zeichnungen 5
  6
CONTINUOUS
 62
     5
370
    18
100
AcDbLine
 10
129.09999999999974
 20
-179.20000000000002
 30
0.00000000000000
 11
129.94999999999987
 21
-178.34999999999988
 31
0.00000000000000
  0
LINE
  5
22B
330
2B
100
AcDbEntity
  8
+ Zeichnungen 5
  6
CONTINUOUS
 62
     5
370
    18
100
AcDbLine
 10
129.94999999999987
 20
-178.34999999999988
 30
0.00000000000000
 11
129.94999999999987
 21
-173.40000000000003
 31
0.00000000000000
  0
LINE
  5
22C
330
2B
100
AcDbEntity
  8
+ Zeichnungen 5
  6
CONTINUOUS
 62
     5
370
    18
100
AcDbLine
 10
129.74999999999989
 20
-173.40000000000001
 30
0.00000000000000
 11
129.74999999999989
 21
-178.26715728752527
 31
0.00000000000000
  0
LINE
  5
22D
330
2B
100
AcDbEntity
  8
+ Zeichnungen 5
  6
CONTINUOUS
 62
     5
370
    18
100
AcDbLine
 10
128.89999999999972
 20
-179.11715728752546
 30
0.00000000000000
 11
129.74999999999989
 21
-178.26715728752527
 31
0.00000000000000
  0
LINE
  5
22E
330
2B
100
AcDbEntity
  8
+ Zeichnungen 5
  6
CONTINUOUS
 62
     5
370
    18
100
AcDbLine
 10
128.89999999999972
 20
-187.00000000000000
 30
0.00000000000000
 11
128.89999999999972
 21
-179.11715728752546
 31
0.00000000000000
  0
LINE
  5
22F
330
2B
100
AcDbEntity
  8
+ Zeichnungen 5
  6
CONTINUOUS
 62
     5
370
    18
100
AcDbLine
 10
129.09999999999974
 20
-187.00000000000000
 30
0.00000000000000
 11
128.89999999999972
 21
-187.00000000000000
 31
0.00000000000000
  0
LINE
  5
230
330
2B
100
AcDbEntity
  8
+ Zeichnungen 5
  6
CONTINUOUS
 62
     5
370
    18
100
AcDbLine
 10
129.94999999999987
 20
-173.40000000000001
 30
0.00000000000000
 11
129.74999999999989
 21
-173.40000000000001
 31
0.00000000000000
  0
ENDBLK
  5
231
330
2B
100
AcDbEntity
  8
0
100
AcDbBlockEnd
  0
BLOCK
  5
232
330
2C
100
AcDbEntity
  8
0
100
AcDbBlockBegin
  2
*U17
 70
     1
 10
0.00000000000000
 20
0.00000000000000
 30
0.00000000000000
  3
*U17
  1

  0
MTEXT
  5
233
330
2C
100
AcDbEntity
  8
+ Zeichnungen 5
 62
     7
370
    30
100
AcDbMText
 10
136.77869103635513
 20
-209.20000000000002
 30
0.00000000000000
 40
2.80000000000000
 41
0.00000000000000
 71
     7
 72
     1
  1
\fArial Narrow|b0|i0;Putzanschlussband (z.B. Contega PV)
 11
1.00000000000000
 21
0.00000000000000
 31
0.00000000000000
 73
     1
 44
1.00000000000000
  0
MTEXT
  5
234
330
2C
100
AcDbEntity
  8
+ Zeichnungen 5
 62
     7
370
    30
100
AcDbMText
 10
136.77869103635513
 20
-210.80000000000001
 30
0.00000000000000
 40
2.80000000000000
 41
0.00000000000000
 71
     1
 72
     1
  1
\fArial Narrow|b0|i0;mit Anschlusskleber gem. Herstellerangabe\Pauf Mauerwerk fixiert und in Innenputz\Peingearbeitet
 11
1.00000000000000
 21
0.00000000000000
 31
0.00000000000000
 73
     1
 44
1.00000000000000
  0
LINE
  5
235
330
2C
100
AcDbEntity
  8
+ Zeichnungen 5
  6
CONTINUOUS
 62
    12
370
    25
100
AcDbLine
 10
129.32410178707835
 20
-186.80388845948443
 30
0.00000000000000
 11
135.99999999999997
 21
-210.00000000000003
 31
0.00000000000000
  0
HATCH
  5
236
330
2C
100
AcDbEntity
  8
+ Zeichnungen 5
 62
    12
100
AcDbHatch
 10
0.00000000000000
 20
0.00000000000000
 30
0.00000000000000
210
0.00000000000000
220
0.00000000000000
230
1.00000000000000
  2
SOLID
 70
     1
 71
     0
 91
        1
 92
        0
 93
       16
 72
     1
 10
130.07410178707835
 20
-186.80388845948443
 11
130.01701143646179
 21
-186.51687588521060
 72
     1
 10
130.01701143646179
 20
-186.51687588521060
 11
129.85443187296826
 21
-186.27355837359448
 72
     1
 10
129.85443187296826
 20
-186.27355837359448
 11
129.61111436135218
 21
-186.11097881010096
 72
     1
 10
129.61111436135218
 20
-186.11097881010096
 11
129.32410178707835
 21
-186.05388845948443
 72
     1
 10
129.32410178707835
 20
-186.05388845948443
 11
129.03708921280452
 21
-186.11097881010096
 72
     1
 10
129.03708921280452
 20
-186.11097881010096
 11
128.79377170118840
 21
-186.27355837359448
 72
     1
 10
128.79377170118840
 20
-186.27355837359448
 11
128.63119213769488
 21
-186.51687588521060
 72
     1
 10
128.63119213769488
 20
-186.51687588521060
 11
128.57410178707835
 21
-186.80388845948443
 72
     1
 10
128.57410178707835
 20
-186.80388845948443
 11
128.63119213769488
 21
-187.09090103375826
 72
     1
 10
128.63119213769488
 20
-187.09090103375826
 11
128.79377170118840
 21
-187.33421854537434
 72
     1
 10
128.79377170118840
 20
-187.33421854537434
 11
129.03708921280452
 21
-187.49679810886786
 72
     1
 10
129.03708921280452
 20
-187.49679810886786
 11
129.32410178707835
 21
-187.55388845948443
 72
     1
 10
129.32410178707835
 20
-187.55388845948443
 11
129.61111436135218
 21
-187.49679810886786
 72
     1
 10
129.61111436135218
 20
-187.49679810886786
 11
129.85443187296826
 21
-187.33421854537434
 72
     1
 10
129.85443187296826
 20
-187.33421854537434
 11
130.01701143646179
 21
-187.09090103375826
 72
     1
 10
130.01701143646179
 20
-187.09090103375826
 11
130.07410178707835
 21
-186.80388845948443
 97
        0
 75
     0
 76
     0
 98
        1
 10
0.00000000000000
 20
0.00000000000000
  0
LWPOLYLINE
  5
237
330
2C
100
AcDbEntity
  8
+ Zeichnungen 5
  6
CONTINUOUS
 62
    12
370
    25
100
AcDbPolyline
 90
       17
 70
   128
 10
130.07410178707835
 20
-186.80388845948443
 10
130.01701143646179
 20
-186.51687588521060
 10
129.85443187296826
 20
-186.27355837359448
 10
129.61111436135218
 20
-186.11097881010096
 10
129.32410178707835
 20
-186.05388845948443
 10
129.03708921280452
 20
-186.11097881010096
 10
128.79377170118840
 20
-186.27355837359448
 10
128.63119213769488
 20
-186.51687588521060
 10
128.57410178707835
 20
-186.80388845948443
 10
128.63119213769488
 20
-187.09090103375826
 10
128.79377170118840
 20
-187.33421854537434
 10
129.03708921280452
 20
-187.49679810886786
 10
129.32410178707835
 20
-187.55388845948443
 10
129.61111436135218
 20
-187.49679810886786
 10
129.85443187296826
 20
-187.33421854537434
 10
130.01701143646179
 20
-187.09090103375826
 10
130.07410178707835
 20
-186.80388845948443
  0
LINE
  5
238
330
2C
100
AcDbEntity
  8
+ Zeichnungen 5
  6
CONTINUOUS
 62
    12
370
    25
100
AcDbLine
 10
135.99999999999997
 20
-210.00000000000003
 30
0.00000000000000
 11
198.87926452002540
 21
-210.00000000000003
 31
0.00000000000000
  0
ENDBLK
  5
239
330
2C
100
AcDbEntity
  8
0
100
AcDbBlockEnd
  0
BLOCK
  5
23A
330
2D
100
AcDbEntity
  8
0
100
AcDbBlockBegin
  2
*U18
 70
     1
 10
0.00000000000000
 20
0.00000000000000
 30
0.00000000000000
  3
*U18
  1

  0
MTEXT
  5
23B
330
2D
100
AcDbEntity
  8
+ Zeichnungen 5
 62
     7
370
    30
100
AcDbMText
 10
144.77869103635510
 20
-201.20000000000002
 30
0.00000000000000
 40
2.80000000000000
 41
0.00000000000000
 71
     7
 72
     1
  1
\fArial Narrow|b0|i0;Dauerelastische Fuge
 11
1.00000000000000
 21
0.00000000000000
 31
0.00000000000000
 73
     1
 44
1.00000000000000
  0
LINE
  5
23C
330
2D
100
AcDbEntity
  8
+ Zeichnungen 5
  6
CONTINUOUS
 62
    12
370
    25
100
AcDbLine
 10
131.84091230090638
 20
-181.96314384567796
 30
0.00000000000000
 11
144.00000000000000
 21
-202.00000000000000
 31
0.00000000000000
  0
HATCH
  5
23D
330
2D
100
AcDbEntity
  8
+ Zeichnungen 5
 62
    12
100
AcDbHatch
 10
0.00000000000000
 20
0.00000000000000
 30
0.00000000000000
210
0.00000000000000
220
0.00000000000000
230
1.00000000000000
  2
SOLID
 70
     1
 71
     0
 91
        1
 92
        0
 93
       16
 72
     1
 10
132.59091230090638
 20
-181.96314384567796
 11
132.53382195028985
 21
-181.67613127140413
 72
     1
 10
132.53382195028985
 20
-181.67613127140413
 11
132.37124238679630
 21
-181.43281375978802
 72
     1
 10
132.37124238679630
 20
-181.43281375978802
 11
132.12792487518018
 21
-181.27023419629450
 72
     1
 10
132.12792487518018
 20
-181.27023419629450
 11
131.84091230090638
 21
-181.21314384567796
 72
     1
 10
131.84091230090638
 20
-181.21314384567796
 11
131.55389972663255
 21
-181.27023419629450
 72
     1
 10
131.55389972663255
 20
-181.27023419629450
 11
131.31058221501647
 21
-181.43281375978802
 72
     1
 10
131.31058221501647
 20
-181.43281375978802
 11
131.14800265152292
 21
-181.67613127140413
 72
     1
 10
131.14800265152292
 20
-181.67613127140413
 11
131.09091230090638
 21
-181.96314384567796
 72
     1
 10
131.09091230090638
 20
-181.96314384567796
 11
131.14800265152292
 21
-182.25015641995179
 72
     1
 10
131.14800265152292
 20
-182.25015641995179
 11
131.31058221501647
 21
-182.49347393156791
 72
     1
 10
131.31058221501647
 20
-182.49347393156791
 11
131.55389972663255
 21
-182.65605349506143
 72
     1
 10
131.55389972663255
 20
-182.65605349506143
 11
131.84091230090638
 21
-182.71314384567796
 72
     1
 10
131.84091230090638
 20
-182.71314384567796
 11
132.12792487518018
 21
-182.65605349506143
 72
     1
 10
132.12792487518018
 20
-182.65605349506143
 11
132.37124238679630
 21
-182.49347393156791
 72
     1
 10
132.37124238679630
 20
-182.49347393156791
 11
132.53382195028985
 21
-182.25015641995179
 72
     1
 10
132.53382195028985
 20
-182.25015641995179
 11
132.59091230090638
 21
-181.96314384567796
 97
        0
 75
     0
 76
     0
 98
        1
 10
0.00000000000000
 20
0.00000000000000
  0
LWPOLYLINE
  5
23E
330
2D
100
AcDbEntity
  8
+ Zeichnungen 5
  6
CONTINUOUS
 62
    12
370
    25
100
AcDbPolyline
 90
       17
 70
   128
 10
132.59091230090638
 20
-181.96314384567796
 10
132.53382195028985
 20
-181.67613127140413
 10
132.37124238679630
 20
-181.43281375978802
 10
132.12792487518018
 20
-181.27023419629450
 10
131.84091230090638
 20
-181.21314384567796
 10
131.55389972663255
 20
-181.27023419629450
 10
131.31058221501647
 20
-181.43281375978802
 10
131.14800265152292
 20
-181.67613127140413
 10
131.09091230090638
 20
-181.96314384567796
 10
131.14800265152292
 20
-182.25015641995179
 10
131.31058221501647
 20
-182.49347393156791
 10
131.55389972663255
 20
-182.65605349506143
 10
131.84091230090638
 20
-182.71314384567796
 10
132.12792487518018
 20
-182.65605349506143
 10
132.37124238679630
 20
-182.49347393156791
 10
132.53382195028985
 20
-182.25015641995179
 10
132.59091230090638
 20
-181.96314384567796
  0
LINE
  5
23F
330
2D
100
AcDbEntity
  8
+ Zeichnungen 5
  6
CONTINUOUS
 62
    12
370
    25
100
AcDbLine
 10
144.00000000000000
 20
-202.00000000000000
 30
0.00000000000000
 11
176.79050820198495
 21
-202.00000000000000
 31
0.00000000000000
  0
ENDBLK
  5
240
330
2D
100
AcDbEntity
  8
0
100
AcDbBlockEnd
  0
BLOCK
  5
241
330
2E
100
AcDbEntity
  8
0
100
AcDbBlockBegin
  2
*U19
 70
     1
 10
0.00000000000000
 20
0.00000000000000
 30
0.00000000000000
  3
*U19
  1

  0
LWPOLYLINE
  5
242
330
2E
100
AcDbEntity
  8
Planrahmen
  6
CONTINUOUS
 62
     7
370
     0
100
AcDbPolyline
 90
       29
 70
   129
 10
173.38640000000007
 20
-12.97660000000002
 10
173.30445000000009
 20
-12.97660000000002
 10
173.05955000000009
 20
-12.91145000000003
 10
172.80640000000011
 20
-12.71565000000002
 10
172.64285000000010
 20
-12.38820000000002
 10
172.58480000000012
 20
-12.04320000000002
 10
172.58480000000012
 20
-11.92815000000002
 10
172.58480000000012
 20
-11.81585000000002
 10
172.64040000000011
 20
-11.47945000000002
 10
172.79960000000008
 20
-11.16235000000001
 10
173.05030000000008
 20
-10.97410000000002
 10
173.29795000000007
 20
-10.91195000000002
 10
173.38070000000008
 20
-10.91195000000002
 10
173.45800000000008
 20
-10.91195000000002
 10
173.68995000000012
 20
-10.97140000000002
 10
173.93105000000011
 20
-11.15425000000002
 10
174.08790000000010
 20
-11.46565000000001
 10
174.14405000000008
 20
-11.79990000000002
 10
174.14405000000008
 20
-11.91135000000002
 10
174.14405000000008
 20
-11.97835000000002
 10
174.12940000000006
 20
-12.17930000000002
 10
174.08730000000008
 20
-12.40425000000002
 10
174.02010000000010
 20
-12.58840000000002
 10
173.92975000000007
 20
-12.73410000000002
 10
173.81905000000012
 20
-12.84340000000002
 10
173.68995000000012
 20
-12.91885000000002
 10
173.54480000000007
 20
-12.96250000000002
 10
173.42600000000010
 20
-12.97660000000002
 10
173.38640000000007
 20
-12.97660000000002
  0
LWPOLYLINE
  5
243
330
2E
100
AcDbEntity
  8
Planrahmen
  6
CONTINUOUS
 62
     7
370
     0
100
AcDbPolyline
 90
       41
 70
   129
 10
173.40835000000007
 20
-9.89635000000002
 10
173.29635000000007
 20
-9.89635000000002
 10
172.96080000000009
 20
-9.93190000000001
 10
172.56010000000006
 20
-10.03690000000002
 10
172.21015000000008
 20
-10.20780000000002
 10
171.91475000000008
 20
-10.44105000000002
 10
171.67820000000009
 20
-10.73375000000002
 10
171.50405000000009
 20
-11.08210000000002
 10
171.39690000000010
 20
-11.48300000000001
 10
171.36030000000011
 20
-11.82070000000002
 10
171.36030000000011
 20
-11.93330000000002
 10
171.36030000000011
 20
-12.05020000000002
 10
171.39690000000010
 20
-12.40100000000002
 10
171.50490000000011
 20
-12.81140000000002
 10
171.67935000000008
 20
-13.16245000000002
 10
171.91615000000007
 20
-13.45320000000002
 10
172.21130000000008
 20
-13.68190000000002
 10
172.56010000000006
 20
-13.84710000000002
 10
172.95855000000006
 20
-13.94715000000002
 10
173.29140000000007
 20
-13.98110000000002
 10
173.40265000000008
 20
-13.98110000000002
 10
173.50415000000010
 20
-13.98110000000002
 10
173.80880000000008
 20
-13.95070000000002
 10
174.18310000000011
 20
-13.85875000000002
 10
174.51835000000005
 20
-13.70390000000002
 10
174.80810000000011
 20
-13.48465000000002
 10
175.04545000000007
 20
-13.19985000000002
 10
175.22345000000007
 20
-12.84830000000002
 10
175.33515000000008
 20
-12.42805000000002
 10
175.37400000000011
 20
-12.06105000000002
 10
175.37400000000011
 20
-11.93875000000002
 10
175.37400000000011
 20
-11.82320000000002
 10
175.33790000000008
 20
-11.47730000000002
 10
175.23345000000009
 20
-11.07070000000002
 10
175.06475000000006
 20
-10.72080000000002
 10
174.83580000000006
 20
-10.42965000000002
 10
174.55120000000011
 20
-10.19940000000001
 10
174.21565000000007
 20
-10.03225000000002
 10
173.83315000000007
 20
-9.93055000000002
 10
173.51440000000008
 20
-9.89635000000002
 10
173.40835000000007
 20
-9.89635000000002
  0
LWPOLYLINE
  5
244
330
2E
100
AcDbEntity
  8
Planrahmen
  6
CONTINUOUS
 62
     7
370
     0
100
AcDbPolyline
 90
        5
 70
   129
 10
173.68940000000006
 20
-8.99740000000002
 10
174.60245000000009
 20
-8.99740000000002
 10
174.60245000000009
 20
-9.77210000000001
 10
173.68940000000006
 20
-9.77210000000001
 10
173.68940000000006
 20
-8.99740000000002
  0
LWPOLYLINE
  5
245
330
2E
100
AcDbEntity
  8
Planrahmen
  6
CONTINUOUS
 62
     7
370
     0
100
AcDbPolyline
 90
        7
 70
   129
 10
179.80650000000017
 20
-13.87670000000002
 10
179.80650000000017
 20
-10.00050000000002
 10
180.99760000000018
 20
-10.00050000000002
 10
180.99760000000018
 20
-12.99285000000002
 10
182.46925000000010
 20
-12.99285000000002
 10
182.46925000000010
 20
-13.87670000000002
 10
179.80650000000017
 20
-13.87670000000002
  0
LWPOLYLINE
  5
246
330
2E
100
AcDbEntity
  8
Planrahmen
  6
CONTINUOUS
 62
     7
370
     0
100
AcDbPolyline
 90
       13
 70
   129
 10
184.16600000000003
 20
-13.87670000000002
 10
184.16600000000003
 20
-12.43840000000002
 10
182.82105000000013
 20
-12.43840000000002
 10
182.82105000000013
 20
-11.43475000000001
 10
184.16600000000003
 20
-11.43475000000001
 10
184.16600000000003
 20
-10.00105000000002
 10
185.33730000000011
 20
-10.00105000000002
 10
185.33730000000011
 20
-11.43475000000001
 10
186.68280000000013
 20
-11.43475000000001
 10
186.68280000000013
 20
-12.43840000000002
 10
185.33730000000011
 20
-12.43840000000002
 10
185.33730000000011
 20
-13.87670000000002
 10
184.16600000000003
 20
-13.87670000000002
  0
LWPOLYLINE
  5
247
330
2E
100
AcDbEntity
  8
Planrahmen
  6
CONTINUOUS
 62
     7
370
     0
100
AcDbPolyline
 90
       20
 70
   129
 10
177.98275000000015
 20
-11.52725000000002
 10
177.96480000000000
 20
-11.54350000000002
 10
177.83460000000014
 20
-11.60340000000002
 10
177.65315000000001
 20
-11.63110000000002
 10
177.59265000000011
 20
-11.63110000000002
 10
177.04365000000007
 20
-11.63110000000002
 10
177.04365000000007
 20
-10.91765000000002
 10
177.58185000000012
 20
-10.91765000000002
 10
177.63635000000008
 20
-10.91765000000002
 10
177.79990000000009
 20
-10.93480000000002
 10
177.92440000000016
 20
-10.97680000000002
 10
177.94370000000012
 20
-10.98930000000001
 10
177.96705000000009
 20
-11.00425000000001
 10
178.04190000000017
 20
-11.10705000000002
 10
178.07010000000008
 20
-11.23235000000002
 10
178.07010000000008
 20
-11.27440000000002
 10
178.07010000000008
 20
-11.31265000000001
 10
178.04675000000012
 20
-11.42765000000002
 10
177.99630000000008
 20
-11.51340000000002
 10
177.98275000000015
 20
-11.52725000000002
  0
LWPOLYLINE
  5
248
330
2E
100
AcDbEntity
  8
Planrahmen
  6
CONTINUOUS
 62
     7
370
     0
100
AcDbPolyline
 90
       27
 70
   129
 10
178.53130000000013
 20
-12.34535000000002
 10
178.61995000000005
 20
-12.31475000000002
 10
178.87085000000010
 20
-12.17855000000002
 10
179.12070000000011
 20
-11.93955000000002
 10
179.27480000000014
 20
-11.62330000000002
 10
179.32740000000010
 20
-11.32460000000002
 10
179.32740000000010
 20
-11.22530000000002
 10
179.32740000000010
 20
-11.13820000000002
 10
179.29540000000009
 20
-10.87725000000002
 10
179.19475000000014
 20
-10.58890000000002
 10
179.01925000000006
 20
-10.35480000000002
 10
178.83100000000016
 20
-10.20780000000002
 10
178.76210000000012
 20
-10.17090000000002
 10
178.71655000000004
 20
-10.14645000000002
 10
178.56975000000006
 20
-10.09330000000002
 10
178.32810000000006
 20
-10.04045000000001
 10
178.03295000000017
 20
-10.01000000000002
 10
177.76845000000006
 20
-10.00050000000002
 10
177.68030000000010
 20
-10.00050000000002
 10
175.85765000000018
 20
-10.00050000000002
 10
175.85765000000018
 20
-13.87670000000002
 10
177.04365000000007
 20
-13.87670000000002
 10
177.04365000000007
 20
-12.53715000000002
 10
177.39515000000014
 20
-12.53715000000002
 10
178.13630000000009
 20
-13.87670000000002
 10
179.48690000000008
 20
-13.87670000000002
 10
178.53130000000013
 20
-12.34535000000002
  0
LWPOLYLINE
  5
249
330
2E
100
AcDbEntity
  8
Planrahmen
  6
CONTINUOUS
 62
     7
370
     0
100
AcDbPolyline
 90
       13
 70
   129
 10
169.67140000000012
 20
-18.59405000000003
 10
169.67140000000012
 20
-17.08495000000002
 10
168.54480000000007
 20
-17.08495000000002
 10
168.54480000000007
 20
-18.59405000000003
 10
167.35285000000007
 20
-18.59405000000003
 10
167.35285000000007
 20
-14.73360000000002
 10
168.54480000000007
 20
-14.73360000000002
 10
168.54480000000007
 20
-16.08965000000002
 10
169.67140000000012
 20
-16.08965000000002
 10
169.67140000000012
 20
-14.73360000000002
 10
170.86905000000010
 20
-14.73360000000002
 10
170.86905000000010
 20
-18.59405000000003
 10
169.67140000000012
 20
-18.59405000000003
  0
LWPOLYLINE
  5
24A
330
2E
100
AcDbEntity
  8
Planrahmen
  6
CONTINUOUS
 62
     7
370
     0
100
AcDbPolyline
 90
        9
 70
   129
 10
180.25050000000007
 20
-18.59405000000003
 10
180.25050000000007
 20
-15.65240000000003
 10
179.27755000000008
 20
-15.65240000000003
 10
179.27755000000008
 20
-14.73360000000002
 10
182.42175000000012
 20
-14.73360000000002
 10
182.42175000000012
 20
-15.65240000000003
 10
181.45390000000015
 20
-15.65240000000003
 10
181.45390000000015
 20
-18.59405000000003
 10
180.25050000000007
 20
-18.59405000000003
  0
LWPOLYLINE
  5
24B
330
2E
100
AcDbEntity
  8
Planrahmen
  6
CONTINUOUS
 62
     7
370
     0
100
AcDbPolyline
 90
       44
 70
   129
 10
186.20510000000010
 20
-18.59405000000003
 10
186.20510000000010
 20
-18.37780000000003
 10
186.20620000000017
 20
-17.73000000000002
 10
186.21105000000011
 20
-17.06645000000003
 10
186.22115000000014
 20
-16.50635000000002
 10
186.23335000000014
 20
-16.09125000000002
 10
186.23820000000009
 20
-15.95320000000002
 10
186.21300000000016
 20
-16.05035000000003
 10
186.13790000000006
 20
-16.34195000000002
 10
186.00630000000004
 20
-16.84490000000002
 10
185.81425000000016
 20
-17.56210000000003
 10
185.60320000000004
 20
-18.33605000000003
 10
185.53240000000011
 20
-18.59405000000003
 10
184.56475000000003
 20
-18.59405000000003
 10
184.50725000000008
 20
-18.39030000000003
 10
184.33830000000003
 20
-17.77805000000003
 10
184.15705000000011
 20
-17.09800000000002
 10
184.00460000000015
 20
-16.49875000000003
 10
183.89905000000013
 20
-16.06850000000002
 10
183.86460000000014
 20
-15.92530000000002
 10
183.86685000000011
 20
-16.01910000000002
 10
183.87355000000014
 20
-16.30155000000002
 10
183.88255000000007
 20
-16.79010000000002
 10
183.88935000000004
 20
-17.51330000000003
 10
183.89230000000009
 20
-18.32385000000002
 10
183.89230000000009
 20
-18.59405000000003
 10
182.76545000000007
 20
-18.59405000000003
 10
182.76545000000007
 20
-14.73360000000002
 10
184.44435000000013
 20
-14.73360000000002
 10
184.50210000000018
 20
-14.94600000000002
 10
184.67245000000005
 20
-15.58510000000003
 10
184.84635000000011
 20
-16.26330000000002
 10
184.97495000000015
 20
-16.79580000000003
 10
185.04545000000002
 20
-17.10670000000002
 10
185.06775000000016
 20
-17.21055000000003
 10
185.08560000000003
 20
-17.11340000000002
 10
185.14475000000004
 20
-16.82370000000002
 10
185.25790000000006
 20
-16.32485000000002
 10
185.42605000000009
 20
-15.64965000000002
 10
185.60725000000008
 20
-14.96230000000002
 10
185.66940000000005
 20
-14.73360000000002
 10
187.33170000000007
 20
-14.73360000000002
 10
187.33170000000007
 20
-18.59405000000003
 10
186.20510000000010
 20
-18.59405000000003
  0
LWPOLYLINE
  5
24C
330
2E
100
AcDbEntity
  8
Planrahmen
  6
CONTINUOUS
 62
     7
370
     0
100
AcDbPolyline
 90
       31
 70
   129
 10
193.35630000000009
 20
-14.73360000000002
 10
193.45230000000006
 20
-14.90940000000002
 10
193.73935000000014
 20
-15.43805000000002
 10
194.04230000000015
 20
-16.00745000000002
 10
194.28810000000001
 20
-16.48680000000002
 10
194.44760000000011
 20
-16.81175000000002
 10
194.49915000000013
 20
-16.92110000000002
 10
194.49370000000016
 20
-16.83760000000002
 10
194.48150000000012
 20
-16.58690000000002
 10
194.46955000000014
 20
-16.17590000000002
 10
194.46280000000010
 20
-15.59055000000002
 10
194.46085000000008
 20
-14.94765000000002
 10
194.46085000000008
 20
-14.73360000000002
 10
195.63650000000015
 20
-14.73360000000002
 10
195.63650000000015
 20
-18.59405000000003
 10
194.34560000000005
 20
-18.59405000000003
 10
194.25120000000001
 20
-18.42500000000003
 10
193.97070000000011
 20
-17.91745000000002
 10
193.66365000000013
 20
-17.35270000000003
 10
193.40780000000007
 20
-16.86980000000003
 10
193.24130000000011
 20
-16.54730000000002
 10
193.18675000000013
 20
-16.43960000000002
 10
193.19005000000004
 20
-16.51420000000002
 10
193.19650000000016
 20
-16.73910000000003
 10
193.20330000000013
 20
-17.14760000000003
 10
193.20710000000014
 20
-17.74055000000002
 10
193.20845000000014
 20
-18.38050000000003
 10
193.20845000000014
 20
-18.59405000000003
 10
192.03300000000007
 20
-18.59405000000003
 10
192.03300000000007
 20
-14.73360000000002
 10
193.35630000000009
 20
-14.73360000000002
  0
LWPOLYLINE
  5
24D
330
2E
100
AcDbEntity
  8
Planrahmen
  6
CONTINUOUS
 62
     7
370
     0
100
AcDbPolyline
 90
       31
 70
   129
 10
197.71950000000010
 20
-14.73360000000002
 10
197.81550000000007
 20
-14.90940000000002
 10
198.10250000000002
 20
-15.43805000000002
 10
198.40600000000003
 20
-16.00745000000002
 10
198.65150000000014
 20
-16.48680000000002
 10
198.81100000000001
 20
-16.81175000000002
 10
198.86250000000010
 20
-16.92110000000002
 10
198.85700000000011
 20
-16.83760000000002
 10
198.84500000000011
 20
-16.58690000000002
 10
198.83300000000008
 20
-16.17590000000002
 10
198.82600000000011
 20
-15.59055000000002
 10
198.82400000000004
 20
-14.94765000000002
 10
198.82400000000004
 20
-14.73360000000002
 10
200.00000000000011
 20
-14.73360000000002
 10
200.00000000000011
 20
-18.59405000000003
 10
198.70900000000009
 20
-18.59405000000003
 10
198.61450000000008
 20
-18.42500000000003
 10
198.33400000000017
 20
-17.91745000000002
 10
198.02700000000013
 20
-17.35270000000003
 10
197.77100000000007
 20
-16.86980000000003
 10
197.60450000000012
 20
-16.54730000000002
 10
197.55000000000007
 20
-16.43960000000002
 10
197.55350000000010
 20
-16.51420000000002
 10
197.56000000000012
 20
-16.73910000000003
 10
197.56700000000009
 20
-17.14760000000003
 10
197.57050000000004
 20
-17.74055000000002
 10
197.57200000000003
 20
-18.38050000000003
 10
197.57200000000003
 20
-18.59405000000003
 10
196.39650000000003
 20
-18.59405000000003
 10
196.39650000000003
 20
-14.73360000000002
 10
197.71950000000010
 20
-14.73360000000002
  0
LWPOLYLINE
  5
24E
330
2E
100
AcDbEntity
  8
Planrahmen
  6
CONTINUOUS
 62
     7
370
     0
100
AcDbPolyline
 90
       20
 70
   129
 10
177.68675000000007
 20
-16.25405000000002
 10
177.66890000000009
 20
-16.27035000000002
 10
177.53945000000002
 20
-16.33030000000003
 10
177.35885000000005
 20
-16.35765000000002
 10
177.29885000000010
 20
-16.35765000000002
 10
176.75175000000019
 20
-16.35765000000002
 10
176.75175000000019
 20
-15.64695000000002
 10
177.28725000000009
 20
-15.64695000000002
 10
177.34150000000000
 20
-15.64695000000002
 10
177.50475000000006
 20
-15.66405000000003
 10
177.62925000000004
 20
-15.70555000000002
 10
177.64855000000009
 20
-15.71800000000002
 10
177.67160000000001
 20
-15.73295000000002
 10
177.74620000000004
 20
-15.83550000000002
 10
177.77415000000005
 20
-15.96055000000002
 10
177.77415000000005
 20
-16.00230000000002
 10
177.77415000000005
 20
-16.04030000000002
 10
177.75080000000005
 20
-16.15480000000002
 10
177.70035000000004
 20
-16.24020000000002
 10
177.68675000000007
 20
-16.25405000000002
  0
LWPOLYLINE
  5
24F
330
2E
100
AcDbEntity
  8
Planrahmen
  6
CONTINUOUS
 62
     7
370
     0
100
AcDbPolyline
 90
       27
 70
   129
 10
178.23365000000010
 20
-17.06870000000003
 10
178.32185000000010
 20
-17.03800000000003
 10
178.57195000000010
 20
-16.90265000000003
 10
178.82070000000013
 20
-16.66445000000002
 10
178.97400000000016
 20
-16.34955000000003
 10
179.02655000000010
 20
-16.05225000000003
 10
179.02655000000010
 20
-15.95320000000002
 10
179.02655000000010
 20
-15.86640000000002
 10
178.99455000000006
 20
-15.60655000000002
 10
178.89445000000001
 20
-15.31925000000002
 10
178.71955000000003
 20
-15.08625000000002
 10
178.53205000000003
 20
-14.93975000000002
 10
178.46345000000017
 20
-14.90315000000003
 10
178.41815000000014
 20
-14.87875000000002
 10
178.27190000000013
 20
-14.82585000000002
 10
178.03130000000007
 20
-14.77320000000002
 10
177.73725000000005
 20
-14.74305000000002
 10
177.47355000000016
 20
-14.73360000000002
 10
177.38595000000009
 20
-14.73360000000002
 10
175.57035000000008
 20
-14.73360000000002
 10
175.57035000000008
 20
-18.59425000000003
 10
176.75175000000019
 20
-18.59425000000003
 10
176.75175000000019
 20
-17.26045000000002
 10
177.10195000000013
 20
-17.26045000000002
 10
177.84005000000010
 20
-18.59425000000003
 10
179.18530000000007
 20
-18.59425000000003
 10
178.23365000000010
 20
-17.06870000000003
  0
LWPOLYLINE
  5
250
330
2E
100
AcDbEntity
  8
Planrahmen
  6
CONTINUOUS
 62
     7
370
     0
100
AcDbPolyline
 90
       10
 70
   129
 10
172.81510000000009
 20
-17.12320000000003
 10
172.85880000000012
 20
-16.98645000000003
 10
173.03970000000010
 20
-16.39430000000002
 10
173.19080000000011
 20
-15.87405000000002
 10
173.21980000000011
 20
-15.77305000000002
 10
173.24560000000008
 20
-15.87405000000002
 10
173.38585000000009
 20
-16.39235000000002
 10
173.55595000000008
 20
-16.98515000000003
 10
173.59690000000009
 20
-17.12320000000003
 10
172.81510000000009
 20
-17.12320000000003
  0
LWPOLYLINE
  5
251
330
2E
100
AcDbEntity
  8
Planrahmen
  6
CONTINUOUS
 62
     7
370
     0
100
AcDbPolyline
 90
        9
 70
   129
 10
173.96310000000011
 20
-14.73390000000002
 10
172.54170000000011
 20
-14.73390000000002
 10
171.12540000000007
 20
-18.59405000000003
 10
172.40495000000007
 20
-18.59405000000003
 10
172.59650000000008
 20
-17.97120000000003
 10
173.82150000000010
 20
-17.97120000000003
 10
174.01275000000007
 20
-18.59405000000003
 10
175.31425000000007
 20
-18.59405000000003
 10
173.96310000000011
 20
-14.73390000000002
  0
LWPOLYLINE
  5
252
330
2E
100
AcDbEntity
  8
Planrahmen
  6
CONTINUOUS
 62
     7
370
     0
100
AcDbPolyline
 90
       10
 70
   129
 10
189.27755000000008
 20
-17.12320000000003
 10
189.32120000000012
 20
-16.98645000000003
 10
189.50240000000002
 20
-16.39430000000002
 10
189.65320000000014
 20
-15.87405000000002
 10
189.68225000000010
 20
-15.77305000000002
 10
189.70800000000014
 20
-15.87405000000002
 10
189.84800000000007
 20
-16.39235000000002
 10
190.01835000000005
 20
-16.98515000000003
 10
190.05955000000012
 20
-17.12320000000003
 10
189.27755000000008
 20
-17.12320000000003
  0
LWPOLYLINE
  5
253
330
2E
100
AcDbEntity
  8
Planrahmen
  6
CONTINUOUS
 62
     7
370
     0
100
AcDbPolyline
 90
        9
 70
   129
 10
190.42550000000008
 20
-14.73390000000002
 10
189.00380000000001
 20
-14.73390000000002
 10
187.58780000000016
 20
-18.59405000000003
 10
188.86760000000010
 20
-18.59405000000003
 10
189.05885000000009
 20
-17.97120000000003
 10
190.28389999999999
 20
-17.97120000000003
 10
190.47515000000010
 20
-18.59405000000003
 10
191.77640000000011
 20
-18.59405000000003
 10
190.42550000000008
 20
-14.73390000000002
  0
LWPOLYLINE
  5
254
330
2E
100
AcDbEntity
  8
Planrahmen
  6
CONTINUOUS
 62
     7
370
     0
100
AcDbPolyline
 90
       13
 70
   129
 10
169.67410000000007
 20
-13.87670000000002
 10
169.67410000000007
 20
-12.36160000000001
 10
168.54345000000006
 20
-12.36160000000001
 10
168.54345000000006
 20
-13.87670000000002
 10
167.34605000000010
 20
-13.87670000000002
 10
167.34605000000010
 20
-10.00050000000002
 10
168.54345000000006
 20
-10.00050000000002
 10
168.54345000000006
 20
-11.36230000000001
 10
169.67410000000007
 20
-11.36230000000001
 10
169.67410000000007
 20
-10.00050000000002
 10
170.87635000000009
 20
-10.00050000000002
 10
170.87635000000009
 20
-13.87670000000002
 10
169.67410000000007
 20
-13.87670000000002
  0
LWPOLYLINE
  5
255
330
2E
100
AcDbEntity
  8
Planrahmen
  6
CONTINUOUS
 62
     7
370
     0
100
AcDbPolyline
 90
        5
 70
   129
 10
172.26710000000008
 20
-8.99740000000002
 10
173.18050000000011
 20
-8.99740000000002
 10
173.18050000000011
 20
-9.77210000000001
 10
172.26710000000008
 20
-9.77210000000001
 10
172.26710000000008
 20
-8.99740000000002
  0
LWPOLYLINE
  5
256
330
2E
100
AcDbEntity
  8
Planrahmen
  6
CONTINUOUS
 62
     7
370
     0
100
AcDbPolyline
 90
       44
 70
   129
 10
168.55865000000006
 20
-24.60937000000003
 10
168.51905000000008
 20
-24.46830500000003
 10
168.40050000000008
 20
-24.04540500000003
 10
168.30665000000008
 20
-23.70577000000004
 10
168.25350000000009
 20
-23.50395000000003
 10
168.22605000000010
 20
-23.39055000000003
 10
168.21765000000008
 20
-23.35285000000003
 10
168.20925000000011
 20
-23.39085000000003
 10
168.18295000000009
 20
-23.50449500000003
 10
168.13115000000008
 20
-23.70631000000003
 10
168.03810000000010
 20
-24.04567500000003
 10
167.92035000000007
 20
-24.46830500000003
 10
167.88100000000009
 20
-24.60937000000003
 10
167.75050000000010
 20
-24.60937000000003
 10
167.35260000000011
 20
-23.16950000000003
 10
167.48740000000009
 20
-23.16950000000003
 10
167.52675000000008
 20
-23.31570000000003
 10
167.64445000000009
 20
-23.75487500000003
 10
167.74050000000008
 20
-24.11484500000003
 10
167.79365000000010
 20
-24.32182000000003
 10
167.81675000000010
 20
-24.41649500000004
 10
167.82380000000009
 20
-24.44823000000003
 10
167.83085000000011
 20
-24.41730500000003
 10
167.85335000000009
 20
-24.32534500000003
 10
167.90380000000007
 20
-24.12787000000003
 10
167.99740000000011
 20
-23.77060500000004
 10
168.11675000000005
 20
-23.31975000000004
 10
168.15665000000010
 20
-23.16950000000003
 10
168.27705000000006
 20
-23.16950000000003
 10
168.31800000000010
 20
-23.31840000000003
 10
168.44095000000007
 20
-23.76545000000003
 10
168.53800000000010
 20
-24.12298000000003
 10
168.59040000000005
 20
-24.32263000000003
 10
168.61400000000006
 20
-24.41487000000003
 10
168.62155000000010
 20
-24.44579000000004
 10
168.62780000000006
 20
-24.41432500000003
 10
168.64845000000008
 20
-24.32019500000003
 10
168.69565000000011
 20
-24.12189500000003
 10
168.78545000000008
 20
-23.76653500000003
 10
168.90130000000005
 20
-23.31865000000003
 10
168.94005000000010
 20
-23.16950000000003
 10
169.07025000000010
 20
-23.16950000000003
 10
168.68695000000008
 20
-24.60937000000003
 10
168.55865000000006
 20
-24.60937000000003
  0
LWPOLYLINE
  5
257
330
2E
100
AcDbEntity
  8
Planrahmen
  6
CONTINUOUS
 62
     7
370
     0
100
AcDbPolyline
 90
        5
 70
   129
 10
169.29515000000009
 20
-23.16950000000003
 10
169.42370000000008
 20
-23.16950000000003
 10
169.42370000000008
 20
-24.60937000000003
 10
169.29515000000009
 20
-24.60937000000003
 10
169.29515000000009
 20
-23.16950000000003
  0
LWPOLYLINE
  5
258
330
2E
100
AcDbEntity
  8
Planrahmen
  6
CONTINUOUS
 62
     7
370
     0
100
AcDbPolyline
 90
       20
 70
   129
 10
170.27385000000010
 20
-23.86066500000003
 10
170.32350000000011
 20
-23.86066500000003
 10
170.47300000000007
 20
-23.84086000000003
 10
170.58990000000009
 20
-23.79149500000003
 10
170.60615000000010
 20
-23.77684500000003
 10
170.62030000000007
 20
-23.76409500000003
 10
170.66970000000012
 20
-23.68651500000003
 10
170.69025000000008
 20
-23.59374500000003
 10
170.69025000000008
 20
-23.56308500000003
 10
170.69025000000008
 20
-23.53053500000003
 10
170.66370000000012
 20
-23.43370000000003
 10
170.60045000000008
 20
-23.35070000000003
 10
170.58230000000009
 20
-23.33850000000003
 10
170.56470000000010
 20
-23.32625000000003
 10
170.45400000000006
 20
-23.29370000000003
 10
170.31890000000007
 20
-23.28560000000003
 10
170.27385000000010
 20
-23.28560000000003
 10
169.93970000000010
 20
-23.28560000000003
 10
169.93970000000010
 20
-23.86066500000003
 10
170.27385000000010
 20
-23.86066500000003
  0
LWPOLYLINE
  5
259
330
2E
100
AcDbEntity
  8
Planrahmen
  6
CONTINUOUS
 62
     7
370
     0
100
AcDbPolyline
 90
       23
 70
   129
 10
170.71470000000008
 20
-24.60937000000003
 10
170.28420000000008
 20
-23.97704000000003
 10
169.93970000000010
 20
-23.97704000000003
 10
169.93970000000010
 20
-24.60937000000003
 10
169.81105000000011
 20
-24.60937000000003
 10
169.81105000000011
 20
-23.16950000000003
 10
170.25380000000010
 20
-23.16950000000003
 10
170.30425000000008
 20
-23.16950000000003
 10
170.45585000000011
 20
-23.17655000000003
 10
170.59775000000008
 20
-23.20530000000003
 10
170.62300000000010
 20
-23.21615000000003
 10
170.65175000000008
 20
-23.22835000000003
 10
170.76815000000008
 20
-23.34500000000003
 10
170.82640000000006
 20
-23.51128000000003
 10
170.82640000000006
 20
-23.56688000000003
 10
170.82640000000006
 20
-23.60486000000003
 10
170.79990000000009
 20
-23.71933500000003
 10
170.72195000000008
 20
-23.83815500000003
 10
170.59425000000007
 20
-23.92034500000003
 10
170.46320000000011
 20
-23.95778000000003
 10
170.41900000000007
 20
-23.96266500000003
 10
170.87365000000005
 20
-24.60937000000003
 10
170.71470000000008
 20
-24.60937000000003
  0
LWPOLYLINE
  5
25A
330
2E
100
AcDbEntity
  8
Planrahmen
  6
CONTINUOUS
 62
     7
370
     0
100
AcDbPolyline
 90
       20
 70
   129
 10
171.71865000000011
 20
-24.49299500000003
 10
172.10195000000007
 20
-24.49299500000003
 10
172.14835000000008
 20
-24.49299500000003
 10
172.28775000000010
 20
-24.47400000000003
 10
172.39870000000010
 20
-24.42870000000003
 10
172.41420000000011
 20
-24.41568000000004
 10
172.42720000000008
 20
-24.40374500000003
 10
172.47275000000008
 20
-24.32887500000004
 10
172.49175000000008
 20
-24.23773000000004
 10
172.49175000000008
 20
-24.20762000000003
 10
172.49175000000008
 20
-24.17506000000003
 10
172.46845000000008
 20
-24.07768000000003
 10
172.41470000000012
 20
-23.99196000000003
 10
172.39955000000009
 20
-23.97866500000003
 10
172.38350000000011
 20
-23.96537500000003
 10
172.27905000000007
 20
-23.91926500000003
 10
172.14315000000011
 20
-23.89946000000003
 10
172.09790000000010
 20
-23.89946000000003
 10
171.71865000000011
 20
-23.89946000000003
 10
171.71865000000011
 20
-24.49299500000003
  0
LWPOLYLINE
  5
25B
330
2E
100
AcDbEntity
  8
Planrahmen
  6
CONTINUOUS
 62
     7
370
     0
100
AcDbPolyline
 90
       20
 70
   129
 10
171.71865000000011
 20
-23.78525500000003
 10
172.08350000000007
 20
-23.78525500000003
 10
172.12255000000007
 20
-23.78525500000003
 10
172.24030000000010
 20
-23.77223500000003
 10
172.33195000000009
 20
-23.73995000000003
 10
172.34635000000011
 20
-23.73046000000003
 10
172.36260000000010
 20
-23.71961000000003
 10
172.41905000000008
 20
-23.64637000000003
 10
172.44265000000010
 20
-23.55468000000003
 10
172.44265000000010
 20
-23.52430000000003
 10
172.44265000000010
 20
-23.49662500000003
 10
172.42390000000009
 20
-23.41390000000004
 10
172.37185000000008
 20
-23.34415000000003
 10
172.35505000000009
 20
-23.33415000000003
 10
172.34175000000010
 20
-23.32600000000003
 10
172.24955000000011
 20
-23.29780000000003
 10
172.12800000000007
 20
-23.28560000000003
 10
172.08760000000009
 20
-23.28560000000003
 10
171.71865000000011
 20
-23.28560000000003
 10
171.71865000000011
 20
-23.78525500000003
  0
LWPOLYLINE
  5
25C
330
2E
100
AcDbEntity
  8
Planrahmen
  6
CONTINUOUS
 62
     7
370
     0
100
AcDbPolyline
 90
       30
 70
   129
 10
172.12040000000007
 20
-23.16950000000003
 10
172.16435000000010
 20
-23.16950000000003
 10
172.29695000000009
 20
-23.18225000000004
 10
172.41040000000010
 20
-23.21480000000003
 10
172.42830000000012
 20
-23.22455000000003
 10
172.45435000000012
 20
-23.23865000000004
 10
172.53975000000008
 20
-23.33985000000003
 10
172.57315000000008
 20
-23.46896000000003
 10
172.57315000000008
 20
-23.51209000000003
 10
172.57315000000008
 20
-23.56308500000003
 10
172.51240000000010
 20
-23.71689500000003
 10
172.36810000000011
 20
-23.82432000000003
 10
172.32630000000006
 20
-23.83625000000003
 10
172.35960000000009
 20
-23.84168000000003
 10
172.45650000000009
 20
-23.87938000000003
 10
172.55035000000009
 20
-23.95778000000003
 10
172.60705000000013
 20
-24.06710500000003
 10
172.62630000000010
 20
-24.16964000000003
 10
172.62630000000010
 20
-24.20382000000004
 10
172.62630000000010
 20
-24.24641000000003
 10
172.59865000000011
 20
-24.37499500000003
 10
172.53005000000007
 20
-24.48404000000003
 10
172.50970000000012
 20
-24.50086000000004
 10
172.48820000000012
 20
-24.51822000000004
 10
172.33765000000008
 20
-24.58088000000003
 10
172.11795000000009
 20
-24.60909000000003
 10
172.04470000000006
 20
-24.60909000000003
 10
171.59005000000008
 20
-24.60909000000003
 10
171.59005000000008
 20
-23.16950000000003
 10
172.12040000000007
 20
-23.16950000000003
  0
LWPOLYLINE
  5
25D
330
2E
100
AcDbEntity
  8
Planrahmen
  6
CONTINUOUS
 62
     7
370
     0
100
AcDbPolyline
 90
       20
 70
   129
 10
173.39510000000010
 20
-23.86066500000003
 10
173.44470000000010
 20
-23.86066500000003
 10
173.59420000000011
 20
-23.84086000000003
 10
173.71105000000011
 20
-23.79149500000003
 10
173.72740000000010
 20
-23.77684500000003
 10
173.74150000000006
 20
-23.76409500000003
 10
173.79085000000006
 20
-23.68651500000003
 10
173.81150000000008
 20
-23.59374500000003
 10
173.81150000000008
 20
-23.56308500000003
 10
173.81150000000008
 20
-23.53053500000003
 10
173.78490000000011
 20
-23.43370000000003
 10
173.72170000000011
 20
-23.35070000000003
 10
173.70350000000008
 20
-23.33850000000003
 10
173.68585000000010
 20
-23.32625000000003
 10
173.57515000000009
 20
-23.29370000000003
 10
173.44010000000006
 20
-23.28560000000003
 10
173.39510000000010
 20
-23.28560000000003
 10
173.06085000000007
 20
-23.28560000000003
 10
173.06085000000007
 20
-23.86066500000003
 10
173.39510000000010
 20
-23.86066500000003
  0
LWPOLYLINE
  5
25E
330
2E
100
AcDbEntity
  8
Planrahmen
  6
CONTINUOUS
 62
     7
370
     0
100
AcDbPolyline
 90
       23
 70
   129
 10
173.83585000000011
 20
-24.60937000000003
 10
173.40540000000007
 20
-23.97704000000003
 10
173.06085000000007
 20
-23.97704000000003
 10
173.06085000000007
 20
-24.60937000000003
 10
172.93230000000005
 20
-24.60937000000003
 10
172.93230000000005
 20
-23.16950000000003
 10
173.37505000000010
 20
-23.16950000000003
 10
173.42545000000013
 20
-23.16950000000003
 10
173.57710000000006
 20
-23.17655000000003
 10
173.71900000000008
 20
-23.20530000000003
 10
173.74420000000009
 20
-23.21615000000003
 10
173.77320000000009
 20
-23.22835000000003
 10
173.88960000000012
 20
-23.34500000000003
 10
173.94795000000011
 20
-23.51128000000003
 10
173.94795000000011
 20
-23.56688000000003
 10
173.94795000000011
 20
-23.60486000000003
 10
173.92135000000010
 20
-23.71933500000003
 10
173.84350000000006
 20
-23.83815500000003
 10
173.71570000000011
 20
-23.92034500000003
 10
173.58470000000011
 20
-23.95778000000003
 10
173.54045000000011
 20
-23.96266500000003
 10
173.99510000000009
 20
-24.60937000000003
 10
173.83585000000011
 20
-24.60937000000003
  0
LWPOLYLINE
  5
25F
330
2E
100
AcDbEntity
  8
Planrahmen
  6
CONTINUOUS
 62
     7
370
     0
100
AcDbPolyline
 90
       13
 70
   129
 10
174.26640000000006
 20
-24.60937000000003
 10
174.26640000000006
 20
-23.16950000000003
 10
175.18245000000007
 20
-23.16950000000003
 10
175.18245000000007
 20
-23.28750000000003
 10
174.39710000000011
 20
-23.28750000000003
 10
174.39710000000011
 20
-23.80804000000003
 10
175.11115000000007
 20
-23.80804000000003
 10
175.11115000000007
 20
-23.92604000000003
 10
174.39710000000011
 20
-23.92604000000003
 10
174.39710000000011
 20
-24.49136000000003
 10
175.23130000000012
 20
-24.49136000000003
 10
175.23130000000012
 20
-24.60937000000003
 10
174.26640000000006
 20
-24.60937000000003
  0
LWPOLYLINE
  5
260
330
2E
100
AcDbEntity
  8
Planrahmen
  6
CONTINUOUS
 62
     7
370
     0
100
AcDbPolyline
 90
       31
 70
   129
 10
176.47530000000009
 20
-24.60937000000003
 10
176.37955000000002
 20
-24.46505000000003
 10
176.09280000000012
 20
-24.03211000000003
 10
175.86035000000007
 20
-23.68055000000003
 10
175.72745000000009
 20
-23.47600500000003
 10
175.66370000000006
 20
-23.37485000000003
 10
175.64335000000005
 20
-23.34090000000003
 10
175.64365000000001
 20
-23.36860000000003
 10
175.64470000000006
 20
-23.45215000000003
 10
175.64605000000009
 20
-23.65071000000003
 10
175.64685000000011
 20
-24.01122000000003
 10
175.64740000000009
 20
-24.45962500000004
 10
175.64740000000009
 20
-24.60937000000003
 10
175.52290000000011
 20
-24.60937000000003
 10
175.52290000000011
 20
-23.16950000000003
 10
175.67185000000003
 20
-23.16950000000003
 10
175.77030000000013
 20
-23.31865000000003
 10
176.06600000000003
 20
-23.76735500000003
 10
176.30010000000016
 20
-24.12353000000003
 10
176.42675000000006
 20
-24.31911000000003
 10
176.48210000000006
 20
-24.40646000000003
 10
176.50025000000011
 20
-24.43575500000003
 10
176.49920000000006
 20
-24.40157500000004
 10
176.49730000000005
 20
-24.29903500000003
 10
176.49510000000009
 20
-24.08636000000003
 10
176.49405000000004
 20
-23.73181000000004
 10
176.49380000000011
 20
-23.31000000000003
 10
176.49380000000011
 20
-23.16950000000003
 10
176.62045000000012
 20
-23.16950000000003
 10
176.62045000000012
 20
-24.60937000000003
 10
176.47530000000009
 20
-24.60937000000003
  0
LWPOLYLINE
  5
261
330
2E
100
AcDbEntity
  8
Planrahmen
  6
CONTINUOUS
 62
     7
370
     0
100
AcDbPolyline
 90
       31
 70
   129
 10
177.96050000000017
 20
-24.60937000000003
 10
177.86475000000010
 20
-24.46505000000003
 10
177.57800000000009
 20
-24.03211000000003
 10
177.34525000000008
 20
-23.68055000000003
 10
177.21230000000006
 20
-23.47600500000003
 10
177.14855000000003
 20
-23.37485000000003
 10
177.12820000000005
 20
-23.34090000000003
 10
177.12850000000009
 20
-23.36860000000003
 10
177.12960000000007
 20
-23.45215000000003
 10
177.13100000000011
 20
-23.65071000000003
 10
177.13175000000012
 20
-24.01122000000003
 10
177.13230000000010
 20
-24.45962500000004
 10
177.13230000000010
 20
-24.60937000000003
 10
177.00810000000007
 20
-24.60937000000003
 10
177.00810000000007
 20
-23.16950000000003
 10
177.15705000000011
 20
-23.16950000000003
 10
177.25545000000005
 20
-23.31865000000003
 10
177.55115000000006
 20
-23.76735500000003
 10
177.78495000000012
 20
-24.12353000000003
 10
177.91195000000013
 20
-24.31911000000003
 10
177.96705000000009
 20
-24.40646000000003
 10
177.98515000000012
 20
-24.43575500000003
 10
177.98410000000018
 20
-24.40157500000004
 10
177.98220000000018
 20
-24.29903500000003
 10
177.98030000000017
 20
-24.08636000000003
 10
177.97920000000008
 20
-23.73181000000004
 10
177.97890000000001
 20
-23.31000000000003
 10
177.97890000000001
 20
-23.16950000000003
 10
178.10535000000002
 20
-23.16950000000003
 10
178.10535000000002
 20
-24.60937000000003
 10
177.96050000000017
 20
-24.60937000000003
  0
LWPOLYLINE
  5
262
330
2E
100
AcDbEntity
  8
Planrahmen
  6
CONTINUOUS
 62
     7
370
     0
100
AcDbPolyline
 90
       13
 70
   129
 10
178.49355000000008
 20
-24.60937000000003
 10
178.49355000000008
 20
-23.16950000000003
 10
179.40935000000010
 20
-23.16950000000003
 10
179.40935000000010
 20
-23.28750000000003
 10
178.62405000000012
 20
-23.28750000000003
 10
178.62405000000012
 20
-23.80804000000003
 10
179.33775000000014
 20
-23.80804000000003
 10
179.33775000000014
 20
-23.92604000000003
 10
178.62405000000012
 20
-23.92604000000003
 10
178.62405000000012
 20
-24.49136000000003
 10
179.45815000000007
 20
-24.49136000000003
 10
179.45815000000007
 20
-24.60937000000003
 10
178.49355000000008
 20
-24.60937000000003
  0
LWPOLYLINE
  5
263
330
2E
100
AcDbEntity
  8
Planrahmen
  6
CONTINUOUS
 62
     7
370
     0
100
AcDbPolyline
 90
       31
 70
   129
 10
180.70275000000009
 20
-24.60937000000003
 10
180.60695000000001
 20
-24.46505000000003
 10
180.32025000000004
 20
-24.03211000000003
 10
180.08755000000008
 20
-23.68055000000003
 10
179.95460000000006
 20
-23.47600500000003
 10
179.89085000000011
 20
-23.37485000000003
 10
179.87050000000013
 20
-23.34090000000003
 10
179.87080000000009
 20
-23.36860000000003
 10
179.87185000000002
 20
-23.45215000000003
 10
179.87320000000003
 20
-23.65071000000003
 10
179.87405000000010
 20
-24.01122000000003
 10
179.87455000000006
 20
-24.45962500000004
 10
179.87455000000006
 20
-24.60937000000003
 10
179.75030000000010
 20
-24.60937000000003
 10
179.75030000000010
 20
-23.16950000000003
 10
179.89925000000002
 20
-23.16950000000003
 10
179.99775000000002
 20
-23.31865000000003
 10
180.29345000000015
 20
-23.76735500000003
 10
180.52725000000009
 20
-24.12353000000003
 10
180.65390000000011
 20
-24.31911000000003
 10
180.70900000000009
 20
-24.40646000000003
 10
180.72720000000018
 20
-24.43575500000003
 10
180.72605000000004
 20
-24.40157500000004
 10
180.72420000000008
 20
-24.29903500000003
 10
180.72225000000006
 20
-24.08636000000003
 10
180.72120000000010
 20
-23.73181000000004
 10
180.72095000000019
 20
-23.31000000000003
 10
180.72095000000019
 20
-23.16950000000003
 10
180.84760000000009
 20
-23.16950000000003
 10
180.84760000000009
 20
-24.60937000000003
 10
180.70275000000009
 20
-24.60937000000003
  0
LWPOLYLINE
  5
264
330
2E
100
AcDbEntity
  8
Planrahmen
  6
CONTINUOUS
 62
     7
370
     0
100
AcDbPolyline
 90
       11
 70
   129
 10
181.68010000000010
 20
-24.60937000000003
 10
181.68010000000010
 20
-23.16950000000003
 10
182.59595000000004
 20
-23.16950000000003
 10
182.59595000000004
 20
-23.28750000000003
 10
181.81060000000014
 20
-23.28750000000003
 10
181.81060000000014
 20
-23.78715500000003
 10
182.51615000000007
 20
-23.78715500000003
 10
182.51615000000007
 20
-23.90759500000003
 10
181.81060000000014
 20
-23.90759500000003
 10
181.81060000000014
 20
-24.60937000000003
 10
181.68010000000010
 20
-24.60937000000003
  0
LWPOLYLINE
  5
265
330
2E
100
AcDbEntity
  8
Planrahmen
  6
CONTINUOUS
 62
     7
370
     0
100
AcDbPolyline
 90
        5
 70
   129
 10
183.59935000000013
 20
-22.86975000000003
 10
183.71760000000012
 20
-22.86975000000003
 10
183.71760000000012
 20
-23.03735000000003
 10
183.59935000000013
 20
-23.03735000000003
 10
183.59935000000013
 20
-22.86975000000003
  0
LWPOLYLINE
  5
266
330
2E
100
AcDbEntity
  8
Planrahmen
  6
CONTINUOUS
 62
     7
370
     0
100
AcDbPolyline
 90
        5
 70
   129
 10
183.11760000000007
 20
-22.86975000000003
 10
183.23800000000008
 20
-22.86975000000003
 10
183.23800000000008
 20
-23.03735000000003
 10
183.11760000000007
 20
-23.03735000000003
 10
183.11760000000007
 20
-22.86975000000003
  0
LWPOLYLINE
  5
267
330
2E
100
AcDbEntity
  8
Planrahmen
  6
CONTINUOUS
 62
     7
370
     0
100
AcDbPolyline
 90
       39
 70
   129
 10
183.94225000000006
 20
-23.97107000000003
 10
183.94225000000006
 20
-24.04350000000003
 10
183.92435000000003
 20
-24.26159500000003
 10
183.87170000000006
 20
-24.41812000000004
 10
183.85435000000001
 20
-24.44443500000003
 10
183.83290000000005
 20
-24.47590500000003
 10
183.67720000000017
 20
-24.58739000000004
 10
183.47650000000013
 20
-24.63595000000003
 10
183.40975000000012
 20
-24.63595000000003
 10
183.34380000000002
 20
-24.63595000000003
 10
183.14660000000012
 20
-24.58441000000003
 10
182.99195000000009
 20
-24.46939000000004
 10
182.97135000000006
 20
-24.43765500000003
 10
182.95240000000010
 20
-24.40916500000003
 10
182.90105000000008
 20
-24.24342500000003
 10
182.88755000000009
 20
-24.04323000000003
 10
182.88755000000009
 20
-23.97677000000003
 10
182.88755000000009
 20
-23.16950000000003
 10
183.01615000000012
 20
-23.16950000000003
 10
183.01615000000012
 20
-24.05462500000003
 10
183.01615000000012
 20
-24.09693500000003
 10
183.03050000000007
 20
-24.22389500000004
 10
183.07065000000009
 20
-24.34379000000003
 10
183.08335000000017
 20
-24.36495000000003
 10
183.09855000000016
 20
-24.38991000000004
 10
183.21550000000016
 20
-24.47970000000003
 10
183.36440000000007
 20
-24.51957500000003
 10
183.41405000000009
 20
-24.51957500000003
 10
183.46230000000017
 20
-24.51957500000003
 10
183.60775000000015
 20
-24.48594000000003
 10
183.72740000000019
 20
-24.40075500000003
 10
183.74635000000004
 20
-24.37499500000003
 10
183.76100000000002
 20
-24.35464500000004
 10
183.80225000000002
 20
-24.22932000000003
 10
183.81390000000005
 20
-24.09341500000003
 10
183.81390000000005
 20
-24.04838000000003
 10
183.81390000000005
 20
-23.16950000000003
 10
183.94225000000006
 20
-23.16950000000003
 10
183.94225000000006
 20
-23.97107000000003
  0
LWPOLYLINE
  5
268
330
2E
100
AcDbEntity
  8
Planrahmen
  6
CONTINUOUS
 62
     7
370
     0
100
AcDbPolyline
 90
       20
 70
   129
 10
184.79315000000014
 20
-23.86066500000003
 10
184.84280000000015
 20
-23.86066500000003
 10
184.99175000000020
 20
-23.84086000000003
 10
185.10890000000009
 20
-23.79149500000003
 10
185.12550000000002
 20
-23.77684500000003
 10
185.13960000000003
 20
-23.76409500000003
 10
185.18845000000002
 20
-23.68651500000003
 10
185.20935000000014
 20
-23.59374500000003
 10
185.20935000000014
 20
-23.56308500000003
 10
185.20935000000014
 20
-23.53053500000003
 10
185.18275000000003
 20
-23.43370000000003
 10
185.11925000000005
 20
-23.35070000000003
 10
185.10080000000002
 20
-23.33850000000003
 10
185.08345000000011
 20
-23.32625000000003
 10
184.97275000000010
 20
-23.29370000000003
 10
184.83795000000012
 20
-23.28560000000003
 10
184.79315000000014
 20
-23.28560000000003
 10
184.45815000000019
 20
-23.28560000000003
 10
184.45815000000019
 20
-23.86066500000003
 10
184.79315000000014
 20
-23.86066500000003
  0
LWPOLYLINE
  5
269
330
2E
100
AcDbEntity
  8
Planrahmen
  6
CONTINUOUS
 62
     7
370
     0
100
AcDbPolyline
 90
       23
 70
   129
 10
185.23315000000014
 20
-24.60937000000003
 10
184.80295000000010
 20
-23.97704000000003
 10
184.45815000000019
 20
-23.97704000000003
 10
184.45815000000019
 20
-24.60937000000003
 10
184.33010000000013
 20
-24.60937000000003
 10
184.33010000000013
 20
-23.16950000000003
 10
184.77280000000016
 20
-23.16950000000003
 10
184.82330000000010
 20
-23.16950000000003
 10
184.97470000000013
 20
-23.17655000000003
 10
185.11655000000013
 20
-23.20530000000003
 10
185.14175000000009
 20
-23.21615000000003
 10
185.17080000000004
 20
-23.22835000000003
 10
185.28720000000007
 20
-23.34500000000003
 10
185.34570000000002
 20
-23.51128000000003
 10
185.34570000000002
 20
-23.56688000000003
 10
185.34570000000002
 20
-23.60486000000003
 10
185.31920000000011
 20
-23.71933500000003
 10
185.24105000000009
 20
-23.83815500000003
 10
185.11300000000006
 20
-23.92034500000003
 10
184.98195000000004
 20
-23.95778000000003
 10
184.93775000000008
 20
-23.96266500000003
 10
185.39240000000009
 20
-24.60937000000003
 10
185.23315000000014
 20
-24.60937000000003
  0
LWPOLYLINE
  5
26A
330
2E
100
AcDbEntity
  8
Planrahmen
  6
CONTINUOUS
 62
     7
370
     0
100
AcDbPolyline
 90
       25
 70
   129
 10
186.66140000000016
 20
-23.25900000000003
 10
186.61120000000017
 20
-23.25900000000003
 10
186.46120000000008
 20
-23.30160000000003
 10
186.30980000000005
 20
-23.42390000000003
 10
186.21380000000016
 20
-23.61598500000003
 10
186.18045000000012
 20
-23.80559500000003
 10
186.18045000000012
 20
-23.86880500000003
 10
186.18045000000012
 20
-23.93607500000003
 10
186.21460000000019
 20
-24.13871500000003
 10
186.31280000000004
 20
-24.34298000000003
 10
186.46745000000007
 20
-24.47237500000003
 10
186.62045000000012
 20
-24.51767500000003
 10
186.67140000000012
 20
-24.51767500000003
 10
186.71920000000017
 20
-24.51767500000003
 10
186.86265000000009
 20
-24.47482000000004
 10
187.00865000000007
 20
-24.35220000000003
 10
187.10195000000016
 20
-24.15689000000004
 10
187.13475000000008
 20
-23.96212000000003
 10
187.13475000000008
 20
-23.89728500000003
 10
187.13475000000008
 20
-23.82974500000004
 10
187.10170000000011
 20
-23.62791500000003
 10
187.00755000000009
 20
-23.42745000000003
 10
186.85835000000003
 20
-23.30210000000004
 10
186.71050000000020
 20
-23.25900000000003
 10
186.66140000000016
 20
-23.25900000000003
  0
LWPOLYLINE
  5
26B
330
2E
100
AcDbEntity
  8
Planrahmen
  6
CONTINUOUS
 62
     7
370
     0
100
AcDbPolyline
 90
       30
 70
   129
 10
187.38165000000004
 20
-24.70512500000003
 10
187.29615000000007
 20
-24.79084000000004
 10
186.99400000000009
 20
-24.54019500000004
 10
186.97280000000012
 20
-24.55538000000003
 10
186.84775000000005
 20
-24.61072000000003
 10
186.71105000000017
 20
-24.63568000000003
 10
186.66570000000013
 20
-24.63568000000003
 10
186.59925000000018
 20
-24.63568000000003
 10
186.40045000000012
 20
-24.57980000000003
 10
186.20510000000010
 20
-24.42355000000003
 10
186.08470000000008
 20
-24.18320000000004
 10
186.04345000000009
 20
-23.95208500000003
 10
186.04345000000009
 20
-23.87531000000003
 10
186.04345000000009
 20
-23.79909000000003
 10
186.08635000000004
 20
-23.57122000000003
 10
186.20975000000016
 20
-23.34065000000003
 10
186.40560000000002
 20
-23.19415000000003
 10
186.60065000000012
 20
-23.14290000000003
 10
186.66570000000013
 20
-23.14290000000003
 10
186.73355000000009
 20
-23.14290000000003
 10
186.93780000000012
 20
-23.20310000000003
 10
187.12690000000018
 20
-23.36670000000003
 10
187.23730000000012
 20
-23.60730500000003
 10
187.27335000000008
 20
-23.82621500000003
 10
187.27335000000008
 20
-23.89919000000004
 10
187.27335000000008
 20
-23.97812500000003
 10
187.22650000000016
 20
-24.21521500000003
 10
187.11470000000017
 20
-24.42463000000003
 10
187.08210000000011
 20
-24.46043500000003
 10
187.38165000000004
 20
-24.70512500000003
  0
LWPOLYLINE
  5
26C
330
2E
100
AcDbEntity
  8
Planrahmen
  6
CONTINUOUS
 62
     7
370
     0
100
AcDbPolyline
 90
       39
 70
   129
 10
188.65685000000008
 20
-23.97080000000004
 10
188.65685000000008
 20
-24.04350000000003
 10
188.63890000000012
 20
-24.26159500000003
 10
188.58635000000010
 20
-24.41812000000004
 10
188.56920000000008
 20
-24.44416000000003
 10
188.54780000000011
 20
-24.47563000000003
 10
188.39210000000014
 20
-24.58739000000004
 10
188.19135000000006
 20
-24.63595000000003
 10
188.12460000000004
 20
-24.63595000000003
 10
188.05870000000010
 20
-24.63595000000003
 10
187.86150000000009
 20
-24.58414000000003
 10
187.70660000000004
 20
-24.46939000000004
 10
187.68600000000009
 20
-24.43792500000003
 10
187.66695000000007
 20
-24.40916500000003
 10
187.61570000000012
 20
-24.24342500000003
 10
187.60245000000018
 20
-24.04377000000003
 10
187.60245000000018
 20
-23.97731500000003
 10
187.60245000000018
 20
-23.16920000000004
 10
187.73045000000008
 20
-23.16920000000004
 10
187.73045000000008
 20
-24.05489500000003
 10
187.73045000000008
 20
-24.09721500000003
 10
187.74510000000006
 20
-24.22416500000004
 10
187.78550000000013
 20
-24.34379000000003
 10
187.79830000000004
 20
-24.36495000000003
 10
187.81350000000003
 20
-24.38964000000003
 10
187.93010000000018
 20
-24.47943000000003
 10
188.07905000000011
 20
-24.51957500000003
 10
188.12870000000012
 20
-24.51957500000003
 10
188.17695000000009
 20
-24.51957500000003
 10
188.32210000000012
 20
-24.48594000000003
 10
188.44225000000012
 20
-24.40048500000004
 10
188.46130000000014
 20
-24.37471500000003
 10
188.47595000000013
 20
-24.35437500000003
 10
188.51690000000019
 20
-24.22905000000003
 10
188.52855000000011
 20
-24.09314500000003
 10
188.52855000000011
 20
-24.04811000000003
 10
188.52855000000011
 20
-23.16920000000004
 10
188.65685000000008
 20
-23.16920000000004
 10
188.65685000000008
 20
-23.97080000000004
  0
LWPOLYLINE
  5
26D
330
2E
100
AcDbEntity
  8
Planrahmen
  6
CONTINUOUS
 62
     7
370
     0
100
AcDbPolyline
 90
       14
 70
   129
 10
189.78670000000014
 20
-24.07687000000004
 10
189.75710000000007
 20
-23.99739000000003
 10
189.66890000000009
 20
-23.75948500000003
 10
189.59160000000014
 20
-23.55088000000003
 10
189.54140000000012
 20
-23.41335000000003
 10
189.51380000000000
 20
-23.33550000000003
 10
189.50510000000003
 20
-23.30970000000003
 10
189.49615000000003
 20
-23.33550000000003
 10
189.46850000000009
 20
-23.41255000000003
 10
189.41745000000003
 20
-23.55115500000003
 10
189.33880000000008
 20
-23.76084000000003
 10
189.24925000000007
 20
-23.99793000000004
 10
189.21945000000011
 20
-24.07687000000004
 10
189.78670000000014
 20
-24.07687000000004
  0
LWPOLYLINE
  5
26E
330
2E
100
AcDbEntity
  8
Planrahmen
  6
CONTINUOUS
 62
     7
370
     0
100
AcDbPolyline
 90
        9
 70
   129
 10
189.97870000000012
 20
-24.60909000000003
 10
189.82765000000006
 20
-24.18917500000003
 10
189.17685000000012
 20
-24.18917500000003
 10
189.02410000000012
 20
-24.60909000000003
 10
188.88095000000013
 20
-24.60909000000003
 10
189.44220000000016
 20
-23.16950000000003
 10
189.57670000000010
 20
-23.16950000000003
 10
190.12140000000016
 20
-24.60909000000003
 10
189.97870000000012
 20
-24.60909000000003
  0
LWPOLYLINE
  5
26F
330
2E
100
AcDbEntity
  8
Planrahmen
  6
CONTINUOUS
 62
     7
370
     0
100
AcDbPolyline
 90
        7
 70
   129
 10
190.34600000000006
 20
-24.60937000000003
 10
190.34600000000006
 20
-23.16950000000003
 10
190.47405000000012
 20
-23.16950000000003
 10
190.47405000000012
 20
-24.49136000000003
 10
191.24120000000005
 20
-24.49136000000003
 10
191.24120000000005
 20
-24.60937000000003
 10
190.34600000000006
 20
-24.60937000000003
  0
LWPOLYLINE
  5
270
330
2E
100
AcDbEntity
  8
Planrahmen
  6
CONTINUOUS
 62
     7
370
     0
100
AcDbPolyline
 90
        5
 70
   129
 10
191.52280000000016
 20
-23.16950000000003
 10
191.65105000000008
 20
-23.16950000000003
 10
191.65105000000008
 20
-24.60937000000003
 10
191.52280000000016
 20
-24.60937000000003
 10
191.52280000000016
 20
-23.16950000000003
  0
LWPOLYLINE
  5
271
330
2E
100
AcDbEntity
  8
Planrahmen
  6
CONTINUOUS
 62
     7
370
     0
100
AcDbPolyline
 90
        9
 70
   129
 10
192.36940000000007
 20
-24.60937000000003
 10
192.36940000000007
 20
-23.28750000000003
 10
191.92915000000016
 20
-23.28750000000003
 10
191.92915000000016
 20
-23.16950000000003
 10
192.94475000000006
 20
-23.16950000000003
 10
192.94475000000006
 20
-23.28750000000003
 10
192.50205000000003
 20
-23.28750000000003
 10
192.50205000000003
 20
-24.60937000000003
 10
192.36940000000007
 20
-24.60937000000003
  0
LWPOLYLINE
  5
272
330
2E
100
AcDbEntity
  8
Planrahmen
  6
CONTINUOUS
 62
     7
370
     0
100
AcDbPolyline
 90
        5
 70
   129
 10
193.86630000000011
 20
-22.86975000000003
 10
193.98425000000015
 20
-22.86975000000003
 10
193.98425000000015
 20
-23.03735000000003
 10
193.86630000000011
 20
-23.03735000000003
 10
193.86630000000011
 20
-22.86975000000003
  0
LWPOLYLINE
  5
273
330
2E
100
AcDbEntity
  8
Planrahmen
  6
CONTINUOUS
 62
     7
370
     0
100
AcDbPolyline
 90
       14
 70
   129
 10
193.96635000000012
 20
-24.07714000000003
 10
193.93705000000011
 20
-23.99766000000003
 10
193.84865000000002
 20
-23.75948500000003
 10
193.77135000000007
 20
-23.55088000000003
 10
193.72115000000016
 20
-23.41360000000003
 10
193.69350000000011
 20
-23.33575000000003
 10
193.68480000000017
 20
-23.31000000000003
 10
193.67585000000014
 20
-23.33575000000003
 10
193.64815000000007
 20
-23.41280000000003
 10
193.59720000000007
 20
-23.55142500000003
 10
193.51850000000010
 20
-23.76111000000003
 10
193.42900000000000
 20
-23.99820000000003
 10
193.39910000000009
 20
-24.07714000000003
 10
193.96635000000012
 20
-24.07714000000003
  0
LWPOLYLINE
  5
274
330
2E
100
AcDbEntity
  8
Planrahmen
  6
CONTINUOUS
 62
     7
370
     0
100
AcDbPolyline
 90
        5
 70
   129
 10
193.38505000000012
 20
-22.86975000000003
 10
193.50545000000014
 20
-22.86975000000003
 10
193.50545000000014
 20
-23.03735000000003
 10
193.38505000000012
 20
-23.03735000000003
 10
193.38505000000012
 20
-22.86975000000003
  0
LWPOLYLINE
  5
275
330
2E
100
AcDbEntity
  8
Planrahmen
  6
CONTINUOUS
 62
     7
370
     0
100
AcDbPolyline
 90
        9
 70
   129
 10
194.15870000000018
 20
-24.60909000000003
 10
194.00730000000016
 20
-24.18917500000003
 10
193.35655000000000
 20
-24.18917500000003
 10
193.20385000000013
 20
-24.60909000000003
 10
193.06060000000008
 20
-24.60909000000003
 10
193.62185000000014
 20
-23.16950000000003
 10
193.75640000000010
 20
-23.16950000000003
 10
194.30085000000003
 20
-24.60909000000003
 10
194.15870000000018
 20
-24.60909000000003
  0
LWPOLYLINE
  5
276
330
2E
100
AcDbEntity
  8
Planrahmen
  6
CONTINUOUS
 62
     7
370
     0
100
AcDbPolyline
 90
        9
 70
   129
 10
194.85585000000012
 20
-24.60937000000003
 10
194.85585000000012
 20
-23.28750000000003
 10
194.41585000000012
 20
-23.28750000000003
 10
194.41585000000012
 20
-23.16950000000003
 10
195.43150000000014
 20
-23.16950000000003
 10
195.43150000000014
 20
-23.28750000000003
 10
194.98880000000011
 20
-23.28750000000003
 10
194.98880000000011
 20
-24.60937000000003
 10
194.85585000000012
 20
-24.60937000000003
  0
LWPOLYLINE
  5
277
330
2E
100
AcDbEntity
  8
Planrahmen
  6
CONTINUOUS
 62
    20
370
     0
100
AcDbPolyline
 90
       21
 70
   129
 10
149.30544500000005
 20
-10.00000000000002
 10
149.30544500000005
 20
-16.01565000000002
 10
152.74295000000006
 20
-16.01565000000002
 10
152.74295000000006
 20
-13.43725000000002
 10
156.18045000000006
 20
-13.43725000000002
 10
156.18045000000006
 20
-21.17215000000003
 10
152.74295000000006
 20
-21.17215000000003
 10
152.74295000000006
 20
-18.59405000000003
 10
149.30544500000005
 20
-18.59405000000003
 10
149.30544500000005
 20
-24.60937000000003
 10
163.91480000000004
 20
-24.60937000000003
 10
163.91480000000004
 20
-18.59405000000003
 10
160.47760000000008
 20
-18.59405000000003
 10
160.47760000000008
 20
-21.17215000000003
 10
157.03955000000005
 20
-21.17215000000003
 10
157.03955000000005
 20
-13.43725000000002
 10
160.47760000000008
 20
-13.43725000000002
 10
160.47760000000008
 20
-16.01565000000002
 10
163.91480000000004
 20
-16.01565000000002
 10
163.91480000000004
 20
-10.00000000000002
 10
149.30544500000005
 20
-10.00000000000002
  0
MTEXT
  5
278
330
2E
100
AcDbEntity
  8
Planrahmen
 62
     7
370
    25
100
AcDbMText
 10
165.00000000000040
 20
-79.99999999999967
 30
0.00000000000000
 40
2.50000000000000
 41
0.00000000000000
 71
     7
 72
     1
  1
\fArial|b0|i0;Stand:\PMassstab:
 11
1.00000000000000
 21
0.00000000000000
 31
0.00000000000000
 73
     1
 44
1.00000000000000
  0
MTEXT
  5
279
330
2E
100
AcDbEntity
  8
Planrahmen
 62
     7
370
    25
100
AcDbMText
 10
200.00000000000034
 20
-79.99999999999977
 30
0.00000000000000
 40
2.50000000000000
 41
0.00000000000000
 71
     9
 72
     1
  1
\fArial|b0|i0;02/2021\P1:5
 11
1.00000000000000
 21
0.00000000000000
 31
0.00000000000000
 73
     1
 44
1.00000000000000
  0
ENDBLK
  5
27A
330
2E
100
AcDbEntity
  8
0
100
AcDbBlockEnd
  0
ENDSEC
  0
SECTION
  2
ENTITIES
  0
HATCH
  5
27B
330
30
100
AcDbEntity
  8
+ Zeichnungen 5
 62
     7
100
AcDbHatch
 10
0.00000000000000
 20
0.00000000000000
 30
0.00000000000000
210
0.00000000000000
220
0.00000000000000
230
1.00000000000000
  2
SOLID
 70
     1
 71
     0
 91
        1
 92
        0
 93
        6
 72
     2
 10
130.52275039028746
 20
-172.46244735225372
 40
2.00000000000000
 50
102.05658587736538
 51
180.00000000000000
 73
     1
 72
     1
 10
128.52275039028746
 20
-172.46244735225372
 11
128.52275039028754
 21
-174.28711484863328
 72
     1
 10
128.52275039028754
 20
-174.28711484863328
 11
129.32275039028750
 21
-174.28711484863325
 72
     1
 10
129.32275039028750
 20
-174.28711484863325
 11
129.32275039028750
 21
-172.46244735225372
 72
     2
 10
130.52275039028751
 20
-172.46244735225375
 40
1.20000000000000
 50
180.00000000000134
 51
257.94341412263225
 73
     0
 72
     1
 10
130.27209724929955
 20
-171.28891720653405
 11
130.10499515530756
 21
-170.50656377605421
 97
        0
 75
     0
 76
     0
 98
        1
 10
0.00000000000000
 20
0.00000000000000
  0
HATCH
  5
27C
330
30
100
AcDbEntity
  8
+ Zeichnungen 5
 62
     7
100
AcDbHatch
 10
0.00000000000000
 20
0.00000000000000
 30
0.00000000000000
210
0.00000000000000
220
0.00000000000000
230
1.00000000000000
  2
SOLID
 70
     1
 71
     0
 91
        1
 92
        0
 93
        8
 72
     1
 10
136.99999999999986
 20
-173.99999999999949
 11
136.99999999999983
 21
-174.79999999999941
 72
     1
 10
136.99999999999983
 20
-174.79999999999941
 11
135.71715728752557
 21
-174.79999999999941
 72
     2
 10
135.71715728752557
 20
-171.99999999999943
 40
2.80000000000000
 50
90.00000000000000
 51
134.99999999999920
 73
     0
 72
     1
 10
133.73725830020325
 20
-173.97989898732180
 11
133.03769240936197
 21
-173.28033309648046
 72
     1
 10
133.03769240936197
 20
-173.28033309648046
 11
133.60337783431123
 21
-172.71464767153131
 72
     1
 10
133.60337783431123
 20
-172.71464767153131
 11
134.24436508139001
 21
-173.35563491861006
 72
     2
 10
135.80000000000001
 20
-171.80000000000001
 40
2.19999999999945
 50
225.00000000000153
 51
270.00000000000000
 73
     1
 72
     1
 10
135.80000000000001
 20
-173.99999999999946
 11
136.99999999999986
 21
-173.99999999999949
 97
        0
 75
     0
 76
     0
 98
        1
 10
0.00000000000000
 20
0.00000000000000
  0
SOLID
  5
27D
330
30
100
AcDbEntity
  8
+ Zeichnungen 5
 62
    30
100
AcDbTrace
 10
127.99999999999964
 20
-259.99999999999994
 30
0.00000000000000
 11
127.99999999999964
 21
-240.59999999999977
 31
0.00000000000000
 12
54.99999999999999
 22
-259.99999999999994
 32
0.00000000000000
 13
54.99999999999999
 23
-240.59999999999977
 33
0.00000000000000
  0
HATCH
  5
27E
330
30
100
AcDbEntity
  8
+ Zeichnungen 5
 62
     7
370
    18
100
AcDbHatch
 10
0.00000000000000
 20
0.00000000000000
 30
0.00000000000000
210
0.00000000000000
220
0.00000000000000
230
1.00000000000000
  2
SCHRAFFUR
 70
     0
 71
     0
 91
        1
 92
        0
 93
        4
 72
     1
 10
127.99999999999964
 20
-259.99999999999994
 11
127.99999999999964
 21
-240.59999999999977
 72
     1
 10
127.99999999999964
 20
-240.59999999999977
 11
54.99999999999999
 21
-240.59999999999977
 72
     1
 10
54.99999999999999
 20
-240.59999999999977
 11
54.99999999999999
 21
-259.99999999999994
 72
     1
 10
54.99999999999999
 20
-259.99999999999994
 11
127.99999999999964
 21
-259.99999999999994
 97
        0
 75
     0
 76
     0
 52
135.00000000000017
 41
1.00000000000000
 77
     0
 78
     1
 53
135.00000000000017
 43
-127.99999999999997
 44
607.19999999999970
 45
-2.82842712474618
 46
-2.82842712474620
 79
     0
 98
        1
 10
0.00000000000000
 20
0.00000000000000
  0
HATCH
  5
27F
330
30
100
AcDbEntity
  8
+ Zeichnungen 5
 62
     7
370
     9
100
AcDbHatch
 10
0.00000000000000
 20
0.00000000000000
 30
0.00000000000000
210
0.00000000000000
220
0.00000000000000
230
1.00000000000000
  2
SCHRAFFUR
 70
     0
 71
     0
 91
        1
 92
        0
 93
        4
 72
     1
 10
196.99999999999991
 20
-180.83999999999986
 11
196.99999999999994
 21
-183.33999999999980
 72
     1
 10
196.99999999999994
 20
-183.33999999999980
 11
132.99999999999972
 21
-183.33999999999980
 72
     1
 10
132.99999999999972
 20
-183.33999999999980
 11
132.99999999999972
 21
-180.83999999999986
 72
     1
 10
132.99999999999972
 20
-180.83999999999986
 11
196.99999999999991
 21
-180.83999999999986
 97
        0
 75
     0
 76
     0
 52
90.00000000000000
 41
1.00000000000000
 77
     0
 78
     1
 53
90.00000000000000
 43
-199.91577015120541
 44
-5.51125764038169
 45
-1.00000000000000
 46
0.00000000000000
 79
     0
 98
        1
 10
0.00000000000000
 20
0.00000000000000
  0
SOLID
  5
280
330
30
100
AcDbEntity
  8
+ Zeichnungen 5
 62
     7
100
AcDbTrace
 10
196.99999999999991
 20
-173.99999999999946
 30
0.00000000000000
 11
196.99999999999991
 21
-174.79999999999944
 31
0.00000000000000
 12
191.99999999999997
 22
-173.99999999999926
 32
0.00000000000000
 13
192.00000000000003
 23
-174.79999999999944
 33
0.00000000000000
  0
SOLID
  5
281
330
30
100
AcDbEntity
  8
+ Zeichnungen 5
 62
     7
100
AcDbTrace
 10
184.99999999999994
 20
-173.99999999999926
 30
0.00000000000000
 11
184.99999999999994
 21
-174.79999999999944
 31
0.00000000000000
 12
179.99999999999997
 22
-173.99999999999926
 32
0.00000000000000
 13
179.99999999999997
 23
-174.79999999999944
 33
0.00000000000000
  0
SOLID
  5
282
330
30
100
AcDbEntity
  8
+ Zeichnungen 5
 62
     7
100
AcDbTrace
 10
172.99999999999989
 20
-173.99999999999926
 30
0.00000000000000
 11
172.99999999999989
 21
-174.79999999999944
 31
0.00000000000000
 12
167.99999999999994
 22
-173.99999999999926
 32
0.00000000000000
 13
167.99999999999994
 23
-174.79999999999944
 33
0.00000000000000
  0
SOLID
  5
283
330
30
100
AcDbEntity
  8
+ Zeichnungen 5
 62
     7
100
AcDbTrace
 10
160.99999999999989
 20
-173.99999999999926
 30
0.00000000000000
 11
160.99999999999989
 21
-174.79999999999944
 31
0.00000000000000
 12
155.99999999999991
 22
-173.99999999999946
 32
0.00000000000000
 13
155.99999999999991
 23
-174.79999999999944
 33
0.00000000000000
  0
SOLID
  5
284
330
30
100
AcDbEntity
  8
+ Zeichnungen 5
 62
     7
100
AcDbTrace
 10
148.99999999999989
 20
-173.99999999999946
 30
0.00000000000000
 11
148.99999999999989
 21
-174.79999999999944
 31
0.00000000000000
 12
143.99999999999989
 22
-173.99999999999946
 32
0.00000000000000
 13
143.99999999999989
 23
-174.79999999999944
 33
0.00000000000000
  0
SOLID
  5
285
330
30
100
AcDbEntity
  8
+ Zeichnungen 5
 62
   254
100
AcDbTrace
 10
111.99999999999986
 20
-189.99999999999963
 30
0.00000000000000
 11
111.99999999999986
 21
-139.99999999999974
 31
0.00000000000000
 12
124.80000000000001
 22
-189.99999999999972
 32
0.00000000000000
 13
124.80000000000001
 23
-139.99999999999974
 33
0.00000000000000
  0
SOLID
  5
286
330
30
100
AcDbEntity
  8
+ Zeichnungen 5
 62
   254
100
AcDbTrace
 10
70.99999999999962
 20
-189.99999999999972
 30
0.00000000000000
 11
58.19999999999964
 21
-189.99999999999972
 31
0.00000000000000
 12
70.99999999999980
 22
-139.99999999999974
 32
0.00000000000000
 13
58.19999999999964
 23
-139.99999999999974
 33
0.00000000000000
  0
SOLID
  5
287
330
30
100
AcDbEntity
  8
+ Zeichnungen 5
 62
    30
100
AcDbTrace
 10
54.99999999999997
 20
-240.39999999999986
 30
0.00000000000000
 11
54.99999999999999
 21
-190.59999999999985
 31
0.00000000000000
 12
127.99999999999964
 22
-240.39999999999986
 32
0.00000000000000
 13
127.99999999999964
 23
-190.59999999999985
 33
0.00000000000000
  0
HATCH
  5
288
330
30
100
AcDbEntity
  8
+ Zeichnungen 5
 62
     7
370
    18
100
AcDbHatch
 10
0.00000000000000
 20
0.00000000000000
 30
0.00000000000000
210
0.00000000000000
220
0.00000000000000
230
1.00000000000000
  2
SCHRAFFUR
 70
     0
 71
     0
 91
        1
 92
        0
 93
        4
 72
     1
 10
54.99999999999997
 20
-240.39999999999986
 11
54.99999999999999
 21
-190.59999999999985
 72
     1
 10
54.99999999999999
 20
-190.59999999999985
 11
127.99999999999964
 21
-190.59999999999985
 72
     1
 10
127.99999999999964
 20
-190.59999999999985
 11
127.99999999999964
 21
-240.39999999999986
 72
     1
 10
127.99999999999964
 20
-240.39999999999986
 11
54.99999999999997
 21
-240.39999999999986
 97
        0
 75
     0
 76
     0
 52
135.00000000000017
 41
1.00000000000000
 77
     0
 78
     1
 53
135.00000000000017
 43
-127.99999999999997
 44
607.19999999999970
 45
-2.82842712474618
 46
-2.82842712474620
 79
     0
 98
        1
 10
0.00000000000000
 20
0.00000000000000
  0
HATCH
  5
289
330
30
100
AcDbEntity
  8
+ Zeichnungen 5
 62
     7
370
     9
100
AcDbHatch
 10
0.00000000000000
 20
0.00000000000000
 30
0.00000000000000
210
0.00000000000000
220
0.00000000000000
230
1.00000000000000
  2
SCHRAFFUR
 70
     0
 71
     0
 91
        1
 92
        0
 93
        4
 72
     1
 10
196.99999999999991
 20
-133.99999999999974
 11
196.99999999999991
 21
-121.99999999999966
 72
     1
 10
196.99999999999991
 20
-121.99999999999966
 11
34.00000000000024
 21
-121.99999999999966
 72
     1
 10
34.00000000000024
 20
-121.99999999999966
 11
34.00000000000024
 21
-133.99999999999974
 72
     1
 10
34.00000000000024
 20
-133.99999999999974
 11
196.99999999999991
 21
-133.99999999999974
 97
        0
 75
     0
 76
     0
 52
90.00000000000000
 41
1.00000000000000
 77
     0
 78
     1
 53
90.00000000000000
 43
-199.91577015120009
 44
-5.51125764038169
 45
-5.00000000000000
 46
0.00000000000000
 79
     0
 98
        1
 10
0.00000000000000
 20
0.00000000000000
  0
SOLID
  5
28A
330
30
100
AcDbEntity
  8
+ Zeichnungen 5
 62
    30
100
AcDbTrace
 10
54.99999999999997
 20
-189.99999999999972
 30
0.00000000000000
 11
54.99999999999997
 21
-139.99999999999974
 31
0.00000000000000
 12
58.19999999999962
 22
-189.99999999999972
 32
0.00000000000000
 13
58.19999999999962
 23
-139.99999999999966
 33
0.00000000000000
  0
HATCH
  5
28B
330
30
100
AcDbEntity
  8
+ Zeichnungen 5
 62
     7
370
    18
100
AcDbHatch
 10
0.00000000000000
 20
0.00000000000000
 30
0.00000000000000
210
0.00000000000000
220
0.00000000000000
230
1.00000000000000
  2
SCHRAFFUR
 70
     0
 71
     0
 91
        1
 92
        0
 93
        4
 72
     1
 10
54.99999999999997
 20
-189.99999999999972
 11
54.99999999999997
 21
-139.99999999999974
 72
     1
 10
54.99999999999997
 20
-139.99999999999974
 11
58.19999999999962
 21
-139.99999999999966
 72
     1
 10
58.19999999999962
 20
-139.99999999999966
 11
58.19999999999962
 21
-189.99999999999972
 72
     1
 10
58.19999999999962
 20
-189.99999999999972
 11
54.99999999999997
 21
-189.99999999999972
 97
        0
 75
     0
 76
     0
 52
135.00000000000000
 41
1.00000000000000
 77
     0
 78
     1
 53
135.00000000000000
 43
-165.99999999999960
 44
541.20000000000027
 45
-0.70710678118655
 46
-0.70710678118655
 79
     0
 98
        1
 10
0.00000000000000
 20
0.00000000000000
  0
SOLID
  5
28C
330
30
100
AcDbEntity
  8
+ Zeichnungen 5
 62
    30
100
AcDbTrace
 10
127.99999999999964
 20
-189.99999999999972
 30
0.00000000000000
 11
124.80000000000001
 21
-189.99999999999972
 31
0.00000000000000
 12
127.99999999999964
 22
-139.99999999999974
 32
0.00000000000000
 13
124.80000000000001
 23
-139.99999999999974
 33
0.00000000000000
  0
HATCH
  5
28D
330
30
100
AcDbEntity
  8
+ Zeichnungen 5
 62
     7
370
    18
100
AcDbHatch
 10
0.00000000000000
 20
0.00000000000000
 30
0.00000000000000
210
0.00000000000000
220
0.00000000000000
230
1.00000000000000
  2
SCHRAFFUR
 70
     0
 71
     0
 91
        1
 92
        0
 93
        4
 72
     1
 10
127.99999999999964
 20
-189.99999999999972
 11
124.80000000000001
 21
-189.99999999999972
 72
     1
 10
124.80000000000001
 20
-189.99999999999972
 11
124.80000000000001
 21
-139.99999999999974
 72
     1
 10
124.80000000000001
 20
-139.99999999999974
 11
127.99999999999964
 21
-139.99999999999974
 72
     1
 10
127.99999999999964
 20
-139.99999999999974
 11
127.99999999999964
 21
-189.99999999999972
 97
        0
 75
     0
 76
     0
 52
135.00000000000000
 41
1.00000000000000
 77
     0
 78
     1
 53
135.00000000000000
 43
-165.99999999999960
 44
541.20000000000027
 45
-0.70710678118655
 46
-0.70710678118655
 79
     0
 98
        1
 10
0.00000000000000
 20
0.00000000000000
  0
INSERT
  5
32
330
30
100
AcDbEntity
  8
+ Zeichnungen 5
 62
     5
370
    25
100
AcDbBlockReference
  2
*U1
 10
0.00000000000000
 20
0.00000000000000
 30
0.00000000000000
  0
INSERT
  5
33
330
30
100
AcDbEntity
  8
+ Zeichnungen 5
 62
     5
370
    25
100
AcDbBlockReference
  2
*U2
 10
0.00000000000000
 20
0.00000000000000
 30
0.00000000000000
  0
HATCH
  5
28E
330
30
100
AcDbEntity
  8
+ Zeichnungen 5
 62
     7
370
    18
100
AcDbHatch
 10
0.00000000000000
 20
0.00000000000000
 30
0.00000000000000
210
0.00000000000000
220
0.00000000000000
230
1.00000000000000
  2
SCHRAFFUR
 70
     0
 71
     0
 91
        1
 92
        0
 93
        4
 72
     1
 10
70.99999999999962
 20
-189.99999999999972
 11
70.99999999999962
 21
-139.99999999999966
 72
     1
 10
70.99999999999962
 20
-139.99999999999966
 11
111.99999999999999
 21
-139.99999999999974
 72
     1
 10
111.99999999999999
 20
-139.99999999999974
 11
111.99999999999999
 21
-189.99999999999972
 72
     1
 10
111.99999999999999
 20
-189.99999999999972
 11
70.99999999999962
 21
-189.99999999999972
 97
        0
 75
     0
 76
     0
 52
44.99999999999996
 41
1.00000000000000
 77
     0
 78
     2
 53
44.99999999999996
 43
-84.24371745138662
 44
181.50354176208018
 45
-5.65685424949238
 46
5.65685424949239
 79
     0
 53
44.99999999999996
 43
-87.07214457613280
 44
184.33196888682636
 45
-5.65685424949238
 46
5.65685424949239
 79
     2
 49
6.67000000000000
 49
-3.33000000000000
 98
        1
 10
0.00000000000000
 20
0.00000000000000
  0
LINE
  5
28F
330
30
100
AcDbEntity
  8
+ Zeichnungen 5
  6
CONTINUOUS
 62
     7
370
    35
100
AcDbLine
 10
54.99999999999997
 20
-259.99999999999994
 30
0.00000000000000
 11
54.99999999999997
 21
-139.99999999999974
 31
0.00000000000000
  0
LINE
  5
290
330
30
100
AcDbEntity
  8
+ Zeichnungen 5
  6
CONTINUOUS
 62
     7
370
    18
100
AcDbLine
 10
58.19999999999962
 20
-189.99999999999972
 30
0.00000000000000
 11
58.19999999999997
 21
-139.99999999999966
 31
0.00000000000000
  0
LINE
  5
291
330
30
100
AcDbEntity
  8
+ Zeichnungen 5
  6
CONTINUOUS
 62
     7
370
    35
100
AcDbLine
 10
54.99999999999997
 20
-139.99999999999974
 30
0.00000000000000
 11
127.99999999999964
 21
-139.99999999999974
 31
0.00000000000000
  0
LINE
  5
292
330
30
100
AcDbEntity
  8
+ Zeichnungen 5
  6
CONTINUOUS
 62
     7
370
    35
100
AcDbLine
 10
54.99999999999997
 20
-189.99999999999972
 30
0.00000000000000
 11
127.99999999999964
 21
-189.99999999999972
 31
0.00000000000000
  0
LINE
  5
293
330
30
100
AcDbEntity
  8
+ Zeichnungen 5
  6
CONTINUOUS
 62
     7
370
    35
100
AcDbLine
 10
70.99999999999962
 20
-189.99999999999972
 30
0.00000000000000
 11
70.99999999999962
 21
-139.99999999999955
 31
0.00000000000000
  0
LINE
  5
294
330
30
100
AcDbEntity
  8
+ Zeichnungen 5
  6
CONTINUOUS
 62
     7
370
    35
100
AcDbLine
 10
127.99999999999964
 20
-259.99999999999994
 30
0.00000000000000
 11
127.99999999999964
 21
-139.99999999999974
 31
0.00000000000000
  0
LINE
  5
295
330
30
100
AcDbEntity
  8
+ Zeichnungen 5
  6
CONTINUOUS
 62
     7
370
    18
100
AcDbLine
 10
124.80000000000001
 20
-139.99999999999974
 30
0.00000000000000
 11
124.80000000000001
 21
-189.99999999999972
 31
0.00000000000000
  0
LINE
  5
296
330
30
100
AcDbEntity
  8
+ Zeichnungen 5
  6
CONTINUOUS
 62
     7
370
    35
100
AcDbLine
 10
111.99999999999999
 20
-139.99999999999974
 30
0.00000000000000
 11
111.99999999999999
 21
-189.99999999999972
 31
0.00000000000000
  0
LINE
  5
297
330
30
100
AcDbEntity
  8
+ Zeichnungen 5
  6
CONTINUOUS
 62
     7
370
    18
100
AcDbLine
 10
49.99999999999991
 20
-259.99999999999994
 30
0.00000000000000
 11
49.99999999999957
 21
-144.88675134594811
 31
0.00000000000000
  0
LINE
  5
298
330
30
100
AcDbEntity
  8
+ Zeichnungen 5
  6
CONTINUOUS
 62
     7
370
    18
100
AcDbLine
 10
130.99999999999974
 20
-259.99999999999983
 30
0.00000000000000
 11
130.99999999999974
 21
-179.40000000000003
 31
0.00000000000000
  0
LINE
  5
299
330
30
100
AcDbEntity
  8
+ Zeichnungen 5
  6
CONTINUOUS
 62
     7
370
    25
100
AcDbLine
 10
34.00000000000024
 20
-133.99999999999966
 30
0.00000000000000
 11
54.99999999999962
 21
-133.99999999999974
 31
0.00000000000000
  0
LINE
  5
29A
330
30
100
AcDbEntity
  8
+ Zeichnungen 5
  6
CONTINUOUS
 62
     7
370
    18
100
AcDbLine
 10
54.99999999999962
 20
-133.99999999999974
 30
0.00000000000000
 11
158.99999999999989
 21
-133.99999999999974
 31
0.00000000000000
  0
LINE
  5
29B
330
30
100
AcDbEntity
  8
+ Zeichnungen 5
  6
CONTINUOUS
 62
     7
370
    25
100
AcDbLine
 10
142.00000000000006
 20
-133.99999999999969
 30
0.00000000000000
 11
162.00000000000000
 21
-133.99999999999969
 31
0.00000000000000
  0
LINE
  5
29C
330
30
100
AcDbEntity
  8
+ Zeichnungen 5
  6
CONTINUOUS
 62
     7
370
    18
100
AcDbLine
 10
162.00000000000003
 20
-133.99999999999974
 30
0.00000000000000
 11
196.99999999999991
 21
-133.99999999999974
 31
0.00000000000000
  0
LWPOLYLINE
  5
29D
330
30
100
AcDbEntity
  8
+ Zeichnungen 5
  6
CONTINUOUS
 62
     7
370
    25
100
AcDbPolyline
 90
        4
 70
   129
 10
142.00000000000006
 20
-173.99999999999966
 10
162.00000000000000
 20
-173.99999999999966
 10
162.00000000000000
 20
-133.99999999999963
 10
142.00000000000006
 20
-133.99999999999963
  0
LINE
  5
29E
330
30
100
AcDbEntity
  8
+ Zeichnungen 5
  6
CONTINUOUS
 62
     7
370
    18
100
AcDbLine
 10
162.00000000000000
 20
-133.99999999999963
 30
0.00000000000000
 11
142.00000000000006
 21
-173.99999999999966
 31
0.00000000000000
  0
LINE
  5
29F
330
30
100
AcDbEntity
  8
+ Zeichnungen 5
  6
CONTINUOUS
 62
     7
370
    18
100
AcDbLine
 10
162.00000000000000
 20
-173.99999999999966
 30
0.00000000000000
 11
142.00000000000006
 21
-133.99999999999963
 31
0.00000000000000
  0
LINE
  5
2A0
330
30
100
AcDbEntity
  8
+ Zeichnungen 5
  6
CONTINUOUS
 62
     7
370
    18
100
AcDbLine
 10
130.99999999999974
 20
-180.83999999999978
 30
0.00000000000000
 11
196.99999999999991
 21
-180.83999999999978
 31
0.00000000000000
  0
LINE
  5
2A1
330
30
100
AcDbEntity
  8
+ Zeichnungen 5
  6
CONTINUOUS
 62
     7
370
    18
100
AcDbLine
 10
34.00000000000024
 20
-121.99999999999966
 30
0.00000000000000
 11
196.99999999999991
 21
-121.99999999999966
 31
0.00000000000000
  0
LINE
  5
2A2
330
30
100
AcDbEntity
  8
+ Zeichnungen 5
  6
CONTINUOUS
 62
     7
370
    25
100
AcDbLine
 10
34.00000000000024
 20
-147.99999999999983
 30
0.00000000000000
 11
33.99999999999989
 21
-103.99999999999997
 31
0.00000000000000
  0
LINE
  5
2A3
330
30
100
AcDbEntity
  8
+ Zeichnungen 5
  6
CONTINUOUS
 62
     7
370
    18
100
AcDbLine
 10
34.80000000000035
 20
-113.19999999999939
 30
0.00000000000000
 11
196.99999999999991
 21
-113.19999999999939
 31
0.00000000000000
  0
LINE
  5
2A4
330
30
100
AcDbEntity
  8
+ Zeichnungen 5
  6
CONTINUOUS
 62
     7
370
    18
100
AcDbLine
 10
34.80000000000035
 20
-107.19999999999943
 30
0.00000000000000
 11
196.99999999999991
 21
-107.19999999999943
 31
0.00000000000000
  0
LWPOLYLINE
  5
2A5
330
30
100
AcDbEntity
  8
+ Zeichnungen 5
  6
CONTINUOUS
 62
     7
370
    25
100
AcDbPolyline
 90
        4
 70
   129
 10
34.80000000000024
 20
-121.19999999999941
 10
46.80000000000034
 20
-121.19999999999941
 10
46.80000000000034
 20
-113.19999999999939
 10
34.80000000000024
 20
-113.19999999999939
  0
LWPOLYLINE
  5
2A6
330
30
100
AcDbEntity
  8
+ Zeichnungen 5
  6
CONTINUOUS
 62
     7
370
    25
100
AcDbPolyline
 90
        4
 70
   129
 10
146.00000000000000
 20
-121.19999999999906
 10
158.00000000000009
 20
-121.19999999999906
 10
158.00000000000009
 20
-113.19999999999906
 10
146.00000000000000
 20
-113.19999999999906
  0
LINE
  5
2A7
330
30
100
AcDbEntity
  8
+ Zeichnungen 5
  6
CONTINUOUS
 62
     7
370
    18
100
AcDbLine
 10
146.00000000000000
 20
-121.19999999999906
 30
0.00000000000000
 11
158.00000000000009
 21
-113.19999999999932
 31
0.00000000000000
  0
LINE
  5
2A8
330
30
100
AcDbEntity
  8
+ Zeichnungen 5
  6
CONTINUOUS
 62
     7
370
    18
100
AcDbLine
 10
158.00000000000009
 20
-121.19999999999906
 30
0.00000000000000
 11
146.00000000000000
 21
-113.19999999999932
 31
0.00000000000000
  0
LINE
  5
2A9
330
30
100
AcDbEntity
  8
+ Zeichnungen 5
  6
CONTINUOUS
 62
     7
370
    18
100
AcDbLine
 10
46.80000000000034
 20
-113.19999999999939
 30
0.00000000000000
 11
34.79999999999988
 21
-121.19999999999949
 31
0.00000000000000
  0
LINE
  5
2AA
330
30
100
AcDbEntity
  8
+ Zeichnungen 5
  6
CONTINUOUS
 62
     7
370
    18
100
AcDbLine
 10
46.80000000000034
 20
-121.19999999999941
 30
0.00000000000000
 11
34.80000000000024
 21
-113.19999999999939
 31
0.00000000000000
  0
LINE
  5
2AB
330
30
100
AcDbEntity
  8
+ Zeichnungen 5
  6
CONTINUOUS
 62
     7
370
    25
100
AcDbLine
 10
30.99999999999977
 20
-147.99999999999983
 30
0.00000000000000
 11
30.99999999999977
 21
-103.99999999999997
 31
0.00000000000000
  0
LINE
  5
2AC
330
30
100
AcDbEntity
  8
+ Zeichnungen 5
  6
CONTINUOUS
 62
     7
370
    25
100
AcDbLine
 10
33.99999999999989
 20
-103.99999999999997
 30
0.00000000000000
 11
30.99999999999977
 21
-103.99999999999997
 31
0.00000000000000
  0
LINE
  5
2AD
330
30
100
AcDbEntity
  8
+ Zeichnungen 5
  6
CONTINUOUS
 62
     7
370
    25
100
AcDbLine
 10
30.99999999999977
 20
-147.99999999999983
 30
0.00000000000000
 11
34.00000000000024
 21
-147.99999999999983
 31
0.00000000000000
  0
LINE
  5
2AE
330
30
100
AcDbEntity
  8
+ Zeichnungen 5
  6
CONTINUOUS
 62
     7
370
    25
100
AcDbLine
 10
54.99999999999962
 20
-139.99999999999974
 30
0.00000000000000
 11
54.99999999999962
 21
-133.99999999999966
 31
0.00000000000000
  0
LINE
  5
2AF
330
30
100
AcDbEntity
  8
+ Zeichnungen 5
  6
CONTINUOUS
 62
     7
370
    18
100
AcDbLine
 10
128.00000000000000
 20
-139.99999999999983
 30
0.00000000000000
 11
128.00000000000000
 21
-133.99999999999974
 31
0.00000000000000
  0
LINE
  5
2B0
330
30
100
AcDbEntity
  8
+ Zeichnungen 5
  6
CONTINUOUS
 62
     7
370
    25
100
AcDbLine
 10
34.00000000000024
 20
-141.99999999999977
 30
0.00000000000000
 11
54.99999999999997
 21
-141.99999999999977
 31
0.00000000000000
  0
LINE
  5
2B1
330
30
100
AcDbEntity
  8
+ Zeichnungen 5
  6
CONTINUOUS
 62
     7
370
    18
100
AcDbLine
 10
54.99999999999962
 20
-133.99999999999966
 30
0.00000000000000
 11
34.00000000000024
 21
-141.99999999999977
 31
0.00000000000000
  0
LINE
  5
2B2
330
30
100
AcDbEntity
  8
+ Zeichnungen 5
  6
CONTINUOUS
 62
     7
370
    18
100
AcDbLine
 10
54.99999999999997
 20
-141.99999999999977
 30
0.00000000000000
 11
34.00000000000024
 21
-133.99999999999966
 31
0.00000000000000
  0
INSERT
  5
34
330
30
100
AcDbEntity
  8
+ Zeichnungen 5
 62
     5
370
    25
100
AcDbBlockReference
  2
*U3
 10
0.00000000000000
 20
0.00000000000000
 30
0.00000000000000
  0
LINE
  5
2B3
330
30
100
AcDbEntity
  8
+ Zeichnungen 5
  6
CONTINUOUS
 62
     7
370
    18
100
AcDbLine
 10
196.99999999999991
 20
-173.99999999999926
 30
0.00000000000000
 11
135.80000000000001
 21
-173.99999999999949
 31
0.00000000000000
  0
ARC
  5
2B4
330
30
100
AcDbEntity
  8
+ Zeichnungen 5
  6
CONTINUOUS
 62
     7
370
    18
100
AcDbCircle
 10
130.52275039028746
 20
-172.46244735225372
 30
0.00000000000000
 40
2.00000000000000
100
AcDbArc
 50
45.00000000000046
 51
180.00000000000000
  0
LINE
  5
2B5
330
30
100
AcDbEntity
  8
+ Zeichnungen 5
  6
CONTINUOUS
 62
     7
370
    18
100
AcDbLine
 10
128.52275039028754
 20
-178.00000000000003
 30
0.00000000000000
 11
128.52275039028751
 21
-172.46244735225372
 31
0.00000000000000
  0
LINE
  5
2B6
330
30
100
AcDbEntity
  8
+ Zeichnungen 5
  6
CONTINUOUS
 62
     7
370
    18
100
AcDbLine
 10
132.99999999999983
 20
-183.33999999999983
 30
0.00000000000000
 11
196.99999999999991
 21
-183.33999999999980
 31
0.00000000000000
  0
ARC
  5
2B7
330
30
100
AcDbEntity
  8
+ Zeichnungen 5
  6
CONTINUOUS
 62
     7
370
    18
100
AcDbCircle
 10
131.99999999999977
 20
-184.22953446724787
 30
0.00000000000000
 40
1.33838393909293
100
AcDbArc
 50
41.65419548745571
 51
138.34580451252913
  0
INSERT
  5
35
330
30
100
AcDbEntity
  8
+ Zeichnungen 5
 62
     5
370
    25
100
AcDbBlockReference
  2
*U4
 10
0.00000000000000
 20
0.00000000000000
 30
0.00000000000000
  0
LINE
  5
2B8
330
30
100
AcDbEntity
  8
+ Zeichnungen 5
  6
CONTINUOUS
 62
     7
370
    18
100
AcDbLine
 10
54.99999999999997
 20
-190.59999999999985
 30
0.00000000000000
 11
127.99999999999964
 21
-190.59999999999985
 31
0.00000000000000
  0
ARC
  5
2B9
330
30
100
AcDbEntity
  8
+ Zeichnungen 5
  6
CONTINUOUS
 62
     7
370
    18
100
AcDbCircle
 10
135.71715728752557
 20
-171.99999999999943
 30
0.00000000000000
 40
2.80000000000000
100
AcDbArc
 50
224.99999999999969
 51
270.00000000000000
  0
LINE
  5
2BA
330
30
100
AcDbEntity
  8
+ Zeichnungen 5
  6
CONTINUOUS
 62
     7
370
    18
100
AcDbLine
 10
196.99999999999991
 20
-174.79999999999927
 30
0.00000000000000
 11
135.71715728752557
 21
-174.79999999999944
 31
0.00000000000000
  0
LINE
  5
2BB
330
30
100
AcDbEntity
  8
+ Zeichnungen 5
  6
CONTINUOUS
 62
     7
370
    18
100
AcDbLine
 10
191.99999999999997
 20
-174.79999999999944
 30
0.00000000000000
 11
192.00000000000003
 21
-173.99999999999926
 31
0.00000000000000
  0
LINE
  5
2BC
330
30
100
AcDbEntity
  8
+ Zeichnungen 5
  6
CONTINUOUS
 62
     7
370
    18
100
AcDbLine
 10
184.99999999999994
 20
-173.99999999999946
 30
0.00000000000000
 11
184.99999999999994
 21
-174.79999999999936
 31
0.00000000000000
  0
LINE
  5
2BD
330
30
100
AcDbEntity
  8
+ Zeichnungen 5
  6
CONTINUOUS
 62
     7
370
    18
100
AcDbLine
 10
179.99999999999997
 20
-173.99999999999946
 30
0.00000000000000
 11
179.99999999999997
 21
-174.79999999999936
 31
0.00000000000000
  0
LINE
  5
2BE
330
30
100
AcDbEntity
  8
+ Zeichnungen 5
  6
CONTINUOUS
 62
     7
370
    18
100
AcDbLine
 10
172.99999999999989
 20
-173.99999999999946
 30
0.00000000000000
 11
172.99999999999989
 21
-174.79999999999936
 31
0.00000000000000
  0
LINE
  5
2BF
330
30
100
AcDbEntity
  8
+ Zeichnungen 5
  6
CONTINUOUS
 62
     7
370
    18
100
AcDbLine
 10
167.99999999999991
 20
-173.99999999999946
 30
0.00000000000000
 11
167.99999999999991
 21
-174.79999999999936
 31
0.00000000000000
  0
LINE
  5
2C0
330
30
100
AcDbEntity
  8
+ Zeichnungen 5
  6
CONTINUOUS
 62
     7
370
    18
100
AcDbLine
 10
160.99999999999989
 20
-173.99999999999946
 30
0.00000000000000
 11
160.99999999999989
 21
-174.79999999999936
 31
0.00000000000000
  0
LINE
  5
2C1
330
30
100
AcDbEntity
  8
+ Zeichnungen 5
  6
CONTINUOUS
 62
     7
370
    18
100
AcDbLine
 10
155.99999999999991
 20
-173.99999999999946
 30
0.00000000000000
 11
155.99999999999991
 21
-174.79999999999936
 31
0.00000000000000
  0
LINE
  5
2C2
330
30
100
AcDbEntity
  8
+ Zeichnungen 5
  6
CONTINUOUS
 62
     7
370
    18
100
AcDbLine
 10
148.99999999999983
 20
-173.99999999999946
 30
0.00000000000000
 11
148.99999999999983
 21
-174.79999999999936
 31
0.00000000000000
  0
LINE
  5
2C3
330
30
100
AcDbEntity
  8
+ Zeichnungen 5
  6
CONTINUOUS
 62
     7
370
    18
100
AcDbLine
 10
143.99999999999986
 20
-173.99999999999946
 30
0.00000000000000
 11
143.99999999999986
 21
-174.79999999999936
 31
0.00000000000000
  0
LINE
  5
2C4
330
30
100
AcDbEntity
  8
+ Zeichnungen 5
  6
CONTINUOUS
 62
     7
370
    18
100
AcDbLine
 10
136.99999999999986
 20
-173.99999999999946
 30
0.00000000000000
 11
136.99999999999986
 21
-174.79999999999936
 31
0.00000000000000
  0
INSERT
  5
36
330
30
100
AcDbEntity
  8
+ Zeichnungen 5
 62
     7
370
    25
100
AcDbBlockReference
  2
*U5
 10
0.00000000000000
 20
0.00000000000000
 30
0.00000000000000
  0
INSERT
  5
37
330
30
100
AcDbEntity
  8
+ Zeichnungen 5
 62
     7
370
    25
100
AcDbBlockReference
  2
*U6
 10
0.00000000000000
 20
0.00000000000000
 30
0.00000000000000
  0
INSERT
  5
38
330
30
100
AcDbEntity
  8
+ Zeichnungen 5
 62
     7
370
    25
100
AcDbBlockReference
  2
*U7
 10
0.00000000000000
 20
0.00000000000000
 30
0.00000000000000
  0
SOLID
  5
2C5
330
30
100
AcDbEntity
  8
+ Zeichnungen 5
 62
     7
100
AcDbTrace
 10
196.99999999999991
 20
-121.19999999999966
 30
0.00000000000000
 11
196.99999999999991
 21
-121.99999999999966
 31
0.00000000000000
 12
191.99999999999997
 22
-121.19999999999949
 32
0.00000000000000
 13
192.00000000000003
 23
-121.99999999999966
 33
0.00000000000000
  0
SOLID
  5
2C6
330
30
100
AcDbEntity
  8
+ Zeichnungen 5
 62
     7
100
AcDbTrace
 10
184.99999999999994
 20
-121.19999999999949
 30
0.00000000000000
 11
184.99999999999994
 21
-121.99999999999966
 31
0.00000000000000
 12
179.99999999999997
 22
-121.19999999999949
 32
0.00000000000000
 13
179.99999999999997
 23
-121.99999999999966
 33
0.00000000000000
  0
LINE
  5
2C7
330
30
100
AcDbEntity
  8
+ Zeichnungen 5
  6
CONTINUOUS
 62
     7
370
    18
100
AcDbLine
 10
196.99999999999991
 20
-121.19999999999949
 30
0.00000000000000
 11
34.80000000000027
 21
-121.19999999999993
 31
0.00000000000000
  0
LINE
  5
2C8
330
30
100
AcDbEntity
  8
+ Zeichnungen 5
  6
CONTINUOUS
 62
     7
370
    18
100
AcDbLine
 10
191.99999999999997
 20
-121.99999999999966
 30
0.00000000000000
 11
192.00000000000003
 21
-121.19999999999949
 31
0.00000000000000
  0
LINE
  5
2C9
330
30
100
AcDbEntity
  8
+ Zeichnungen 5
  6
CONTINUOUS
 62
     7
370
    18
100
AcDbLine
 10
184.99999999999994
 20
-121.19999999999966
 30
0.00000000000000
 11
184.99999999999994
 21
-121.99999999999957
 31
0.00000000000000
  0
LINE
  5
2CA
330
30
100
AcDbEntity
  8
+ Zeichnungen 5
  6
CONTINUOUS
 62
     7
370
    18
100
AcDbLine
 10
179.99999999999997
 20
-121.19999999999966
 30
0.00000000000000
 11
179.99999999999997
 21
-121.99999999999957
 31
0.00000000000000
  0
LINE
  5
2CB
330
30
100
AcDbEntity
  8
+ Zeichnungen 5
  6
CONTINUOUS
 62
     7
370
    18
100
AcDbLine
 10
34.80000000000035
 20
-113.19999999999929
 30
0.00000000000000
 11
34.80000000000033
 21
-103.99999999999997
 31
0.00000000000000
  0
ARC
  5
2CC
330
30
100
AcDbEntity
  8
+ Zeichnungen 5
  6
CONTINUOUS
 62
     7
370
    18
100
AcDbCircle
 10
30.99999999999994
 20
-104.00000000000004
 30
0.00000000000000
 40
0.80000000000000
100
AcDbArc
 50
90.00000000000000
 51
180.00000000000000
  0
ARC
  5
2CD
330
30
100
AcDbEntity
  8
+ Zeichnungen 5
  6
CONTINUOUS
 62
     7
370
    18
100
AcDbCircle
 10
34.00000000000032
 20
-103.99999999999987
 30
0.00000000000000
 40
0.80000000000000
100
AcDbArc
 50
359.99999999999363
 51
90.00000000000000
  0
LINE
  5
2CE
330
30
100
AcDbEntity
  8
+ Zeichnungen 5
  6
CONTINUOUS
 62
     7
370
    18
100
AcDbLine
 10
30.99999999999996
 20
-103.19999999999979
 30
0.00000000000000
 11
34.00000000000034
 21
-103.19999999999996
 31
0.00000000000000
  0
LINE
  5
2CF
330
30
100
AcDbEntity
  8
+ Zeichnungen 5
  6
CONTINUOUS
 62
     7
370
    18
100
AcDbLine
 10
30.19999999999992
 20
-113.19999999999948
 30
0.00000000000000
 11
30.19999999999991
 21
-104.00000000000004
 31
0.00000000000000
  0
LINE
  5
2D0
330
30
100
AcDbEntity
  8
+ Zeichnungen 5
  6
CONTINUOUS
 62
     7
370
    18
100
AcDbLine
 10
30.19999999999992
 20
-113.19999999999948
 30
0.00000000000000
 11
30.99999999999981
 21
-114.58564064605450
 31
0.00000000000000
  0
SOLID
  5
2D1
330
30
100
AcDbEntity
  8
+ Zeichnungen 5
 62
     7
100
AcDbTrace
 10
172.99999999999991
 20
-121.19999999999949
 30
0.00000000000000
 11
172.99999999999991
 21
-121.99999999999966
 31
0.00000000000000
 12
167.99999999999994
 22
-121.19999999999949
 32
0.00000000000000
 13
167.99999999999994
 23
-121.99999999999966
 33
0.00000000000000
  0
LINE
  5
2D2
330
30
100
AcDbEntity
  8
+ Zeichnungen 5
  6
CONTINUOUS
 62
     7
370
    18
100
AcDbLine
 10
172.99999999999991
 20
-121.19999999999966
 30
0.00000000000000
 11
172.99999999999991
 21
-121.99999999999957
 31
0.00000000000000
  0
LINE
  5
2D3
330
30
100
AcDbEntity
  8
+ Zeichnungen 5
  6
CONTINUOUS
 62
     7
370
    18
100
AcDbLine
 10
167.99999999999994
 20
-121.19999999999966
 30
0.00000000000000
 11
167.99999999999994
 21
-121.99999999999957
 31
0.00000000000000
  0
SOLID
  5
2D4
330
30
100
AcDbEntity
  8
+ Zeichnungen 5
 62
     7
100
AcDbTrace
 10
160.99999999999997
 20
-121.19999999999949
 30
0.00000000000000
 11
160.99999999999997
 21
-121.99999999999966
 31
0.00000000000000
 12
156.00000000000000
 22
-121.19999999999949
 32
0.00000000000000
 13
156.00000000000000
 23
-121.99999999999966
 33
0.00000000000000
  0
LINE
  5
2D5
330
30
100
AcDbEntity
  8
+ Zeichnungen 5
  6
CONTINUOUS
 62
     7
370
    18
100
AcDbLine
 10
160.99999999999997
 20
-121.19999999999966
 30
0.00000000000000
 11
160.99999999999997
 21
-121.99999999999957
 31
0.00000000000000
  0
LINE
  5
2D6
330
30
100
AcDbEntity
  8
+ Zeichnungen 5
  6
CONTINUOUS
 62
     7
370
    18
100
AcDbLine
 10
156.00000000000000
 20
-121.19999999999966
 30
0.00000000000000
 11
156.00000000000000
 21
-121.99999999999957
 31
0.00000000000000
  0
SOLID
  5
2D7
330
30
100
AcDbEntity
  8
+ Zeichnungen 5
 62
     7
100
AcDbTrace
 10
148.99999999999983
 20
-121.19999999999949
 30
0.00000000000000
 11
148.99999999999983
 21
-121.99999999999966
 31
0.00000000000000
 12
143.99999999999986
 22
-121.19999999999949
 32
0.00000000000000
 13
143.99999999999986
 23
-121.99999999999966
 33
0.00000000000000
  0
LINE
  5
2D8
330
30
100
AcDbEntity
  8
+ Zeichnungen 5
  6
CONTINUOUS
 62
     7
370
    18
100
AcDbLine
 10
148.99999999999983
 20
-121.19999999999966
 30
0.00000000000000
 11
148.99999999999983
 21
-121.99999999999957
 31
0.00000000000000
  0
LINE
  5
2D9
330
30
100
AcDbEntity
  8
+ Zeichnungen 5
  6
CONTINUOUS
 62
     7
370
    18
100
AcDbLine
 10
143.99999999999986
 20
-121.19999999999966
 30
0.00000000000000
 11
143.99999999999986
 21
-121.99999999999957
 31
0.00000000000000
  0
SOLID
  5
2DA
330
30
100
AcDbEntity
  8
+ Zeichnungen 5
 62
     7
100
AcDbTrace
 10
136.99999999999980
 20
-121.19999999999949
 30
0.00000000000000
 11
136.99999999999980
 21
-121.99999999999966
 31
0.00000000000000
 12
131.99999999999983
 22
-121.19999999999949
 32
0.00000000000000
 13
131.99999999999983
 23
-121.99999999999966
 33
0.00000000000000
  0
LINE
  5
2DB
330
30
100
AcDbEntity
  8
+ Zeichnungen 5
  6
CONTINUOUS
 62
     7
370
    18
100
AcDbLine
 10
136.99999999999980
 20
-121.19999999999966
 30
0.00000000000000
 11
136.99999999999980
 21
-121.99999999999957
 31
0.00000000000000
  0
LINE
  5
2DC
330
30
100
AcDbEntity
  8
+ Zeichnungen 5
  6
CONTINUOUS
 62
     7
370
    18
100
AcDbLine
 10
131.99999999999983
 20
-121.19999999999966
 30
0.00000000000000
 11
131.99999999999983
 21
-121.99999999999957
 31
0.00000000000000
  0
SOLID
  5
2DD
330
30
100
AcDbEntity
  8
+ Zeichnungen 5
 62
     7
100
AcDbTrace
 10
124.99999999999984
 20
-121.19999999999949
 30
0.00000000000000
 11
124.99999999999984
 21
-121.99999999999966
 31
0.00000000000000
 12
119.99999999999987
 22
-121.19999999999949
 32
0.00000000000000
 13
119.99999999999987
 23
-121.99999999999966
 33
0.00000000000000
  0
LINE
  5
2DE
330
30
100
AcDbEntity
  8
+ Zeichnungen 5
  6
CONTINUOUS
 62
     7
370
    18
100
AcDbLine
 10
124.99999999999984
 20
-121.19999999999966
 30
0.00000000000000
 11
124.99999999999984
 21
-121.99999999999957
 31
0.00000000000000
  0
LINE
  5
2DF
330
30
100
AcDbEntity
  8
+ Zeichnungen 5
  6
CONTINUOUS
 62
     7
370
    18
100
AcDbLine
 10
119.99999999999987
 20
-121.19999999999966
 30
0.00000000000000
 11
119.99999999999987
 21
-121.99999999999957
 31
0.00000000000000
  0
SOLID
  5
2E0
330
30
100
AcDbEntity
  8
+ Zeichnungen 5
 62
     7
100
AcDbTrace
 10
112.99999999999983
 20
-121.19999999999949
 30
0.00000000000000
 11
112.99999999999983
 21
-121.99999999999966
 31
0.00000000000000
 12
107.99999999999986
 22
-121.19999999999949
 32
0.00000000000000
 13
107.99999999999986
 23
-121.99999999999966
 33
0.00000000000000
  0
LINE
  5
2E1
330
30
100
AcDbEntity
  8
+ Zeichnungen 5
  6
CONTINUOUS
 62
     7
370
    18
100
AcDbLine
 10
112.99999999999983
 20
-121.19999999999966
 30
0.00000000000000
 11
112.99999999999983
 21
-121.99999999999957
 31
0.00000000000000
  0
LINE
  5
2E2
330
30
100
AcDbEntity
  8
+ Zeichnungen 5
  6
CONTINUOUS
 62
     7
370
    18
100
AcDbLine
 10
107.99999999999986
 20
-121.19999999999966
 30
0.00000000000000
 11
107.99999999999986
 21
-121.99999999999957
 31
0.00000000000000
  0
SOLID
  5
2E3
330
30
100
AcDbEntity
  8
+ Zeichnungen 5
 62
     7
100
AcDbTrace
 10
100.99999999999983
 20
-121.19999999999949
 30
0.00000000000000
 11
100.99999999999983
 21
-121.99999999999966
 31
0.00000000000000
 12
95.99999999999984
 22
-121.19999999999949
 32
0.00000000000000
 13
95.99999999999984
 23
-121.99999999999966
 33
0.00000000000000
  0
LINE
  5
2E4
330
30
100
AcDbEntity
  8
+ Zeichnungen 5
  6
CONTINUOUS
 62
     7
370
    18
100
AcDbLine
 10
100.99999999999983
 20
-121.19999999999966
 30
0.00000000000000
 11
100.99999999999983
 21
-121.99999999999957
 31
0.00000000000000
  0
LINE
  5
2E5
330
30
100
AcDbEntity
  8
+ Zeichnungen 5
  6
CONTINUOUS
 62
     7
370
    18
100
AcDbLine
 10
95.99999999999984
 20
-121.19999999999966
 30
0.00000000000000
 11
95.99999999999984
 21
-121.99999999999957
 31
0.00000000000000
  0
SOLID
  5
2E6
330
30
100
AcDbEntity
  8
+ Zeichnungen 5
 62
     7
100
AcDbTrace
 10
88.99999999999986
 20
-121.19999999999949
 30
0.00000000000000
 11
88.99999999999986
 21
-121.99999999999966
 31
0.00000000000000
 12
83.99999999999987
 22
-121.19999999999949
 32
0.00000000000000
 13
83.99999999999987
 23
-121.99999999999966
 33
0.00000000000000
  0
LINE
  5
2E7
330
30
100
AcDbEntity
  8
+ Zeichnungen 5
  6
CONTINUOUS
 62
     7
370
    18
100
AcDbLine
 10
88.99999999999986
 20
-121.19999999999966
 30
0.00000000000000
 11
88.99999999999986
 21
-121.99999999999957
 31
0.00000000000000
  0
LINE
  5
2E8
330
30
100
AcDbEntity
  8
+ Zeichnungen 5
  6
CONTINUOUS
 62
     7
370
    18
100
AcDbLine
 10
83.99999999999987
 20
-121.19999999999966
 30
0.00000000000000
 11
83.99999999999987
 21
-121.99999999999957
 31
0.00000000000000
  0
SOLID
  5
2E9
330
30
100
AcDbEntity
  8
+ Zeichnungen 5
 62
     7
100
AcDbTrace
 10
76.99999999999972
 20
-121.19999999999949
 30
0.00000000000000
 11
76.99999999999972
 21
-121.99999999999966
 31
0.00000000000000
 12
71.99999999999973
 22
-121.19999999999949
 32
0.00000000000000
 13
71.99999999999973
 23
-121.99999999999966
 33
0.00000000000000
  0
LINE
  5
2EA
330
30
100
AcDbEntity
  8
+ Zeichnungen 5
  6
CONTINUOUS
 62
     7
370
    18
100
AcDbLine
 10
76.99999999999972
 20
-121.19999999999966
 30
0.00000000000000
 11
76.99999999999972
 21
-121.99999999999957
 31
0.00000000000000
  0
LINE
  5
2EB
330
30
100
AcDbEntity
  8
+ Zeichnungen 5
  6
CONTINUOUS
 62
     7
370
    18
100
AcDbLine
 10
71.99999999999973
 20
-121.19999999999966
 30
0.00000000000000
 11
71.99999999999973
 21
-121.99999999999957
 31
0.00000000000000
  0
SOLID
  5
2EC
330
30
100
AcDbEntity
  8
+ Zeichnungen 5
 62
     7
100
AcDbTrace
 10
64.99999999999972
 20
-121.19999999999949
 30
0.00000000000000
 11
64.99999999999972
 21
-121.99999999999966
 31
0.00000000000000
 12
59.99999999999971
 22
-121.19999999999949
 32
0.00000000000000
 13
59.99999999999971
 23
-121.99999999999966
 33
0.00000000000000
  0
LINE
  5
2ED
330
30
100
AcDbEntity
  8
+ Zeichnungen 5
  6
CONTINUOUS
 62
     7
370
    18
100
AcDbLine
 10
64.99999999999972
 20
-121.19999999999966
 30
0.00000000000000
 11
64.99999999999972
 21
-121.99999999999957
 31
0.00000000000000
  0
LINE
  5
2EE
330
30
100
AcDbEntity
  8
+ Zeichnungen 5
  6
CONTINUOUS
 62
     7
370
    18
100
AcDbLine
 10
59.99999999999971
 20
-121.19999999999966
 30
0.00000000000000
 11
59.99999999999971
 21
-121.99999999999957
 31
0.00000000000000
  0
SOLID
  5
2EF
330
30
100
AcDbEntity
  8
+ Zeichnungen 5
 62
     7
100
AcDbTrace
 10
52.99999999999973
 20
-121.19999999999949
 30
0.00000000000000
 11
52.99999999999973
 21
-121.99999999999966
 31
0.00000000000000
 12
47.99999999999974
 22
-121.19999999999949
 32
0.00000000000000
 13
47.99999999999974
 23
-121.99999999999966
 33
0.00000000000000
  0
LINE
  5
2F0
330
30
100
AcDbEntity
  8
+ Zeichnungen 5
  6
CONTINUOUS
 62
     7
370
    18
100
AcDbLine
 10
52.99999999999973
 20
-121.19999999999966
 30
0.00000000000000
 11
52.99999999999973
 21
-121.99999999999957
 31
0.00000000000000
  0
LINE
  5
2F1
330
30
100
AcDbEntity
  8
+ Zeichnungen 5
  6
CONTINUOUS
 62
     7
370
    18
100
AcDbLine
 10
47.99999999999974
 20
-121.19999999999966
 30
0.00000000000000
 11
47.99999999999974
 21
-121.99999999999957
 31
0.00000000000000
  0
SOLID
  5
2F2
330
30
100
AcDbEntity
  8
+ Zeichnungen 5
 62
     7
100
AcDbTrace
 10
40.99999999999976
 20
-121.19999999999949
 30
0.00000000000000
 11
40.99999999999976
 21
-121.99999999999966
 31
0.00000000000000
 12
35.99999999999977
 22
-121.19999999999949
 32
0.00000000000000
 13
35.99999999999977
 23
-121.99999999999966
 33
0.00000000000000
  0
LINE
  5
2F3
330
30
100
AcDbEntity
  8
+ Zeichnungen 5
  6
CONTINUOUS
 62
     7
370
    18
100
AcDbLine
 10
40.99999999999976
 20
-121.19999999999966
 30
0.00000000000000
 11
40.99999999999976
 21
-121.99999999999957
 31
0.00000000000000
  0
LINE
  5
2F4
330
30
100
AcDbEntity
  8
+ Zeichnungen 5
  6
CONTINUOUS
 62
     7
370
    18
100
AcDbLine
 10
35.99999999999977
 20
-121.19999999999966
 30
0.00000000000000
 11
35.99999999999977
 21
-121.99999999999957
 31
0.00000000000000
  0
SOLID
  5
2F5
330
30
100
AcDbEntity
  8
+ Zeichnungen 5
 62
     7
100
AcDbTrace
 10
34.80000000000035
 20
-118.79999999999967
 30
0.00000000000000
 11
34.00000000000016
 21
-118.79999999999967
 31
0.00000000000000
 12
34.80000000000035
 22
-113.79999999999967
 32
0.00000000000000
 13
34.00000000000016
 23
-113.79999999999967
 33
0.00000000000000
  0
LINE
  5
2F6
330
30
100
AcDbEntity
  8
+ Zeichnungen 5
  6
CONTINUOUS
 62
     7
370
    18
100
AcDbLine
 10
34.80000000000016
 20
-118.79999999999967
 30
0.00000000000000
 11
34.00000000000025
 21
-118.79999999999967
 31
0.00000000000000
  0
LINE
  5
2F7
330
30
100
AcDbEntity
  8
+ Zeichnungen 5
  6
CONTINUOUS
 62
     7
370
    18
100
AcDbLine
 10
34.80000000000016
 20
-113.79999999999967
 30
0.00000000000000
 11
34.00000000000025
 21
-113.79999999999967
 31
0.00000000000000
  0
SOLID
  5
2F8
330
30
100
AcDbEntity
  8
+ Zeichnungen 5
 62
     7
100
AcDbTrace
 10
34.80000000000033
 20
-110.79999999999966
 30
0.00000000000000
 11
34.00000000000016
 21
-110.79999999999966
 31
0.00000000000000
 12
34.80000000000033
 22
-105.79999999999967
 32
0.00000000000000
 13
34.00000000000016
 23
-105.79999999999967
 33
0.00000000000000
  0
LINE
  5
2F9
330
30
100
AcDbEntity
  8
+ Zeichnungen 5
  6
CONTINUOUS
 62
     7
370
    18
100
AcDbLine
 10
34.80000000000015
 20
-110.79999999999966
 30
0.00000000000000
 11
34.00000000000024
 21
-110.79999999999966
 31
0.00000000000000
  0
LINE
  5
2FA
330
30
100
AcDbEntity
  8
+ Zeichnungen 5
  6
CONTINUOUS
 62
     7
370
    18
100
AcDbLine
 10
34.80000000000015
 20
-105.79999999999967
 30
0.00000000000000
 11
34.00000000000024
 21
-105.79999999999967
 31
0.00000000000000
  0
SOLID
  5
2FB
330
30
100
AcDbEntity
  8
+ Zeichnungen 5
 62
     7
100
AcDbTrace
 10
30.19999999999941
 20
-110.79999999999966
 30
0.00000000000000
 11
30.99999999999958
 21
-110.79999999999966
 31
0.00000000000000
 12
30.19999999999941
 22
-105.79999999999967
 32
0.00000000000000
 13
30.99999999999958
 23
-105.79999999999967
 33
0.00000000000000
  0
LINE
  5
2FC
330
30
100
AcDbEntity
  8
+ Zeichnungen 5
  6
CONTINUOUS
 62
     7
370
    18
100
AcDbLine
 10
30.99999999999950
 20
-110.79999999999966
 30
0.00000000000000
 11
30.19999999999958
 21
-110.79999999999966
 31
0.00000000000000
  0
LINE
  5
2FD
330
30
100
AcDbEntity
  8
+ Zeichnungen 5
  6
CONTINUOUS
 62
     7
370
    18
100
AcDbLine
 10
30.99999999999950
 20
-105.79999999999967
 30
0.00000000000000
 11
30.19999999999958
 21
-105.79999999999967
 31
0.00000000000000
  0
INSERT
  5
39
330
30
100
AcDbEntity
  8
+ Zeichnungen 5
 62
     7
370
    25
100
AcDbBlockReference
  2
*U8
 10
0.00000000000000
 20
0.00000000000000
 30
0.00000000000000
  0
INSERT
  5
3A
330
30
100
AcDbEntity
  8
+ Zeichnungen 5
 62
     5
370
    25
100
AcDbBlockReference
  2
*U9
 10
0.00000000000000
 20
0.00000000000000
 30
0.00000000000000
  0
INSERT
  5
3B
330
30
100
AcDbEntity
  8
+ Zeichnungen 5
 62
     5
370
    25
100
AcDbBlockReference
  2
*U10
 10
0.00000000000000
 20
0.00000000000000
 30
0.00000000000000
  0
INSERT
  5
3C
330
30
100
AcDbEntity
  8
+ Zeichnungen 5
 62
     5
370
    25
100
AcDbBlockReference
  2
*U11
 10
0.00000000000000
 20
0.00000000000000
 30
0.00000000000000
  0
INSERT
  5
3D
330
30
100
AcDbEntity
  8
+ Zeichnungen 5
 62
     5
370
    25
100
AcDbBlockReference
  2
*U12
 10
0.00000000000000
 20
0.00000000000000
 30
0.00000000000000
  0
INSERT
  5
3E
330
30
100
AcDbEntity
  8
+ Zeichnungen 5
 62
     5
370
    25
100
AcDbBlockReference
  2
*U13
 10
0.00000000000000
 20
0.00000000000000
 30
0.00000000000000
  0
INSERT
  5
3F
330
30
100
AcDbEntity
  8
+ Zeichnungen 5
 62
     7
370
    25
100
AcDbBlockReference
  2
*U14
 10
0.00000000000000
 20
0.00000000000000
 30
0.00000000000000
  0
INSERT
  5
40
330
30
100
AcDbEntity
  8
+ Zeichnungen 5
 62
     7
370
    25
100
AcDbBlockReference
  2
*U15
 10
0.00000000000000
 20
0.00000000000000
 30
0.00000000000000
  0
MTEXT
  5
2FE
330
30
100
AcDbEntity
  8
Planrahmen
 62
     7
370
    50
100
AcDbMText
 10
24.99999999999996
 20
-10.00000000000001
 30
0.00000000000000
 40
5.00000000000000
 41
0.00000000000000
 71
     1
 72
     1
  1
\fArial|b0|i0;Detail DA-03.1\P\H0.7x;Ortgang mit Dämmschale für Ringanker DSR 365
 11
1.00000000000000
 21
0.00000000000000
 31
0.00000000000000
 73
     1
 44
1.00000000000000
  0
LINE
  5
2FF
330
30
100
AcDbEntity
  8
+ Zeichnungen 5
  6
CONTINUOUS
 62
     7
370
    18
100
AcDbLine
 10
54.99999999999999
 20
-240.39999999999986
 30
0.00000000000000
 11
127.99999999999964
 21
-240.39999999999986
 31
0.00000000000000
  0
LINE
  5
300
330
30
100
AcDbEntity
  8
+ Zeichnungen 5
  6
CONTINUOUS
 62
     7
370
    18
100
AcDbLine
 10
54.99999999999999
 20
-240.59999999999977
 30
0.00000000000000
 11
127.99999999999964
 21
-240.59999999999977
 31
0.00000000000000
  0
INSERT
  5
41
330
30
100
AcDbEntity
  8
+ Zeichnungen 5
 62
     7
370
    25
100
AcDbBlockReference
  2
*D1
 10
0.00000000000000
 20
0.00000000000000
 30
0.00000000000000
  0
INSERT
  5
42
330
30
100
AcDbEntity
  8
+ Zeichnungen 5
 62
     7
370
    25
100
AcDbBlockReference
  2
*D2
 10
0.00000000000000
 20
0.00000000000000
 30
0.00000000000000
  0
INSERT
  5
43
330
30
100
AcDbEntity
  8
+ Zeichnungen 5
 62
     7
370
    25
100
AcDbBlockReference
  2
*D3
 10
0.00000000000000
 20
0.00000000000000
 30
0.00000000000000
  0
INSERT
  5
44
330
30
100
AcDbEntity
  8
+ Zeichnungen 5
 62
     7
370
    25
100
AcDbBlockReference
  2
*D4
 10
0.00000000000000
 20
0.00000000000000
 30
0.00000000000000
  0
LINE
  5
301
330
30
100
AcDbEntity
  8
+ Zeichnungen 5
  6
CONTINUOUS
 62
     7
370
    18
100
AcDbLine
 10
49.99999999999955
 20
-144.88675134594811
 30
0.00000000000000
 11
54.99999999999999
 21
-141.99999999999977
 31
0.00000000000000
  0
ARC
  5
302
330
30
100
AcDbEntity
  8
+ Zeichnungen 5
  6
CONTINUOUS
 62
     7
370
    18
100
AcDbCircle
 10
48.09453659557889
 20
-143.44337567297393
 30
0.00000000000000
 40
2.39042341833409
100
AcDbArc
 50
322.85631684725780
 51
37.14368315274260
  0
MTEXT
  5
303
330
30
100
AcDbEntity
  8
+ Zeichnungen 5
 62
     7
370
    25
100
AcDbMText
 10
25.00000000000013
 20
-79.99999999999963
 30
0.00000000000000
 40
2.50000000000000
 41
0.00000000000000
 71
     7
 72
     1
  1
\fArial|b0|i0;Ausführung entspricht DIN 4108 Beiblatt 2 [2019-06]\PDetail Nr. 310; Kategorie B
 11
1.00000000000000
 21
0.00000000000000
 31
0.00000000000000
 73
     1
 44
1.00000000000000
  0
INSERT
  5
45
330
30
100
AcDbEntity
  8
+ Zeichnungen 5
 62
     5
370
    25
100
AcDbBlockReference
  2
*U16
 10
0.00000000000000
 20
0.00000000000000
 30
0.00000000000000
  0
ARC
  5
304
330
30
100
AcDbEntity
  8
+ Zeichnungen 5
  6
CONTINUOUS
 62
     7
370
    18
100
AcDbCircle
 10
135.80000000000001
 20
-171.80000000000001
 30
0.00000000000000
 40
2.19999999999945
100
AcDbArc
 50
225.00000000000134
 51
270.00000000000000
  0
LINE
  5
305
330
30
100
AcDbEntity
  8
+ Zeichnungen 5
  6
CONTINUOUS
 62
     7
370
    18
100
AcDbLine
 10
134.24436508139001
 20
-173.35563491861006
 30
0.00000000000000
 11
131.93696395266056
 21
-171.04823378988061
 31
0.00000000000000
  0
LINE
  5
306
330
30
100
AcDbEntity
  8
+ Zeichnungen 5
  6
CONTINUOUS
 62
     7
370
    18
100
AcDbLine
 10
133.73725830020322
 20
-173.97989898732175
 30
0.00000000000000
 11
131.37127852771135
 21
-171.61391921482993
 31
0.00000000000000
  0
ARC
  5
307
330
30
100
AcDbEntity
  8
+ Zeichnungen 5
  6
CONTINUOUS
 62
     7
370
    18
100
AcDbCircle
 10
130.52275039028751
 20
-172.46244735225375
 30
0.00000000000000
 40
1.20000000000000
100
AcDbArc
 50
44.99999999999926
 51
180.00000000000000
  0
LINE
  5
308
330
30
100
AcDbEntity
  8
+ Zeichnungen 5
  6
CONTINUOUS
 62
     7
370
    18
100
AcDbLine
 10
129.32275039028750
 20
-178.00000000000003
 30
0.00000000000000
 11
129.32275039028750
 21
-172.46244735225375
 31
0.00000000000000
  0
LINE
  5
309
330
30
100
AcDbEntity
  8
+ Zeichnungen 5
  6
CONTINUOUS
 62
     7
370
    18
100
AcDbLine
 10
129.32275039028750
 20
-178.00000000000003
 30
0.00000000000000
 11
128.52275039028754
 21
-178.00000000000003
 31
0.00000000000000
  0
LINE
  5
30A
330
30
100
AcDbEntity
  8
+ Zeichnungen 5
  6
CONTINUOUS
 62
     7
370
    18
100
AcDbLine
 10
130.99999999999972
 20
-179.40000000000003
 30
0.00000000000000
 11
129.66865334794707
 21
-178.63134665205271
 31
0.00000000000000
  0
LINE
  5
30B
330
30
100
AcDbEntity
  8
+ Zeichnungen 5
  6
CONTINUOUS
 62
     7
370
    18
100
AcDbLine
 10
133.60337783431123
 20
-172.71464767153128
 30
0.00000000000000
 11
133.03769240936194
 21
-173.28033309648049
 31
0.00000000000000
  0
LINE
  5
30C
330
30
100
AcDbEntity
  8
+ Zeichnungen 5
  6
CONTINUOUS
 62
     7
370
    18
100
AcDbLine
 10
130.27209724929955
 20
-171.28891720653402
 30
0.00000000000000
 11
130.10499515530759
 21
-170.50656377605424
 31
0.00000000000000
  0
LINE
  5
30D
330
30
100
AcDbEntity
  8
+ Zeichnungen 5
  6
CONTINUOUS
 62
     7
370
    18
100
AcDbLine
 10
129.32275039028752
 20
-174.28711484863328
 30
0.00000000000000
 11
128.52275039028751
 21
-174.28711484863325
 31
0.00000000000000
  0
LINE
  5
30E
330
30
100
AcDbEntity
  8
+ Zeichnungen 5
  6
CONTINUOUS
 62
     7
370
    18
100
AcDbLine
 10
132.99999999999983
 20
-183.33999999999983
 30
0.00000000000000
 11
132.99999999999983
 21
-180.83999999999978
 31
0.00000000000000
  0
LWPOLYLINE
  5
30F
330
30
100
AcDbEntity
  8
+ Zeichnungen 5
  6
CONTINUOUS
 62
     7
370
    25
100
AcDbPolyline
 90
        4
 70
   129
 10
145.99999999999994
 20
-180.79999999999967
 10
158.00000000000003
 20
-180.79999999999967
 10
158.00000000000003
 20
-174.79999999999970
 10
145.99999999999994
 20
-174.79999999999970
  0
LINE
  5
310
330
30
100
AcDbEntity
  8
+ Zeichnungen 5
  6
CONTINUOUS
 62
     7
370
    18
100
AcDbLine
 10
145.99999999999994
 20
-180.79999999999967
 30
0.00000000000000
 11
158.00000000000003
 21
-174.79999999999995
 31
0.00000000000000
  0
LINE
  5
311
330
30
100
AcDbEntity
  8
+ Zeichnungen 5
  6
CONTINUOUS
 62
     7
370
    18
100
AcDbLine
 10
158.00000000000003
 20
-180.79999999999967
 30
0.00000000000000
 11
145.99999999999994
 21
-174.79999999999995
 31
0.00000000000000
  0
INSERT
  5
46
330
30
100
AcDbEntity
  8
+ Zeichnungen 5
 62
     7
370
    25
100
AcDbBlockReference
  2
*U17
 10
0.00000000000000
 20
0.00000000000000
 30
0.00000000000000
  0
INSERT
  5
47
330
30
100
AcDbEntity
  8
+ Zeichnungen 5
 62
     7
370
    25
100
AcDbBlockReference
  2
*U18
 10
0.00000000000000
 20
0.00000000000000
 30
0.00000000000000
  0
INSERT
  5
48
330
30
100
AcDbEntity
  8
Planrahmen
 62
     5
370
    25
100
AcDbBlockReference
  2
*U19
 10
0.00000000000000
 20
0.00000000000000
 30
0.00000000000000
  0
MTEXT
  5
312
330
30
100
AcDbEntity
  8
Planrahmen
 62
     7
370
    25
100
AcDbMText
 10
25.00000000000010
 20
-270.00000000000000
 30
0.00000000000000
 40
2.50000000000000
 41
0.00000000000000
 71
     1
 72
     1
  3
\fArial Narrow|b0|i0;Wir übernehmen keine Haftung für die Vollständigkeit und Eignung der abgebildeten Darstellungen an konkreten Objekten. Die projektbezogene\PAusführbarkeit der Details muss in jedem Fall vom jeweiligen Fachplaner/Architekten geprü
  1
ft werden.
 11
1.00000000000000
 21
0.00000000000000
 31
0.00000000000000
 73
     1
 44
1.00000000000000
  0
ENDSEC
  0
SECTION
  2
OBJECTS
  0
DICTIONARY
  5
313
330
0
100
AcDbDictionary
281
     1
  3
ACAD_GROUP
350
314
  3
ACAD_PLOTSTYLENAME
350
315
  3
ACAD_MLINESTYLE
350
316
  3
ACAD_LAYOUT
350
317
  0
DICTIONARY
  5
314
102
{ACAD_REACTORS
330
313
102
}
330
313
100
AcDbDictionary
281
     1
  0
ACDBDICTIONARYWDFLT
  5
315
102
{ACAD_REACTORS
330
313
102
}
330
313
100
AcDbDictionary
281
     1
  3
Normal
350
1
100
AcDbDictionaryWithDefault
340
1
  0
DICTIONARY
  5
316
102
{ACAD_REACTORS
330
313
102
}
330
313
100
AcDbDictionary
281
     1
  3
STANDARD
350
318
  0
DICTIONARY
  5
317
102
{ACAD_REACTORS
330
313
102
}
330
313
100
AcDbDictionary
281
     1
  0
ACDBPLACEHOLDER
  5
1
102
{ACAD_REACTORS
330
315
102
}
330
315
  0
MLINESTYLE
  5
318
102
{ACAD_REACTORS
330
316
102
}
330
316
100
AcDbMlineStyle
  2
STANDARD
 70
     0
  3

 62
   256
 51
90.00000000000000
 52
90.00000000000000
 71
     2
 49
0.50000000000000
 62
   256
  6
BYLAYER
 49
-0.50000000000000
 62
   256
  6
BYLAYER
  0
ENDSEC
  0
EOF
