  0
SECTION
  2
HEADER
  9
$ACADVER
  1
AC1015
  9
$INSBASE
 10
117.49999999999999
 20
-129.91329704510085
 30
0.00000000000000
  9
$EXTMIN
 10
23.14999999999997
 20
-293.02486003110369
 30
0.00000000000000
  9
$EXTMAX
 10
211.84999999999999
 20
33.19826594090200
 30
0.00000000000000
  9
$LTSCALE
 40
1.00000000000000
  9
$CLAYER
  8
# Zeichnungen 10
  9
$TDCREATE
 40
2459079.60023148130000
  9
$TDINDWG
 40
0.01307848947685
  9
$HANDSEED
  5
FF0000
  0
ENDSEC
  0
SECTION
  2
CLASSES
  0
CLASS
  1
ACDBDICTIONARYWDFLT
  2
AcDbDictionaryWithDefault
  3
AutoCAD 2000
 90
        0
280
     0
281
     0
  0
CLASS
  1
ACDBPLACEHOLDER
  2
AcDbPlaceHolder
  3
AutoCAD 2000
 90
        0
280
     0
281
     0
  0
ENDSEC
  0
SECTION
  2
TABLES
  0
TABLE
  2
VPORT
  5
2
330
0
100
AcDbSymbolTable
 70
     0
  0
ENDTAB
  0
TABLE
  2
LTYPE
  5
3
330
0
100
AcDbSymbolTable
 70
     8
  0
LTYPE
  5
4
330
3
100
AcDbSymbolTableRecord
100
AcDbLinetypeTableRecord
  2
BYBLOCK
 70
     0
  3

 72
    65
 73
     0
 40
0.00000000000000
  0
LTYPE
  5
5
330
3
100
AcDbSymbolTableRecord
100
AcDbLinetypeTableRecord
  2
BYLAYER
 70
     0
  3

 72
    65
 73
     0
 40
0.00000000000000
  0
LTYPE
  5
6
330
3
100
AcDbSymbolTableRecord
100
AcDbLinetypeTableRecord
  2
CONTINUOUS
 70
     0
  3
Ausgezogene Linie
 72
    65
 73
     0
 40
0.00000000000000
  0
LTYPE
  5
7
330
3
100
AcDbSymbolTableRecord
100
AcDbLinetypeTableRecord
  2
DC_VERDECKT
 70
     0
  3
_ _ _ _ _ _ _ _ _ _
 72
    65
 73
     2
 40
7.00000000000000
 49
4.66900000000000
 74
     0
 49
-2.33100000000000
 74
     0
  0
LTYPE
  5
8
330
3
100
AcDbSymbolTableRecord
100
AcDbLinetypeTableRecord
  2
DC_GEPUNKTET
 70
     0
  3
...................
 72
    65
 73
     2
 40
2.00000000000000
 49
0.50000000000000
 74
     0
 49
-1.50000000000000
 74
     0
  0
LTYPE
  5
9
330
3
100
AcDbSymbolTableRecord
100
AcDbLinetypeTableRecord
  2
DC_MITTELLINIE
 70
     0
  3
____ _ ____ _ ____ 
 72
    65
 73
     4
 40
20.00000000000000
 49
15.00000000000000
 74
     0
 49
-2.00000000000000
 74
     0
 49
1.00000000000000
 74
     0
 49
-2.00000000000000
 74
     0
  0
LTYPE
  5
A
330
3
100
AcDbSymbolTableRecord
100
AcDbLinetypeTableRecord
  2
DC_PHANTOM
 70
     0
  3
_______ _ _ _______
 72
    65
 73
     6
 40
25.00000000000000
 49
17.00000000000000
 74
     0
 49
-2.00000000000000
 74
     0
 49
1.00000000000000
 74
     0
 49
-2.00000000000000
 74
     0
 49
1.00000000000000
 74
     0
 49
-2.00000000000000
 74
     0
  0
LTYPE
  5
B
330
3
100
AcDbSymbolTableRecord
100
AcDbLinetypeTableRecord
  2
DC_STRICHDREIPUNKTIERT
 70
     0
  3
______ _ _ _ ______
 72
    65
 73
     8
 40
28.00000000000000
 49
18.76000000000000
 74
     0
 49
-1.68000000000000
 74
     0
 49
0.84000000000000
 74
     0
 49
-1.68000000000000
 74
     0
 49
0.84000000000000
 74
     0
 49
-1.68000000000000
 74
     0
 49
0.84000000000000
 74
     0
 49
-1.68000000000000
 74
     0
  0
ENDTAB
  0
TABLE
  2
LAYER
  5
C
330
0
100
AcDbSymbolTable
 70
     3
  0
LAYER
  5
D
330
C
100
AcDbSymbolTableRecord
100
AcDbLayerTableRecord
  2
0
 70
     0
 62
     7
  6
CONTINUOUS
370
    25
390
1
  0
LAYER
  5
E
330
C
100
AcDbSymbolTableRecord
100
AcDbLayerTableRecord
  2
Planrahmen
 70
    64
 62
     7
  6
CONTINUOUS
370
    25
390
1
  0
LAYER
  5
F
330
C
100
AcDbSymbolTableRecord
100
AcDbLayerTableRecord
  2
# Zeichnungen 10
 70
    64
 62
     7
  6
CONTINUOUS
370
    25
390
1
  0
ENDTAB
  0
TABLE
  2
STYLE
  5
10
330
0
100
AcDbSymbolTable
 70
     2
  0
STYLE
  5
11
330
10
100
AcDbSymbolTableRecord
100
AcDbTextStyleTableRecord
  2
STANDARD
 70
     0
 40
0.00000000000000
 41
1.00000000000000
 50
0.00000000000000
 71
     0
 42
3.50000000000000
  3
txt
  4

  0
ENDTAB
  0
TABLE
  2
VIEW
  5
12
330
0
100
AcDbSymbolTable
 70
     0
  0
ENDTAB
  0
TABLE
  2
UCS
  5
13
330
0
100
AcDbSymbolTable
 70
     0
  0
ENDTAB
  0
TABLE
  2
APPID
  5
14
330
0
100
AcDbSymbolTable
 70
     2
  0
APPID
  5
15
330
14
100
AcDbSymbolTableRecord
100
AcDbRegAppTableRecord
  2
ACAD
 70
     0
  0
APPID
  5
16
330
14
100
AcDbSymbolTableRecord
100
AcDbRegAppTableRecord
  2
DIG-CAD
 70
     0
  0
ENDTAB
  0
TABLE
  2
DIMSTYLE
  5
17
330
0
100
AcDbSymbolTable
 70
     0
100
AcDbDimStyleTable
 71
     0
  0
ENDTAB
  0
TABLE
  2
BLOCK_RECORD
  5
2C
330
0
100
AcDbSymbolTable
 70
    20
  0
BLOCK_RECORD
  5
2D
330
2C
100
AcDbSymbolTableRecord
100
AcDbBlockTableRecord
  2
*MODEL_SPACE
340
0
  0
BLOCK_RECORD
  5
2E
330
2C
100
AcDbSymbolTableRecord
100
AcDbBlockTableRecord
  2
*PAPER_SPACE
340
0
  0
BLOCK_RECORD
  5
18
330
2C
100
AcDbSymbolTableRecord
100
AcDbBlockTableRecord
  2
*U1
340
0
102
{BLKREFS
331
2F
102
}
  0
BLOCK_RECORD
  5
19
330
2C
100
AcDbSymbolTableRecord
100
AcDbBlockTableRecord
  2
*U2
340
0
102
{BLKREFS
331
30
102
}
  0
BLOCK_RECORD
  5
1A
330
2C
100
AcDbSymbolTableRecord
100
AcDbBlockTableRecord
  2
*U3
340
0
102
{BLKREFS
331
31
102
}
  0
BLOCK_RECORD
  5
1B
330
2C
100
AcDbSymbolTableRecord
100
AcDbBlockTableRecord
  2
*U4
340
0
102
{BLKREFS
331
32
102
}
  0
BLOCK_RECORD
  5
1C
330
2C
100
AcDbSymbolTableRecord
100
AcDbBlockTableRecord
  2
*U5
340
0
102
{BLKREFS
331
33
102
}
  0
BLOCK_RECORD
  5
1D
330
2C
100
AcDbSymbolTableRecord
100
AcDbBlockTableRecord
  2
*U6
340
0
102
{BLKREFS
331
34
102
}
  0
BLOCK_RECORD
  5
1E
330
2C
100
AcDbSymbolTableRecord
100
AcDbBlockTableRecord
  2
*U7
340
0
102
{BLKREFS
331
35
102
}
  0
BLOCK_RECORD
  5
1F
330
2C
100
AcDbSymbolTableRecord
100
AcDbBlockTableRecord
  2
*D1
340
0
102
{BLKREFS
331
36
102
}
  0
BLOCK_RECORD
  5
20
330
2C
100
AcDbSymbolTableRecord
100
AcDbBlockTableRecord
  2
*D2
340
0
102
{BLKREFS
331
37
102
}
  0
BLOCK_RECORD
  5
21
330
2C
100
AcDbSymbolTableRecord
100
AcDbBlockTableRecord
  2
*D3
340
0
102
{BLKREFS
331
38
102
}
  0
BLOCK_RECORD
  5
22
330
2C
100
AcDbSymbolTableRecord
100
AcDbBlockTableRecord
  2
*D4
340
0
102
{BLKREFS
331
39
102
}
  0
BLOCK_RECORD
  5
23
330
2C
100
AcDbSymbolTableRecord
100
AcDbBlockTableRecord
  2
*D5
340
0
102
{BLKREFS
331
3A
102
}
  0
BLOCK_RECORD
  5
24
330
2C
100
AcDbSymbolTableRecord
100
AcDbBlockTableRecord
  2
*U8
340
0
102
{BLKREFS
331
3B
102
}
  0
BLOCK_RECORD
  5
25
330
2C
100
AcDbSymbolTableRecord
100
AcDbBlockTableRecord
  2
*U9
340
0
102
{BLKREFS
331
3C
102
}
  0
BLOCK_RECORD
  5
26
330
2C
100
AcDbSymbolTableRecord
100
AcDbBlockTableRecord
  2
*U10
340
0
102
{BLKREFS
331
3D
102
}
  0
BLOCK_RECORD
  5
27
330
2C
100
AcDbSymbolTableRecord
100
AcDbBlockTableRecord
  2
*U11
340
0
102
{BLKREFS
331
3E
102
}
  0
BLOCK_RECORD
  5
28
330
2C
100
AcDbSymbolTableRecord
100
AcDbBlockTableRecord
  2
*U12
340
0
102
{BLKREFS
331
3F
102
}
  0
BLOCK_RECORD
  5
29
330
2C
100
AcDbSymbolTableRecord
100
AcDbBlockTableRecord
  2
*U13
340
0
102
{BLKREFS
331
40
102
}
  0
BLOCK_RECORD
  5
2A
330
2C
100
AcDbSymbolTableRecord
100
AcDbBlockTableRecord
  2
*U14
340
0
102
{BLKREFS
331
41
102
}
  0
BLOCK_RECORD
  5
2B
330
2C
100
AcDbSymbolTableRecord
100
AcDbBlockTableRecord
  2
*U15
340
0
102
{BLKREFS
331
42
102
}
  0
ENDTAB
  0
ENDSEC
  0
SECTION
  2
BLOCKS
  0
BLOCK
  5
43
330
2D
100
AcDbEntity
  8
0
100
AcDbBlockBegin
  2
*MODEL_SPACE
 70
     0
 10
0.00000000000000
 20
0.00000000000000
 30
0.00000000000000
  3
*MODEL_SPACE
  1

  0
ENDBLK
  5
44
330
2D
100
AcDbEntity
  8
0
100
AcDbBlockEnd
  0
BLOCK
  5
45
330
2E
100
AcDbEntity
 67
     1
  8
0
100
AcDbBlockBegin
  2
*PAPER_SPACE
 70
     0
 10
0.00000000000000
 20
0.00000000000000
 30
0.00000000000000
  3
*PAPER_SPACE
  1

  0
ENDBLK
  5
46
330
2E
100
AcDbEntity
 67
     1
  8
0
100
AcDbBlockEnd
  0
BLOCK
  5
47
330
18
100
AcDbEntity
  8
0
100
AcDbBlockBegin
  2
*U1
 70
     1
 10
0.00000000000000
 20
0.00000000000000
 30
0.00000000000000
  3
*U1
  1

  0
ARC
  5
48
330
18
100
AcDbEntity
  8
# Zeichnungen 10
  6
CONTINUOUS
 62
     7
370
    18
100
AcDbCircle
 10
87.49999999999994
 20
-257.85833333333346
 30
0.00000000000000
 40
1.04166666666670
100
AcDbArc
 50
270.00000000000000
 51
14.41287397747431
  0
LINE
  5
49
330
18
100
AcDbEntity
  8
# Zeichnungen 10
  6
CONTINUOUS
 62
     7
370
    18
100
AcDbLine
 10
88.50888256013384
 20
-257.59905467184711
 30
0.00000000000000
 11
87.53278410653275
 21
-253.80094532815343
 31
0.00000000000000
  0
ARC
  5
4A
330
18
100
AcDbEntity
  8
# Zeichnungen 10
  6
CONTINUOUS
 62
     7
370
    18
100
AcDbCircle
 10
88.54166666666663
 20
-253.54166666666706
 30
0.00000000000000
 40
1.04166666666669
100
AcDbArc
 50
345.58712602252535
 51
194.41287397747399
  0
LINE
  5
4B
330
18
100
AcDbEntity
  8
# Zeichnungen 10
  6
CONTINUOUS
 62
     7
370
    18
100
AcDbLine
 10
89.55054922680048
 20
-253.80094532815343
 30
0.00000000000000
 11
88.57445077319942
 21
-257.59905467184711
 31
0.00000000000000
  0
ARC
  5
4C
330
18
100
AcDbEntity
  8
# Zeichnungen 10
  6
CONTINUOUS
 62
     7
370
    18
100
AcDbCircle
 10
89.58333333333329
 20
-257.85833333333346
 30
0.00000000000000
 40
1.04166666666667
100
AcDbArc
 50
165.58712602252569
 51
14.41287397747431
  0
LINE
  5
4D
330
18
100
AcDbEntity
  8
# Zeichnungen 10
  6
CONTINUOUS
 62
     7
370
    18
100
AcDbLine
 10
90.59221589346717
 20
-257.59905467184711
 30
0.00000000000000
 11
89.61611743986609
 21
-253.80094532815343
 31
0.00000000000000
  0
ARC
  5
4E
330
18
100
AcDbEntity
  8
# Zeichnungen 10
  6
CONTINUOUS
 62
     7
370
    18
100
AcDbCircle
 10
90.62499999999994
 20
-253.54166666666706
 30
0.00000000000000
 40
1.04166666666665
100
AcDbArc
 50
345.58712602252604
 51
194.41287397747462
  0
LINE
  5
4F
330
18
100
AcDbEntity
  8
# Zeichnungen 10
  6
CONTINUOUS
 62
     7
370
    18
100
AcDbLine
 10
91.63388256013383
 20
-253.80094532815343
 30
0.00000000000000
 11
90.65778410653275
 21
-257.59905467184711
 31
0.00000000000000
  0
ARC
  5
50
330
18
100
AcDbEntity
  8
# Zeichnungen 10
  6
CONTINUOUS
 62
     7
370
    18
100
AcDbCircle
 10
91.66666666666662
 20
-257.85833333333346
 30
0.00000000000000
 40
1.04166666666667
100
AcDbArc
 50
165.58712602252569
 51
14.41287397747431
  0
LINE
  5
51
330
18
100
AcDbEntity
  8
# Zeichnungen 10
  6
CONTINUOUS
 62
     7
370
    18
100
AcDbLine
 10
92.67554922680048
 20
-257.59905467184711
 30
0.00000000000000
 11
91.69945077319939
 21
-253.80094532815343
 31
0.00000000000000
  0
ARC
  5
52
330
18
100
AcDbEntity
  8
# Zeichnungen 10
  6
CONTINUOUS
 62
     7
370
    18
100
AcDbCircle
 10
92.70833333333329
 20
-253.54166666666706
 30
0.00000000000000
 40
1.04166666666669
100
AcDbArc
 50
345.58712602252535
 51
194.41287397747399
  0
LINE
  5
53
330
18
100
AcDbEntity
  8
# Zeichnungen 10
  6
CONTINUOUS
 62
     7
370
    18
100
AcDbLine
 10
93.71721589346714
 20
-253.80094532815343
 30
0.00000000000000
 11
92.74111743986609
 21
-257.59905467184711
 31
0.00000000000000
  0
ARC
  5
54
330
18
100
AcDbEntity
  8
# Zeichnungen 10
  6
CONTINUOUS
 62
     7
370
    18
100
AcDbCircle
 10
93.74999999999994
 20
-257.85833333333346
 30
0.00000000000000
 40
1.04166666666665
100
AcDbArc
 50
165.58712602252538
 51
14.41287397747396
  0
LINE
  5
55
330
18
100
AcDbEntity
  8
# Zeichnungen 10
  6
CONTINUOUS
 62
     7
370
    18
100
AcDbLine
 10
94.75888256013383
 20
-257.59905467184711
 30
0.00000000000000
 11
93.78278410653273
 21
-253.80094532815349
 31
0.00000000000000
  0
ARC
  5
56
330
18
100
AcDbEntity
  8
# Zeichnungen 10
  6
CONTINUOUS
 62
     7
370
    18
100
AcDbCircle
 10
94.79166666666663
 20
-253.54166666666717
 30
0.00000000000000
 40
1.04166666666669
100
AcDbArc
 50
345.58712602252535
 51
194.41287397747399
  0
LINE
  5
57
330
18
100
AcDbEntity
  8
# Zeichnungen 10
  6
CONTINUOUS
 62
     7
370
    18
100
AcDbLine
 10
95.80054922680048
 20
-253.80094532815349
 30
0.00000000000000
 11
94.82445077319942
 21
-257.59905467184711
 31
0.00000000000000
  0
ARC
  5
58
330
18
100
AcDbEntity
  8
# Zeichnungen 10
  6
CONTINUOUS
 62
     7
370
    18
100
AcDbCircle
 10
95.83333333333329
 20
-257.85833333333346
 30
0.00000000000000
 40
1.04166666666667
100
AcDbArc
 50
165.58712602252569
 51
14.41287397747431
  0
LINE
  5
59
330
18
100
AcDbEntity
  8
# Zeichnungen 10
  6
CONTINUOUS
 62
     7
370
    18
100
AcDbLine
 10
96.84221589346716
 20
-257.59905467184711
 30
0.00000000000000
 11
95.86611743986609
 21
-253.80094532815349
 31
0.00000000000000
  0
ARC
  5
5A
330
18
100
AcDbEntity
  8
# Zeichnungen 10
  6
CONTINUOUS
 62
     7
370
    18
100
AcDbCircle
 10
96.87499999999993
 20
-253.54166666666717
 30
0.00000000000000
 40
1.04166666666665
100
AcDbArc
 50
345.58712602252604
 51
194.41287397747462
  0
LINE
  5
5B
330
18
100
AcDbEntity
  8
# Zeichnungen 10
  6
CONTINUOUS
 62
     7
370
    18
100
AcDbLine
 10
97.88388256013383
 20
-253.80094532815349
 30
0.00000000000000
 11
96.90778410653273
 21
-257.59905467184711
 31
0.00000000000000
  0
ARC
  5
5C
330
18
100
AcDbEntity
  8
# Zeichnungen 10
  6
CONTINUOUS
 62
     7
370
    18
100
AcDbCircle
 10
97.91666666666662
 20
-257.85833333333346
 30
0.00000000000000
 40
1.04166666666667
100
AcDbArc
 50
165.58712602252569
 51
14.41287397747431
  0
LINE
  5
5D
330
18
100
AcDbEntity
  8
# Zeichnungen 10
  6
CONTINUOUS
 62
     7
370
    18
100
AcDbLine
 10
98.92554922680048
 20
-257.59905467184711
 30
0.00000000000000
 11
97.94945077319939
 21
-253.80094532815349
 31
0.00000000000000
  0
ARC
  5
5E
330
18
100
AcDbEntity
  8
# Zeichnungen 10
  6
CONTINUOUS
 62
     7
370
    18
100
AcDbCircle
 10
98.95833333333329
 20
-253.54166666666717
 30
0.00000000000000
 40
1.04166666666669
100
AcDbArc
 50
345.58712602252535
 51
194.41287397747399
  0
LINE
  5
5F
330
18
100
AcDbEntity
  8
# Zeichnungen 10
  6
CONTINUOUS
 62
     7
370
    18
100
AcDbLine
 10
99.96721589346713
 20
-253.80094532815349
 30
0.00000000000000
 11
98.99111743986609
 21
-257.59905467184711
 31
0.00000000000000
  0
ARC
  5
60
330
18
100
AcDbEntity
  8
# Zeichnungen 10
  6
CONTINUOUS
 62
     7
370
    18
100
AcDbCircle
 10
99.99999999999994
 20
-257.85833333333346
 30
0.00000000000000
 40
1.04166666666666
100
AcDbArc
 50
165.58712602252555
 51
14.41287397747419
  0
LINE
  5
61
330
18
100
AcDbEntity
  8
# Zeichnungen 10
  6
CONTINUOUS
 62
     7
370
    18
100
AcDbLine
 10
101.00888256013381
 20
-257.59905467184711
 30
0.00000000000000
 11
100.03278410653277
 21
-253.80094532815349
 31
0.00000000000000
  0
ARC
  5
62
330
18
100
AcDbEntity
  8
# Zeichnungen 10
  6
CONTINUOUS
 62
     7
370
    18
100
AcDbCircle
 10
101.04166666666661
 20
-253.54166666666717
 30
0.00000000000000
 40
1.04166666666665
100
AcDbArc
 50
345.58712602252604
 51
194.41287397747462
  0
LINE
  5
63
330
18
100
AcDbEntity
  8
# Zeichnungen 10
  6
CONTINUOUS
 62
     7
370
    18
100
AcDbLine
 10
102.05054922680051
 20
-253.80094532815349
 30
0.00000000000000
 11
101.07445077319942
 21
-257.59905467184711
 31
0.00000000000000
  0
ARC
  5
64
330
18
100
AcDbEntity
  8
# Zeichnungen 10
  6
CONTINUOUS
 62
     7
370
    18
100
AcDbCircle
 10
102.08333333333329
 20
-257.85833333333346
 30
0.00000000000000
 40
1.04166666666667
100
AcDbArc
 50
165.58712602252569
 51
14.41287397747431
  0
LINE
  5
65
330
18
100
AcDbEntity
  8
# Zeichnungen 10
  6
CONTINUOUS
 62
     7
370
    18
100
AcDbLine
 10
103.09221589346716
 20
-257.59905467184711
 30
0.00000000000000
 11
102.11611743986606
 21
-253.80094532815349
 31
0.00000000000000
  0
ARC
  5
66
330
18
100
AcDbEntity
  8
# Zeichnungen 10
  6
CONTINUOUS
 62
     7
370
    18
100
AcDbCircle
 10
103.12499999999997
 20
-253.54166666666717
 30
0.00000000000000
 40
1.04166666666669
100
AcDbArc
 50
345.58712602252535
 51
194.41287397747399
  0
LINE
  5
67
330
18
100
AcDbEntity
  8
# Zeichnungen 10
  6
CONTINUOUS
 62
     7
370
    18
100
AcDbLine
 10
104.13388256013381
 20
-253.80094532815349
 30
0.00000000000000
 11
103.15778410653274
 21
-257.59905467184711
 31
0.00000000000000
  0
ARC
  5
68
330
18
100
AcDbEntity
  8
# Zeichnungen 10
  6
CONTINUOUS
 62
     7
370
    18
100
AcDbCircle
 10
104.16666666666661
 20
-257.85833333333346
 30
0.00000000000000
 40
1.04166666666667
100
AcDbArc
 50
165.58712602252569
 51
14.41287397747431
  0
LINE
  5
69
330
18
100
AcDbEntity
  8
# Zeichnungen 10
  6
CONTINUOUS
 62
     7
370
    18
100
AcDbLine
 10
105.17554922680048
 20
-257.59905467184711
 30
0.00000000000000
 11
104.19945077319942
 21
-253.80094532815349
 31
0.00000000000000
  0
ARC
  5
6A
330
18
100
AcDbEntity
  8
# Zeichnungen 10
  6
CONTINUOUS
 62
     7
370
    18
100
AcDbCircle
 10
105.20833333333326
 20
-253.54166666666717
 30
0.00000000000000
 40
1.04166666666665
100
AcDbArc
 50
345.58712602252604
 51
194.41287397747462
  0
LINE
  5
6B
330
18
100
AcDbEntity
  8
# Zeichnungen 10
  6
CONTINUOUS
 62
     7
370
    18
100
AcDbLine
 10
106.21721589346717
 20
-253.80094532815349
 30
0.00000000000000
 11
105.24111743986607
 21
-257.59905467184711
 31
0.00000000000000
  0
ARC
  5
6C
330
18
100
AcDbEntity
  8
# Zeichnungen 10
  6
CONTINUOUS
 62
     7
370
    18
100
AcDbCircle
 10
106.24999999999996
 20
-257.85833333333346
 30
0.00000000000000
 40
1.04166666666669
100
AcDbArc
 50
165.58712602252601
 51
14.41287397747465
  0
LINE
  5
6D
330
18
100
AcDbEntity
  8
# Zeichnungen 10
  6
CONTINUOUS
 62
     7
370
    18
100
AcDbLine
 10
107.25888256013381
 20
-257.59905467184711
 30
0.00000000000000
 11
106.28278410653276
 21
-253.80094532815349
 31
0.00000000000000
  0
ARC
  5
6E
330
18
100
AcDbEntity
  8
# Zeichnungen 10
  6
CONTINUOUS
 62
     7
370
    18
100
AcDbCircle
 10
107.29166666666661
 20
-253.54166666666717
 30
0.00000000000000
 40
1.04166666666665
100
AcDbArc
 50
345.58712602252604
 51
194.41287397747462
  0
LINE
  5
6F
330
18
100
AcDbEntity
  8
# Zeichnungen 10
  6
CONTINUOUS
 62
     7
370
    18
100
AcDbLine
 10
108.30054922680050
 20
-253.80094532815349
 30
0.00000000000000
 11
107.32445077319940
 21
-257.59905467184711
 31
0.00000000000000
  0
ARC
  5
70
330
18
100
AcDbEntity
  8
# Zeichnungen 10
  6
CONTINUOUS
 62
     7
370
    18
100
AcDbCircle
 10
108.33333333333329
 20
-257.85833333333346
 30
0.00000000000000
 40
1.04166666666667
100
AcDbArc
 50
165.58712602252569
 51
14.41287397747431
  0
LINE
  5
71
330
18
100
AcDbEntity
  8
# Zeichnungen 10
  6
CONTINUOUS
 62
     7
370
    18
100
AcDbLine
 10
109.34221589346716
 20
-257.59905467184711
 30
0.00000000000000
 11
108.36611743986607
 21
-253.80094532815349
 31
0.00000000000000
  0
ARC
  5
72
330
18
100
AcDbEntity
  8
# Zeichnungen 10
  6
CONTINUOUS
 62
     7
370
    18
100
AcDbCircle
 10
109.37499999999996
 20
-253.54166666666717
 30
0.00000000000000
 40
1.04166666666669
100
AcDbArc
 50
345.58712602252535
 51
194.41287397747399
  0
LINE
  5
73
330
18
100
AcDbEntity
  8
# Zeichnungen 10
  6
CONTINUOUS
 62
     7
370
    18
100
AcDbLine
 10
110.38388256013381
 20
-253.80094532815349
 30
0.00000000000000
 11
109.40778410653273
 21
-257.59905467184711
 31
0.00000000000000
  0
ARC
  5
74
330
18
100
AcDbEntity
  8
# Zeichnungen 10
  6
CONTINUOUS
 62
     7
370
    18
100
AcDbCircle
 10
110.41666666666660
 20
-257.85833333333346
 30
0.00000000000000
 40
1.04166666666667
100
AcDbArc
 50
165.58712602252569
 51
14.41287397747431
  0
LINE
  5
75
330
18
100
AcDbEntity
  8
# Zeichnungen 10
  6
CONTINUOUS
 62
     7
370
    18
100
AcDbLine
 10
111.42554922680048
 20
-257.59905467184711
 30
0.00000000000000
 11
110.44945077319942
 21
-253.80094532815349
 31
0.00000000000000
  0
ARC
  5
76
330
18
100
AcDbEntity
  8
# Zeichnungen 10
  6
CONTINUOUS
 62
     7
370
    18
100
AcDbCircle
 10
111.45833333333327
 20
-253.54166666666717
 30
0.00000000000000
 40
1.04166666666665
100
AcDbArc
 50
345.58712602252604
 51
194.41287397747462
  0
LINE
  5
77
330
18
100
AcDbEntity
  8
# Zeichnungen 10
  6
CONTINUOUS
 62
     7
370
    18
100
AcDbLine
 10
112.46721589346716
 20
-253.80094532815349
 30
0.00000000000000
 11
111.49111743986606
 21
-257.59905467184711
 31
0.00000000000000
  0
ARC
  5
78
330
18
100
AcDbEntity
  8
# Zeichnungen 10
  6
CONTINUOUS
 62
     7
370
    18
100
AcDbCircle
 10
112.49999999999996
 20
-257.85833333333346
 30
0.00000000000000
 40
1.04166666666669
100
AcDbArc
 50
165.58712602252601
 51
270.00000000000034
  0
ENDBLK
  5
79
330
18
100
AcDbEntity
  8
0
100
AcDbBlockEnd
  0
BLOCK
  5
7A
330
19
100
AcDbEntity
  8
0
100
AcDbBlockBegin
  2
*U2
 70
     1
 10
0.00000000000000
 20
0.00000000000000
 30
0.00000000000000
  3
*U2
  1

  0
ARC
  5
7B
330
19
100
AcDbEntity
  8
# Zeichnungen 10
  6
CONTINUOUS
 62
     7
370
    18
100
AcDbCircle
 10
87.49999999999999
 20
-230.95833333333357
 30
0.00000000000000
 40
1.04166666666670
100
AcDbArc
 50
270.00000000000000
 51
14.41287397746959
  0
LINE
  5
7C
330
19
100
AcDbEntity
  8
# Zeichnungen 10
  6
CONTINUOUS
 62
     7
370
    18
100
AcDbLine
 10
88.50888256013384
 20
-230.69905467184725
 30
0.00000000000000
 11
87.53278410653275
 21
-226.90094532815331
 31
0.00000000000000
  0
ARC
  5
7D
330
19
100
AcDbEntity
  8
# Zeichnungen 10
  6
CONTINUOUS
 62
     7
370
    18
100
AcDbCircle
 10
88.54166666666663
 20
-226.64166666666696
 30
0.00000000000000
 40
1.04166666666667
100
AcDbArc
 50
345.58712602252604
 51
194.41287397747431
  0
LINE
  5
7E
330
19
100
AcDbEntity
  8
# Zeichnungen 10
  6
CONTINUOUS
 62
     7
370
    18
100
AcDbLine
 10
89.55054922680053
 20
-226.90094532815331
 30
0.00000000000000
 11
88.57445077319943
 21
-230.69905467184725
 31
0.00000000000000
  0
ARC
  5
7F
330
19
100
AcDbEntity
  8
# Zeichnungen 10
  6
CONTINUOUS
 62
     7
370
    18
100
AcDbCircle
 10
89.58333333333330
 20
-230.95833333333357
 30
0.00000000000000
 40
1.04166666666667
100
AcDbArc
 50
165.58712602253073
 51
14.41287397746987
  0
LINE
  5
80
330
19
100
AcDbEntity
  8
# Zeichnungen 10
  6
CONTINUOUS
 62
     7
370
    18
100
AcDbLine
 10
90.59221589346718
 20
-230.69905467184725
 30
0.00000000000000
 11
89.61611743986609
 21
-226.90094532815331
 31
0.00000000000000
  0
ARC
  5
81
330
19
100
AcDbEntity
  8
# Zeichnungen 10
  6
CONTINUOUS
 62
     7
370
    18
100
AcDbCircle
 10
90.62499999999999
 20
-226.64166666666696
 30
0.00000000000000
 40
1.04166666666669
100
AcDbArc
 50
345.58712602252569
 51
194.41287397747399
  0
LINE
  5
82
330
19
100
AcDbEntity
  8
# Zeichnungen 10
  6
CONTINUOUS
 62
     7
370
    18
100
AcDbLine
 10
91.63388256013386
 20
-226.90094532815331
 30
0.00000000000000
 11
90.65778410653276
 21
-230.69905467184725
 31
0.00000000000000
  0
ARC
  5
83
330
19
100
AcDbEntity
  8
# Zeichnungen 10
  6
CONTINUOUS
 62
     7
370
    18
100
AcDbCircle
 10
91.66666666666663
 20
-230.95833333333357
 30
0.00000000000000
 40
1.04166666666667
100
AcDbArc
 50
165.58712602253073
 51
14.41287397746987
  0
LINE
  5
84
330
19
100
AcDbEntity
  8
# Zeichnungen 10
  6
CONTINUOUS
 62
     7
370
    18
100
AcDbLine
 10
92.67554922680050
 20
-230.69905467184725
 30
0.00000000000000
 11
91.69945077319940
 21
-226.90094532815331
 31
0.00000000000000
  0
ARC
  5
85
330
19
100
AcDbEntity
  8
# Zeichnungen 10
  6
CONTINUOUS
 62
     7
370
    18
100
AcDbCircle
 10
92.70833333333329
 20
-226.64166666666696
 30
0.00000000000000
 40
1.04166666666665
100
AcDbArc
 50
345.58712602252632
 51
194.41287397747462
  0
LINE
  5
86
330
19
100
AcDbEntity
  8
# Zeichnungen 10
  6
CONTINUOUS
 62
     7
370
    18
100
AcDbLine
 10
93.71721589346718
 20
-226.90094532815331
 30
0.00000000000000
 11
92.74111743986609
 21
-230.69905467184725
 31
0.00000000000000
  0
ARC
  5
87
330
19
100
AcDbEntity
  8
# Zeichnungen 10
  6
CONTINUOUS
 62
     7
370
    18
100
AcDbCircle
 10
93.74999999999996
 20
-230.95833333333357
 30
0.00000000000000
 40
1.04166666666667
100
AcDbArc
 50
165.58712602253073
 51
14.41287397746987
  0
LINE
  5
88
330
19
100
AcDbEntity
  8
# Zeichnungen 10
  6
CONTINUOUS
 62
     7
370
    18
100
AcDbLine
 10
94.75888256013383
 20
-230.69905467184725
 30
0.00000000000000
 11
93.78278410653273
 21
-226.90094532815340
 31
0.00000000000000
  0
ARC
  5
89
330
19
100
AcDbEntity
  8
# Zeichnungen 10
  6
CONTINUOUS
 62
     7
370
    18
100
AcDbCircle
 10
94.79166666666663
 20
-226.64166666666705
 30
0.00000000000000
 40
1.04166666666667
100
AcDbArc
 50
345.58712602252581
 51
194.41287397747431
  0
LINE
  5
8A
330
19
100
AcDbEntity
  8
# Zeichnungen 10
  6
CONTINUOUS
 62
     7
370
    18
100
AcDbLine
 10
95.80054922680051
 20
-226.90094532815340
 30
0.00000000000000
 11
94.82445077319945
 21
-230.69905467184716
 31
0.00000000000000
  0
ARC
  5
8B
330
19
100
AcDbEntity
  8
# Zeichnungen 10
  6
CONTINUOUS
 62
     7
370
    18
100
AcDbCircle
 10
95.83333333333329
 20
-230.95833333333357
 30
0.00000000000000
 40
1.04166666666665
100
AcDbArc
 50
165.58712602252538
 51
14.41287397746930
  0
LINE
  5
8C
330
19
100
AcDbEntity
  8
# Zeichnungen 10
  6
CONTINUOUS
 62
     7
370
    18
100
AcDbLine
 10
96.84221589346718
 20
-230.69905467184725
 30
0.00000000000000
 11
95.86611743986609
 21
-226.90094532815340
 31
0.00000000000000
  0
ARC
  5
8D
330
19
100
AcDbEntity
  8
# Zeichnungen 10
  6
CONTINUOUS
 62
     7
370
    18
100
AcDbCircle
 10
96.87499999999999
 20
-226.64166666666705
 30
0.00000000000000
 40
1.04166666666669
100
AcDbArc
 50
345.58712602252552
 51
194.41287397747399
  0
LINE
  5
8E
330
19
100
AcDbEntity
  8
# Zeichnungen 10
  6
CONTINUOUS
 62
     7
370
    18
100
AcDbLine
 10
97.88388256013383
 20
-226.90094532815340
 30
0.00000000000000
 11
96.90778410653276
 21
-230.69905467184716
 31
0.00000000000000
  0
ARC
  5
8F
330
19
100
AcDbEntity
  8
# Zeichnungen 10
  6
CONTINUOUS
 62
     7
370
    18
100
AcDbCircle
 10
97.91666666666664
 20
-230.95833333333357
 30
0.00000000000000
 40
1.04166666666667
100
AcDbArc
 50
165.58712602252569
 51
14.41287397746959
  0
LINE
  5
90
330
19
100
AcDbEntity
  8
# Zeichnungen 10
  6
CONTINUOUS
 62
     7
370
    18
100
AcDbLine
 10
98.92554922680051
 20
-230.69905467184725
 30
0.00000000000000
 11
97.94945077319945
 21
-226.90094532815340
 31
0.00000000000000
  0
ARC
  5
91
330
19
100
AcDbEntity
  8
# Zeichnungen 10
  6
CONTINUOUS
 62
     7
370
    18
100
AcDbCircle
 10
98.95833333333331
 20
-226.64166666666705
 30
0.00000000000000
 40
1.04166666666667
100
AcDbArc
 50
345.58712602252581
 51
194.41287397747431
  0
LINE
  5
92
330
19
100
AcDbEntity
  8
# Zeichnungen 10
  6
CONTINUOUS
 62
     7
370
    18
100
AcDbLine
 10
99.96721589346718
 20
-226.90094532815340
 30
0.00000000000000
 11
98.99111743986609
 21
-230.69905467184716
 31
0.00000000000000
  0
ARC
  5
93
330
19
100
AcDbEntity
  8
# Zeichnungen 10
  6
CONTINUOUS
 62
     7
370
    18
100
AcDbCircle
 10
99.99999999999996
 20
-230.95833333333357
 30
0.00000000000000
 40
1.04166666666667
100
AcDbArc
 50
165.58712602252569
 51
14.41287397747431
  0
LINE
  5
94
330
19
100
AcDbEntity
  8
# Zeichnungen 10
  6
CONTINUOUS
 62
     7
370
    18
100
AcDbLine
 10
101.00888256013384
 20
-230.69905467184716
 30
0.00000000000000
 11
100.03278410653277
 21
-226.90094532815340
 31
0.00000000000000
  0
ARC
  5
95
330
19
100
AcDbEntity
  8
# Zeichnungen 10
  6
CONTINUOUS
 62
     7
370
    18
100
AcDbCircle
 10
101.04166666666661
 20
-226.64166666666705
 30
0.00000000000000
 40
1.04166666666665
100
AcDbArc
 50
345.58712602252604
 51
194.41287397747462
  0
LINE
  5
96
330
19
100
AcDbEntity
  8
# Zeichnungen 10
  6
CONTINUOUS
 62
     7
370
    18
100
AcDbLine
 10
102.05054922680051
 20
-226.90094532815340
 30
0.00000000000000
 11
101.07445077319942
 21
-230.69905467184716
 31
0.00000000000000
  0
ARC
  5
97
330
19
100
AcDbEntity
  8
# Zeichnungen 10
  6
CONTINUOUS
 62
     7
370
    18
100
AcDbCircle
 10
102.08333333333329
 20
-230.95833333333357
 30
0.00000000000000
 40
1.04166666666667
100
AcDbArc
 50
165.58712602252569
 51
14.41287397746959
  0
LINE
  5
98
330
19
100
AcDbEntity
  8
# Zeichnungen 10
  6
CONTINUOUS
 62
     7
370
    18
100
AcDbLine
 10
103.09221589346716
 20
-230.69905467184725
 30
0.00000000000000
 11
102.11611743986606
 21
-226.90094532815340
 31
0.00000000000000
  0
ARC
  5
99
330
19
100
AcDbEntity
  8
# Zeichnungen 10
  6
CONTINUOUS
 62
     7
370
    18
100
AcDbCircle
 10
103.12499999999997
 20
-226.64166666666705
 30
0.00000000000000
 40
1.04166666666667
100
AcDbArc
 50
345.58712602252581
 51
194.41287397747431
  0
LINE
  5
9A
330
19
100
AcDbEntity
  8
# Zeichnungen 10
  6
CONTINUOUS
 62
     7
370
    18
100
AcDbLine
 10
104.13388256013384
 20
-226.90094532815340
 30
0.00000000000000
 11
103.15778410653276
 21
-230.69905467184716
 31
0.00000000000000
  0
ARC
  5
9B
330
19
100
AcDbEntity
  8
# Zeichnungen 10
  6
CONTINUOUS
 62
     7
370
    18
100
AcDbCircle
 10
104.16666666666661
 20
-230.95833333333357
 30
0.00000000000000
 40
1.04166666666665
100
AcDbArc
 50
165.58712602252538
 51
14.41287397747396
  0
LINE
  5
9C
330
19
100
AcDbEntity
  8
# Zeichnungen 10
  6
CONTINUOUS
 62
     7
370
    18
100
AcDbLine
 10
105.17554922680050
 20
-230.69905467184716
 30
0.00000000000000
 11
104.19945077319942
 21
-226.90094532815340
 31
0.00000000000000
  0
ARC
  5
9D
330
19
100
AcDbEntity
  8
# Zeichnungen 10
  6
CONTINUOUS
 62
     7
370
    18
100
AcDbCircle
 10
105.20833333333329
 20
-226.64166666666705
 30
0.00000000000000
 40
1.04166666666667
100
AcDbArc
 50
345.58712602252587
 51
194.41287397747431
  0
LINE
  5
9E
330
19
100
AcDbEntity
  8
# Zeichnungen 10
  6
CONTINUOUS
 62
     7
370
    18
100
AcDbLine
 10
106.21721589346717
 20
-226.90094532815340
 30
0.00000000000000
 11
105.24111743986609
 21
-230.69905467184725
 31
0.00000000000000
  0
ARC
  5
9F
330
19
100
AcDbEntity
  8
# Zeichnungen 10
  6
CONTINUOUS
 62
     7
370
    18
100
AcDbCircle
 10
106.24999999999996
 20
-230.95833333333357
 30
0.00000000000000
 40
1.04166666666667
100
AcDbArc
 50
165.58712602253073
 51
14.41287397747459
  0
LINE
  5
A0
330
19
100
AcDbEntity
  8
# Zeichnungen 10
  6
CONTINUOUS
 62
     7
370
    18
100
AcDbLine
 10
107.25888256013383
 20
-230.69905467184716
 30
0.00000000000000
 11
106.28278410653276
 21
-226.90094532815340
 31
0.00000000000000
  0
ARC
  5
A1
330
19
100
AcDbEntity
  8
# Zeichnungen 10
  6
CONTINUOUS
 62
     7
370
    18
100
AcDbCircle
 10
107.29166666666661
 20
-226.64166666666705
 30
0.00000000000000
 40
1.04166666666665
100
AcDbArc
 50
345.58712602252604
 51
194.41287397747462
  0
LINE
  5
A2
330
19
100
AcDbEntity
  8
# Zeichnungen 10
  6
CONTINUOUS
 62
     7
370
    18
100
AcDbLine
 10
108.30054922680050
 20
-226.90094532815340
 30
0.00000000000000
 11
107.32445077319940
 21
-230.69905467184716
 31
0.00000000000000
  0
ARC
  5
A3
330
19
100
AcDbEntity
  8
# Zeichnungen 10
  6
CONTINUOUS
 62
     7
370
    18
100
AcDbCircle
 10
108.33333333333329
 20
-230.95833333333357
 30
0.00000000000000
 40
1.04166666666667
100
AcDbArc
 50
165.58712602252569
 51
14.41287397746959
  0
LINE
  5
A4
330
19
100
AcDbEntity
  8
# Zeichnungen 10
  6
CONTINUOUS
 62
     7
370
    18
100
AcDbLine
 10
109.34221589346716
 20
-230.69905467184725
 30
0.00000000000000
 11
108.36611743986607
 21
-226.90094532815340
 31
0.00000000000000
  0
ARC
  5
A5
330
19
100
AcDbEntity
  8
# Zeichnungen 10
  6
CONTINUOUS
 62
     7
370
    18
100
AcDbCircle
 10
109.37499999999996
 20
-226.64166666666705
 30
0.00000000000000
 40
1.04166666666667
100
AcDbArc
 50
345.58712602252581
 51
194.41287397747431
  0
LINE
  5
A6
330
19
100
AcDbEntity
  8
# Zeichnungen 10
  6
CONTINUOUS
 62
     7
370
    18
100
AcDbLine
 10
110.38388256013383
 20
-226.90094532815340
 30
0.00000000000000
 11
109.40778410653273
 21
-230.69905467184716
 31
0.00000000000000
  0
ARC
  5
A7
330
19
100
AcDbEntity
  8
# Zeichnungen 10
  6
CONTINUOUS
 62
     7
370
    18
100
AcDbCircle
 10
110.41666666666660
 20
-230.95833333333357
 30
0.00000000000000
 40
1.04166666666667
100
AcDbArc
 50
165.58712602252569
 51
14.41287397746959
  0
LINE
  5
A8
330
19
100
AcDbEntity
  8
# Zeichnungen 10
  6
CONTINUOUS
 62
     7
370
    18
100
AcDbLine
 10
111.42554922680048
 20
-230.69905467184725
 30
0.00000000000000
 11
110.44945077319942
 21
-226.90094532815340
 31
0.00000000000000
  0
ARC
  5
A9
330
19
100
AcDbEntity
  8
# Zeichnungen 10
  6
CONTINUOUS
 62
     7
370
    18
100
AcDbCircle
 10
111.45833333333331
 20
-226.64166666666705
 30
0.00000000000000
 40
1.04166666666669
100
AcDbArc
 50
345.58712602252552
 51
194.41287397747399
  0
LINE
  5
AA
330
19
100
AcDbEntity
  8
# Zeichnungen 10
  6
CONTINUOUS
 62
     7
370
    18
100
AcDbLine
 10
112.46721589346716
 20
-226.90094532815340
 30
0.00000000000000
 11
111.49111743986606
 21
-230.69905467184716
 31
0.00000000000000
  0
ARC
  5
AB
330
19
100
AcDbEntity
  8
# Zeichnungen 10
  6
CONTINUOUS
 62
     7
370
    18
100
AcDbCircle
 10
112.49999999999996
 20
-230.95833333333357
 30
0.00000000000000
 40
1.04166666666669
100
AcDbArc
 50
165.58712602252601
 51
270.00000000000034
  0
ENDBLK
  5
AC
330
19
100
AcDbEntity
  8
0
100
AcDbBlockEnd
  0
BLOCK
  5
AD
330
1A
100
AcDbEntity
  8
0
100
AcDbBlockBegin
  2
*U3
 70
     1
 10
0.00000000000000
 20
0.00000000000000
 30
0.00000000000000
  3
*U3
  1

  0
MTEXT
  5
AE
330
1A
100
AcDbEntity
  8
# Zeichnungen 10
 62
     7
370
    30
100
AcDbMText
 10
131.79999999999995
 20
-78.20000000000005
 30
0.00000000000000
 40
2.80000000000000
 41
0.00000000000000
 71
     7
 72
     1
  1
\fArial Narrow|b0|i0;Sparrenebene mit
 11
1.00000000000000
 21
0.00000000000000
 31
0.00000000000000
 73
     1
 44
1.00000000000000
  0
MTEXT
  5
AF
330
1A
100
AcDbEntity
  8
# Zeichnungen 10
 62
     7
370
    30
100
AcDbMText
 10
131.79999999999995
 20
-79.80000000000005
 30
0.00000000000000
 40
2.80000000000000
 41
0.00000000000000
 71
     1
 72
     1
  1
\fArial Narrow|b0|i0;Zwischensparrendämmung
 11
1.00000000000000
 21
0.00000000000000
 31
0.00000000000000
 73
     1
 44
1.00000000000000
  0
LINE
  5
B0
330
1A
100
AcDbEntity
  8
# Zeichnungen 10
  6
CONTINUOUS
 62
    12
370
    25
100
AcDbLine
 10
121.99999999999994
 20
-87.99999999999996
 30
0.00000000000000
 11
130.99999999999994
 21
-79.00000000000006
 31
0.00000000000000
  0
HATCH
  5
B1
330
1A
100
AcDbEntity
  8
# Zeichnungen 10
 62
    12
100
AcDbHatch
 10
0.00000000000000
 20
0.00000000000000
 30
0.00000000000000
210
0.00000000000000
220
0.00000000000000
230
1.00000000000000
  2
SOLID
 70
     1
 71
     0
 91
        1
 92
        0
 93
       16
 72
     1
 10
122.74999999999994
 20
-87.99999999999996
 11
122.69290964938340
 21
-87.71298742572614
 72
     1
 10
122.69290964938340
 20
-87.71298742572614
 11
122.53033008588986
 21
-87.46966991411004
 72
     1
 10
122.53033008588986
 20
-87.46966991411004
 11
122.28701257427375
 21
-87.30709035061648
 72
     1
 10
122.28701257427375
 20
-87.30709035061648
 11
121.99999999999994
 21
-87.24999999999996
 72
     1
 10
121.99999999999994
 20
-87.24999999999996
 11
121.71298742572611
 21
-87.30709035061648
 72
     1
 10
121.71298742572611
 20
-87.30709035061648
 11
121.46966991411001
 21
-87.46966991411004
 72
     1
 10
121.46966991411001
 20
-87.46966991411004
 11
121.30709035061648
 21
-87.71298742572614
 72
     1
 10
121.30709035061648
 20
-87.71298742572614
 11
121.24999999999993
 21
-87.99999999999996
 72
     1
 10
121.24999999999993
 20
-87.99999999999996
 11
121.30709035061648
 21
-88.28701257427376
 72
     1
 10
121.30709035061648
 20
-88.28701257427376
 11
121.46966991411001
 21
-88.53033008588986
 72
     1
 10
121.46966991411001
 20
-88.53033008588986
 11
121.71298742572611
 21
-88.69290964938342
 72
     1
 10
121.71298742572611
 20
-88.69290964938342
 11
121.99999999999994
 21
-88.74999999999994
 72
     1
 10
121.99999999999994
 20
-88.74999999999994
 11
122.28701257427375
 21
-88.69290964938342
 72
     1
 10
122.28701257427375
 20
-88.69290964938342
 11
122.53033008588986
 21
-88.53033008588986
 72
     1
 10
122.53033008588986
 20
-88.53033008588986
 11
122.69290964938340
 21
-88.28701257427376
 72
     1
 10
122.69290964938340
 20
-88.28701257427376
 11
122.74999999999994
 21
-87.99999999999996
 97
        0
 75
     0
 76
     0
 98
        1
 10
0.00000000000000
 20
0.00000000000000
  0
LWPOLYLINE
  5
B2
330
1A
100
AcDbEntity
  8
# Zeichnungen 10
  6
CONTINUOUS
 62
    12
370
    25
100
AcDbPolyline
 90
       17
 70
   128
 10
122.74999999999994
 20
-87.99999999999996
 10
122.69290964938340
 20
-87.71298742572614
 10
122.53033008588986
 20
-87.46966991411004
 10
122.28701257427375
 20
-87.30709035061648
 10
121.99999999999994
 20
-87.24999999999996
 10
121.71298742572611
 20
-87.30709035061648
 10
121.46966991411001
 20
-87.46966991411004
 10
121.30709035061648
 20
-87.71298742572614
 10
121.24999999999993
 20
-87.99999999999996
 10
121.30709035061648
 20
-88.28701257427376
 10
121.46966991411001
 20
-88.53033008588986
 10
121.71298742572611
 20
-88.69290964938342
 10
121.99999999999994
 20
-88.74999999999994
 10
122.28701257427375
 20
-88.69290964938342
 10
122.53033008588986
 20
-88.53033008588986
 10
122.69290964938340
 20
-88.28701257427376
 10
122.74999999999994
 20
-87.99999999999996
  0
LINE
  5
B3
330
1A
100
AcDbEntity
  8
# Zeichnungen 10
  6
CONTINUOUS
 62
    12
370
    25
100
AcDbLine
 10
130.99999999999994
 20
-79.00000000000006
 30
0.00000000000000
 11
171.15167914074647
 21
-79.00000000000006
 31
0.00000000000000
  0
ENDBLK
  5
B4
330
1A
100
AcDbEntity
  8
0
100
AcDbBlockEnd
  0
BLOCK
  5
B5
330
1B
100
AcDbEntity
  8
0
100
AcDbBlockBegin
  2
*U4
 70
     1
 10
0.00000000000000
 20
0.00000000000000
 30
0.00000000000000
  3
*U4
  1

  0
MTEXT
  5
B6
330
1B
100
AcDbEntity
  8
# Zeichnungen 10
 62
     7
370
    30
100
AcDbMText
 10
154.99999999999997
 20
-96.19999999999993
 30
0.00000000000000
 40
2.80000000000000
 41
0.00000000000000
 71
     7
 72
     1
  1
\fArial Narrow|b0|i0;Fußschwelle
 11
1.00000000000000
 21
0.00000000000000
 31
0.00000000000000
 73
     1
 44
1.00000000000000
  0
LINE
  5
B7
330
1B
100
AcDbEntity
  8
# Zeichnungen 10
  6
CONTINUOUS
 62
    12
370
    25
100
AcDbLine
 10
142.14831460674145
 20
-104.24269662921337
 30
0.00000000000000
 11
153.99999999999997
 21
-96.99999999999993
 31
0.00000000000000
  0
HATCH
  5
B8
330
1B
100
AcDbEntity
  8
# Zeichnungen 10
 62
    12
100
AcDbHatch
 10
0.00000000000000
 20
0.00000000000000
 30
0.00000000000000
210
0.00000000000000
220
0.00000000000000
230
1.00000000000000
  2
SOLID
 70
     1
 71
     0
 91
        1
 92
        0
 93
       16
 72
     1
 10
142.89831460674148
 20
-104.24269662921337
 11
142.84122425612495
 21
-103.95568405493955
 72
     1
 10
142.84122425612495
 20
-103.95568405493955
 11
142.67864469263139
 21
-103.71236654332345
 72
     1
 10
142.67864469263139
 20
-103.71236654332345
 11
142.43532718101528
 21
-103.54978697982992
 72
     1
 10
142.43532718101528
 20
-103.54978697982992
 11
142.14831460674145
 21
-103.49269662921337
 72
     1
 10
142.14831460674145
 20
-103.49269662921337
 11
141.86130203246765
 21
-103.54978697982992
 72
     1
 10
141.86130203246765
 20
-103.54978697982992
 11
141.61798452085156
 21
-103.71236654332345
 72
     1
 10
141.61798452085156
 20
-103.71236654332345
 11
141.45540495735801
 21
-103.95568405493955
 72
     1
 10
141.45540495735801
 20
-103.95568405493955
 11
141.39831460674145
 21
-104.24269662921337
 72
     1
 10
141.39831460674145
 20
-104.24269662921337
 11
141.45540495735801
 21
-104.52970920348720
 72
     1
 10
141.45540495735801
 20
-104.52970920348720
 11
141.61798452085156
 21
-104.77302671510330
 72
     1
 10
141.61798452085156
 20
-104.77302671510330
 11
141.86130203246765
 21
-104.93560627859684
 72
     1
 10
141.86130203246765
 20
-104.93560627859684
 11
142.14831460674145
 21
-104.99269662921338
 72
     1
 10
142.14831460674145
 20
-104.99269662921338
 11
142.43532718101528
 21
-104.93560627859684
 72
     1
 10
142.43532718101528
 20
-104.93560627859684
 11
142.67864469263139
 21
-104.77302671510330
 72
     1
 10
142.67864469263139
 20
-104.77302671510330
 11
142.84122425612495
 21
-104.52970920348720
 72
     1
 10
142.84122425612495
 20
-104.52970920348720
 11
142.89831460674148
 21
-104.24269662921337
 97
        0
 75
     0
 76
     0
 98
        1
 10
0.00000000000000
 20
0.00000000000000
  0
LWPOLYLINE
  5
B9
330
1B
100
AcDbEntity
  8
# Zeichnungen 10
  6
CONTINUOUS
 62
    12
370
    25
100
AcDbPolyline
 90
       17
 70
   128
 10
142.89831460674148
 20
-104.24269662921337
 10
142.84122425612495
 20
-103.95568405493955
 10
142.67864469263139
 20
-103.71236654332345
 10
142.43532718101528
 20
-103.54978697982992
 10
142.14831460674145
 20
-103.49269662921337
 10
141.86130203246765
 20
-103.54978697982992
 10
141.61798452085156
 20
-103.71236654332345
 10
141.45540495735801
 20
-103.95568405493955
 10
141.39831460674145
 20
-104.24269662921337
 10
141.45540495735801
 20
-104.52970920348720
 10
141.61798452085156
 20
-104.77302671510330
 10
141.86130203246765
 20
-104.93560627859684
 10
142.14831460674145
 20
-104.99269662921338
 10
142.43532718101528
 20
-104.93560627859684
 10
142.67864469263139
 20
-104.77302671510330
 10
142.84122425612495
 20
-104.52970920348720
 10
142.89831460674148
 20
-104.24269662921337
  0
LINE
  5
BA
330
1B
100
AcDbEntity
  8
# Zeichnungen 10
  6
CONTINUOUS
 62
    12
370
    25
100
AcDbLine
 10
153.99999999999997
 20
-96.99999999999993
 30
0.00000000000000
 11
174.06074552877135
 21
-96.99999999999993
 31
0.00000000000000
  0
ENDBLK
  5
BB
330
1B
100
AcDbEntity
  8
0
100
AcDbBlockEnd
  0
BLOCK
  5
BC
330
1C
100
AcDbEntity
  8
0
100
AcDbBlockBegin
  2
*U5
 70
     1
 10
0.00000000000000
 20
0.00000000000000
 30
0.00000000000000
  3
*U5
  1

  0
MTEXT
  5
BD
330
1C
100
AcDbEntity
  8
# Zeichnungen 10
 62
     7
370
    30
100
AcDbMText
 10
154.99999999999997
 20
-104.19999999999995
 30
0.00000000000000
 40
2.80000000000000
 41
0.00000000000000
 71
     7
 72
     1
  1
\fArial Narrow|b0|i0;Hörl + Hartmann
 11
1.00000000000000
 21
0.00000000000000
 31
0.00000000000000
 73
     1
 44
1.00000000000000
  0
MTEXT
  5
BE
330
1C
100
AcDbEntity
  8
# Zeichnungen 10
 62
     7
370
    30
100
AcDbMText
 10
154.99999999999997
 20
-105.79999999999995
 30
0.00000000000000
 40
2.80000000000000
 41
0.00000000000000
 71
     1
 72
     1
  1
\fArial Narrow|b0|i0;Dämmschale für Ringanker
 11
1.00000000000000
 21
0.00000000000000
 31
0.00000000000000
 73
     1
 44
1.00000000000000
  0
LINE
  5
BF
330
1C
100
AcDbEntity
  8
# Zeichnungen 10
  6
CONTINUOUS
 62
    12
370
    25
100
AcDbLine
 10
130.53023930005443
 20
-119.44292966150489
 30
0.00000000000000
 11
153.99999999999997
 21
-104.99999999999994
 31
0.00000000000000
  0
HATCH
  5
C0
330
1C
100
AcDbEntity
  8
# Zeichnungen 10
 62
    12
100
AcDbHatch
 10
0.00000000000000
 20
0.00000000000000
 30
0.00000000000000
210
0.00000000000000
220
0.00000000000000
230
1.00000000000000
  2
SOLID
 70
     1
 71
     0
 91
        1
 92
        0
 93
       16
 72
     1
 10
131.28023930005443
 20
-119.44292966150489
 11
131.22314894943790
 21
-119.15591708723107
 72
     1
 10
131.22314894943790
 20
-119.15591708723107
 11
131.06056938594435
 21
-118.91259957561498
 72
     1
 10
131.06056938594435
 20
-118.91259957561498
 11
130.81725187432824
 21
-118.75002001212142
 72
     1
 10
130.81725187432824
 20
-118.75002001212142
 11
130.53023930005443
 21
-118.69292966150489
 72
     1
 10
130.53023930005443
 20
-118.69292966150489
 11
130.24322672578063
 21
-118.75002001212142
 72
     1
 10
130.24322672578063
 20
-118.75002001212142
 11
129.99990921416452
 21
-118.91259957561498
 72
     1
 10
129.99990921416452
 20
-118.91259957561498
 11
129.83732965067097
 21
-119.15591708723107
 72
     1
 10
129.83732965067097
 20
-119.15591708723107
 11
129.78023930005440
 21
-119.44292966150489
 72
     1
 10
129.78023930005440
 20
-119.44292966150489
 11
129.83732965067097
 21
-119.72994223577871
 72
     1
 10
129.83732965067097
 20
-119.72994223577871
 11
129.99990921416452
 21
-119.97325974739481
 72
     1
 10
129.99990921416452
 20
-119.97325974739481
 11
130.24322672578063
 21
-120.13583931088836
 72
     1
 10
130.24322672578063
 20
-120.13583931088836
 11
130.53023930005443
 21
-120.19292966150491
 72
     1
 10
130.53023930005443
 20
-120.19292966150491
 11
130.81725187432824
 21
-120.13583931088836
 72
     1
 10
130.81725187432824
 20
-120.13583931088836
 11
131.06056938594435
 21
-119.97325974739481
 72
     1
 10
131.06056938594435
 20
-119.97325974739481
 11
131.22314894943790
 21
-119.72994223577871
 72
     1
 10
131.22314894943790
 20
-119.72994223577871
 11
131.28023930005443
 21
-119.44292966150489
 97
        0
 75
     0
 76
     0
 98
        1
 10
0.00000000000000
 20
0.00000000000000
  0
LWPOLYLINE
  5
C1
330
1C
100
AcDbEntity
  8
# Zeichnungen 10
  6
CONTINUOUS
 62
    12
370
    25
100
AcDbPolyline
 90
       17
 70
   128
 10
131.28023930005443
 20
-119.44292966150489
 10
131.22314894943790
 20
-119.15591708723107
 10
131.06056938594435
 20
-118.91259957561498
 10
130.81725187432824
 20
-118.75002001212142
 10
130.53023930005443
 20
-118.69292966150489
 10
130.24322672578063
 20
-118.75002001212142
 10
129.99990921416452
 20
-118.91259957561498
 10
129.83732965067097
 20
-119.15591708723107
 10
129.78023930005440
 20
-119.44292966150489
 10
129.83732965067097
 20
-119.72994223577871
 10
129.99990921416452
 20
-119.97325974739481
 10
130.24322672578063
 20
-120.13583931088836
 10
130.53023930005443
 20
-120.19292966150491
 10
130.81725187432824
 20
-120.13583931088836
 10
131.06056938594435
 20
-119.97325974739481
 10
131.22314894943790
 20
-119.72994223577871
 10
131.28023930005443
 20
-119.44292966150489
  0
LINE
  5
C2
330
1C
100
AcDbEntity
  8
# Zeichnungen 10
  6
CONTINUOUS
 62
    12
370
    25
100
AcDbLine
 10
153.99999999999997
 20
-104.99999999999994
 30
0.00000000000000
 11
194.52815902021769
 21
-104.99999999999994
 31
0.00000000000000
  0
ENDBLK
  5
C3
330
1C
100
AcDbEntity
  8
0
100
AcDbBlockEnd
  0
BLOCK
  5
C4
330
1D
100
AcDbEntity
  8
0
100
AcDbBlockBegin
  2
*U6
 70
     1
 10
0.00000000000000
 20
0.00000000000000
 30
0.00000000000000
  3
*U6
  1

  0
MTEXT
  5
C5
330
1D
100
AcDbEntity
  8
# Zeichnungen 10
 62
     7
370
    30
100
AcDbMText
 10
156.99999999999997
 20
-146.19999999999993
 30
0.00000000000000
 40
2.80000000000000
 41
0.00000000000000
 71
     7
 72
     1
  1
\fArial Narrow|b0|i0;Außenwand-Mauerwerk
 11
1.00000000000000
 21
0.00000000000000
 31
0.00000000000000
 73
     1
 44
1.00000000000000
  0
MTEXT
  5
C6
330
1D
100
AcDbEntity
  8
# Zeichnungen 10
 62
     7
370
    30
100
AcDbMText
 10
156.99999999999997
 20
-147.79999999999993
 30
0.00000000000000
 40
2.80000000000000
 41
0.00000000000000
 71
     1
 72
     1
  1
\fArial Narrow|b0|i0;als Ausfachung zwischen\PWindstützen
 11
1.00000000000000
 21
0.00000000000000
 31
0.00000000000000
 73
     1
 44
1.00000000000000
  0
LINE
  5
C7
330
1D
100
AcDbEntity
  8
# Zeichnungen 10
  6
CONTINUOUS
 62
    12
370
    25
100
AcDbLine
 10
144.87640449438197
 20
-153.79775280898886
 30
0.00000000000000
 11
155.99999999999997
 21
-146.99999999999994
 31
0.00000000000000
  0
HATCH
  5
C8
330
1D
100
AcDbEntity
  8
# Zeichnungen 10
 62
    12
100
AcDbHatch
 10
0.00000000000000
 20
0.00000000000000
 30
0.00000000000000
210
0.00000000000000
220
0.00000000000000
230
1.00000000000000
  2
SOLID
 70
     1
 71
     0
 91
        1
 92
        0
 93
       16
 72
     1
 10
145.62640449438200
 20
-153.79775280898886
 11
145.56931414376544
 21
-153.51074023471503
 72
     1
 10
145.56931414376544
 20
-153.51074023471503
 11
145.40673458027189
 21
-153.26742272309892
 72
     1
 10
145.40673458027189
 20
-153.26742272309892
 11
145.16341706865578
 21
-153.10484315960537
 72
     1
 10
145.16341706865578
 20
-153.10484315960537
 11
144.87640449438197
 21
-153.04775280898886
 72
     1
 10
144.87640449438197
 20
-153.04775280898886
 11
144.58939192010817
 21
-153.10484315960537
 72
     1
 10
144.58939192010817
 20
-153.10484315960537
 11
144.34607440849206
 21
-153.26742272309892
 72
     1
 10
144.34607440849206
 20
-153.26742272309892
 11
144.18349484499851
 21
-153.51074023471503
 72
     1
 10
144.18349484499851
 20
-153.51074023471503
 11
144.12640449438197
 21
-153.79775280898886
 72
     1
 10
144.12640449438197
 20
-153.79775280898886
 11
144.18349484499851
 21
-154.08476538326266
 72
     1
 10
144.18349484499851
 20
-154.08476538326266
 11
144.34607440849206
 21
-154.32808289487875
 72
     1
 10
144.34607440849206
 20
-154.32808289487875
 11
144.58939192010817
 21
-154.49066245837230
 72
     1
 10
144.58939192010817
 20
-154.49066245837230
 11
144.87640449438197
 21
-154.54775280898886
 72
     1
 10
144.87640449438197
 20
-154.54775280898886
 11
145.16341706865578
 21
-154.49066245837230
 72
     1
 10
145.16341706865578
 20
-154.49066245837230
 11
145.40673458027189
 21
-154.32808289487875
 72
     1
 10
145.40673458027189
 20
-154.32808289487875
 11
145.56931414376544
 21
-154.08476538326266
 72
     1
 10
145.56931414376544
 20
-154.08476538326266
 11
145.62640449438200
 21
-153.79775280898886
 97
        0
 75
     0
 76
     0
 98
        1
 10
0.00000000000000
 20
0.00000000000000
  0
LWPOLYLINE
  5
C9
330
1D
100
AcDbEntity
  8
# Zeichnungen 10
  6
CONTINUOUS
 62
    12
370
    25
100
AcDbPolyline
 90
       17
 70
   128
 10
145.62640449438200
 20
-153.79775280898886
 10
145.56931414376544
 20
-153.51074023471503
 10
145.40673458027189
 20
-153.26742272309892
 10
145.16341706865578
 20
-153.10484315960537
 10
144.87640449438197
 20
-153.04775280898886
 10
144.58939192010817
 20
-153.10484315960537
 10
144.34607440849206
 20
-153.26742272309892
 10
144.18349484499851
 20
-153.51074023471503
 10
144.12640449438197
 20
-153.79775280898886
 10
144.18349484499851
 20
-154.08476538326266
 10
144.34607440849206
 20
-154.32808289487875
 10
144.58939192010817
 20
-154.49066245837230
 10
144.87640449438197
 20
-154.54775280898886
 10
145.16341706865578
 20
-154.49066245837230
 10
145.40673458027189
 20
-154.32808289487875
 10
145.56931414376544
 20
-154.08476538326266
 10
145.62640449438200
 20
-153.79775280898886
  0
LINE
  5
CA
330
1D
100
AcDbEntity
  8
# Zeichnungen 10
  6
CONTINUOUS
 62
    12
370
    25
100
AcDbLine
 10
155.99999999999997
 20
-146.99999999999994
 30
0.00000000000000
 11
193.73637490279935
 21
-146.99999999999994
 31
0.00000000000000
  0
ENDBLK
  5
CB
330
1D
100
AcDbEntity
  8
0
100
AcDbBlockEnd
  0
BLOCK
  5
CC
330
1E
100
AcDbEntity
  8
0
100
AcDbBlockBegin
  2
*U7
 70
     1
 10
0.00000000000000
 20
0.00000000000000
 30
0.00000000000000
  3
*U7
  1

  0
MTEXT
  5
CD
330
1E
100
AcDbEntity
  8
# Zeichnungen 10
 62
     7
370
    30
100
AcDbMText
 10
118.99999999999996
 20
-173.19999999999990
 30
0.00000000000000
 40
2.80000000000000
 41
0.00000000000000
 71
     7
 72
     1
  1
\fArial Narrow|b0|i0;Dämmschale für Ringanker
 11
1.00000000000000
 21
0.00000000000000
 31
0.00000000000000
 73
     1
 44
1.00000000000000
  0
MTEXT
  5
CE
330
1E
100
AcDbEntity
  8
# Zeichnungen 10
 62
     7
370
    30
100
AcDbMText
 10
118.99999999999996
 20
-174.79999999999990
 30
0.00000000000000
 40
2.80000000000000
 41
0.00000000000000
 71
     1
 72
     1
  1
\fArial Narrow|b0|i0;als Abschalung für Windstütze
 11
1.00000000000000
 21
0.00000000000000
 31
0.00000000000000
 73
     1
 44
1.00000000000000
  0
LINE
  5
CF
330
1E
100
AcDbEntity
  8
# Zeichnungen 10
  6
CONTINUOUS
 62
    12
370
    25
100
AcDbLine
 10
103.62267226848974
 20
-165.69924596398491
 30
0.00000000000000
 11
117.99999999999994
 21
-173.99999999999991
 31
0.00000000000000
  0
HATCH
  5
D0
330
1E
100
AcDbEntity
  8
# Zeichnungen 10
 62
    12
100
AcDbHatch
 10
0.00000000000000
 20
0.00000000000000
 30
0.00000000000000
210
0.00000000000000
220
0.00000000000000
230
1.00000000000000
  2
SOLID
 70
     1
 71
     0
 91
        1
 92
        0
 93
       16
 72
     1
 10
104.37267226848974
 20
-165.69924596398491
 11
104.31558191787322
 21
-165.41223338971110
 72
     1
 10
104.31558191787322
 20
-165.41223338971110
 11
104.15300235437965
 21
-165.16891587809502
 72
     1
 10
104.15300235437965
 20
-165.16891587809502
 11
103.90968484276355
 21
-165.00633631460147
 72
     1
 10
103.90968484276355
 20
-165.00633631460147
 11
103.62267226848974
 21
-164.94924596398491
 72
     1
 10
103.62267226848974
 20
-164.94924596398491
 11
103.33565969421593
 21
-165.00633631460147
 72
     1
 10
103.33565969421593
 20
-165.00633631460147
 11
103.09234218259982
 21
-165.16891587809502
 72
     1
 10
103.09234218259982
 20
-165.16891587809502
 11
102.92976261910627
 21
-165.41223338971110
 72
     1
 10
102.92976261910627
 20
-165.41223338971110
 11
102.87267226848972
 21
-165.69924596398491
 72
     1
 10
102.87267226848972
 20
-165.69924596398491
 11
102.92976261910627
 21
-165.98625853825874
 72
     1
 10
102.92976261910627
 20
-165.98625853825874
 11
103.09234218259982
 21
-166.22957604987485
 72
     1
 10
103.09234218259982
 20
-166.22957604987485
 11
103.33565969421593
 21
-166.39215561336840
 72
     1
 10
103.33565969421593
 20
-166.39215561336840
 11
103.62267226848974
 21
-166.44924596398491
 72
     1
 10
103.62267226848974
 20
-166.44924596398491
 11
103.90968484276355
 21
-166.39215561336840
 72
     1
 10
103.90968484276355
 20
-166.39215561336840
 11
104.15300235437965
 21
-166.22957604987485
 72
     1
 10
104.15300235437965
 20
-166.22957604987485
 11
104.31558191787322
 21
-165.98625853825874
 72
     1
 10
104.31558191787322
 20
-165.98625853825874
 11
104.37267226848974
 21
-165.69924596398491
 97
        0
 75
     0
 76
     0
 98
        1
 10
0.00000000000000
 20
0.00000000000000
  0
LWPOLYLINE
  5
D1
330
1E
100
AcDbEntity
  8
# Zeichnungen 10
  6
CONTINUOUS
 62
    12
370
    25
100
AcDbPolyline
 90
       17
 70
   128
 10
104.37267226848974
 20
-165.69924596398491
 10
104.31558191787322
 20
-165.41223338971110
 10
104.15300235437965
 20
-165.16891587809502
 10
103.90968484276355
 20
-165.00633631460147
 10
103.62267226848974
 20
-164.94924596398491
 10
103.33565969421593
 20
-165.00633631460147
 10
103.09234218259982
 20
-165.16891587809502
 10
102.92976261910627
 20
-165.41223338971110
 10
102.87267226848972
 20
-165.69924596398491
 10
102.92976261910627
 20
-165.98625853825874
 10
103.09234218259982
 20
-166.22957604987485
 10
103.33565969421593
 20
-166.39215561336840
 10
103.62267226848974
 20
-166.44924596398491
 10
103.90968484276355
 20
-166.39215561336840
 10
104.15300235437965
 20
-166.22957604987485
 10
104.31558191787322
 20
-165.98625853825874
 10
104.37267226848974
 20
-165.69924596398491
  0
LINE
  5
D2
330
1E
100
AcDbEntity
  8
# Zeichnungen 10
  6
CONTINUOUS
 62
    12
370
    25
100
AcDbLine
 10
117.99999999999994
 20
-173.99999999999991
 30
0.00000000000000
 11
162.73816096423013
 21
-173.99999999999991
 31
0.00000000000000
  0
ENDBLK
  5
D3
330
1E
100
AcDbEntity
  8
0
100
AcDbBlockEnd
  0
BLOCK
  5
D4
330
1F
100
AcDbEntity
  8
0
100
AcDbBlockBegin
  2
*D1
 70
     1
 10
0.00000000000000
 20
0.00000000000000
 30
0.00000000000000
  3
*D1
  1

  0
LINE
  5
D5
330
1F
100
AcDbEntity
  8
# Zeichnungen 10
  6
CONTINUOUS
 62
     7
370
    25
100
AcDbLine
 10
71.99999999999996
 20
-262.50000000000017
 30
0.00000000000000
 11
71.99999999999993
 21
-222.00000000000009
 31
0.00000000000000
  0
LINE
  5
D6
330
1F
100
AcDbEntity
  8
# Zeichnungen 10
  6
CONTINUOUS
 62
     7
370
    25
100
AcDbLine
 10
74.49999999999996
 20
-260.50000000000017
 30
0.00000000000000
 11
69.99999999999997
 21
-260.50000000000017
 31
0.00000000000000
  0
LINE
  5
D7
330
1F
100
AcDbEntity
  8
# Zeichnungen 10
  6
CONTINUOUS
 62
     7
370
    25
100
AcDbLine
 10
70.23223304703359
 20
-258.73223304703379
 30
0.00000000000000
 11
73.76776695296631
 21
-262.26776695296655
 31
0.00000000000000
  0
LINE
  5
D8
330
1F
100
AcDbEntity
  8
# Zeichnungen 10
  6
CONTINUOUS
 62
     7
370
    25
100
AcDbLine
 10
74.49999999999993
 20
-224.00000000000009
 30
0.00000000000000
 11
69.99999999999993
 21
-224.00000000000009
 31
0.00000000000000
  0
LINE
  5
D9
330
1F
100
AcDbEntity
  8
# Zeichnungen 10
  6
CONTINUOUS
 62
     7
370
    25
100
AcDbLine
 10
70.23223304703356
 20
-222.23223304703370
 30
0.00000000000000
 11
73.76776695296628
 21
-225.76776695296644
 31
0.00000000000000
  0
MTEXT
  5
DA
330
1F
100
AcDbEntity
  8
# Zeichnungen 10
 62
     7
370
    30
100
AcDbMText
 10
70.79999999999993
 20
-242.25000000000011
 30
0.00000000000000
 40
2.80000000000000
 41
0.00000000000000
 71
     8
 72
     1
  1
\fArial Narrow|b0|i0;36{\A1;\H0.7x;\S5^ ;}
 11
0.00000000000000
 21
1.00000000000000
 31
0.00000000000000
 73
     1
 44
1.00000000000000
  0
ENDBLK
  5
DB
330
1F
100
AcDbEntity
  8
0
100
AcDbBlockEnd
  0
BLOCK
  5
DC
330
20
100
AcDbEntity
  8
0
100
AcDbBlockBegin
  2
*D2
 70
     1
 10
0.00000000000000
 20
0.00000000000000
 30
0.00000000000000
  3
*D2
  1

  0
LINE
  5
DD
330
20
100
AcDbEntity
  8
# Zeichnungen 10
  6
CONTINUOUS
 62
     7
370
    25
100
AcDbLine
 10
78.99999999999959
 20
-262.50000000000011
 30
0.00000000000000
 11
78.99999999999972
 21
-250.50000000000023
 31
0.00000000000000
  0
LINE
  5
DE
330
20
100
AcDbEntity
  8
# Zeichnungen 10
  6
CONTINUOUS
 62
     7
370
    25
100
AcDbLine
 10
76.49999999999960
 20
-260.50000000000006
 30
0.00000000000000
 11
84.49999999999993
 21
-260.50000000000017
 31
0.00000000000000
  0
LINE
  5
DF
330
20
100
AcDbEntity
  8
# Zeichnungen 10
  6
CONTINUOUS
 62
     7
370
    25
100
AcDbLine
 10
77.23223304703325
 20
-258.73223304703373
 30
0.00000000000000
 11
80.76776695296597
 21
-262.26776695296644
 31
0.00000000000000
  0
LINE
  5
E0
330
20
100
AcDbEntity
  8
# Zeichnungen 10
  6
CONTINUOUS
 62
     7
370
    25
100
AcDbLine
 10
76.49999999999969
 20
-252.50000000000023
 30
0.00000000000000
 11
84.49999999999993
 21
-252.50000000000028
 31
0.00000000000000
  0
LINE
  5
E1
330
20
100
AcDbEntity
  8
# Zeichnungen 10
  6
CONTINUOUS
 62
     7
370
    25
100
AcDbLine
 10
77.23223304703333
 20
-250.73223304703384
 30
0.00000000000000
 11
80.76776695296606
 21
-254.26776695296658
 31
0.00000000000000
  0
MTEXT
  5
E2
330
20
100
AcDbEntity
  8
# Zeichnungen 10
 62
     7
370
    30
100
AcDbMText
 10
77.79999999999964
 20
-256.50000000000011
 30
0.00000000000000
 40
2.80000000000000
 41
0.00000000000000
 71
     8
 72
     1
  1
\fArial Narrow|b0|i0;80
 11
0.00000000000000
 21
1.00000000000000
 31
0.00000000000000
 73
     1
 44
1.00000000000000
  0
ENDBLK
  5
E3
330
20
100
AcDbEntity
  8
0
100
AcDbBlockEnd
  0
BLOCK
  5
E4
330
21
100
AcDbEntity
  8
0
100
AcDbBlockBegin
  2
*D3
 70
     1
 10
0.00000000000000
 20
0.00000000000000
 30
0.00000000000000
  3
*D3
  1

  0
LINE
  5
E5
330
21
100
AcDbEntity
  8
# Zeichnungen 10
  6
CONTINUOUS
 62
     7
370
    25
100
AcDbLine
 10
78.99999999999967
 20
-254.50000000000017
 30
0.00000000000000
 11
78.99999999999999
 21
-230.00000000000017
 31
0.00000000000000
  0
LINE
  5
E6
330
21
100
AcDbEntity
  8
# Zeichnungen 10
  6
CONTINUOUS
 62
     7
370
    25
100
AcDbLine
 10
76.49999999999969
 20
-252.50000000000011
 30
0.00000000000000
 11
84.49999999999993
 21
-252.50000000000028
 31
0.00000000000000
  0
LINE
  5
E7
330
21
100
AcDbEntity
  8
# Zeichnungen 10
  6
CONTINUOUS
 62
     7
370
    25
100
AcDbLine
 10
77.23223304703333
 20
-250.73223304703379
 30
0.00000000000000
 11
80.76776695296606
 21
-254.26776695296655
 31
0.00000000000000
  0
LINE
  5
E8
330
21
100
AcDbEntity
  8
# Zeichnungen 10
  6
CONTINUOUS
 62
     7
370
    25
100
AcDbLine
 10
76.49999999999996
 20
-232.00000000000017
 30
0.00000000000000
 11
84.49999999999997
 21
-232.00000000000017
 31
0.00000000000000
  0
LINE
  5
E9
330
21
100
AcDbEntity
  8
# Zeichnungen 10
  6
CONTINUOUS
 62
     7
370
    25
100
AcDbLine
 10
77.23223304703359
 20
-230.23223304703379
 30
0.00000000000000
 11
80.76776695296634
 21
-233.76776695296653
 31
0.00000000000000
  0
MTEXT
  5
EA
330
21
100
AcDbEntity
  8
# Zeichnungen 10
 62
     7
370
    30
100
AcDbMText
 10
77.79999999999983
 20
-242.25000000000017
 30
0.00000000000000
 40
2.80000000000000
 41
0.00000000000000
 71
     8
 72
     1
  1
\fArial Narrow|b0|i0;205
 11
0.00000000000000
 21
1.00000000000000
 31
0.00000000000000
 73
     1
 44
1.00000000000000
  0
ENDBLK
  5
EB
330
21
100
AcDbEntity
  8
0
100
AcDbBlockEnd
  0
BLOCK
  5
EC
330
22
100
AcDbEntity
  8
0
100
AcDbBlockBegin
  2
*D4
 70
     1
 10
0.00000000000000
 20
0.00000000000000
 30
0.00000000000000
  3
*D4
  1

  0
LINE
  5
ED
330
22
100
AcDbEntity
  8
# Zeichnungen 10
  6
CONTINUOUS
 62
     7
370
    25
100
AcDbLine
 10
78.99999999999993
 20
-234.00000000000026
 30
0.00000000000000
 11
79.00000000000007
 21
-222.00000000000003
 31
0.00000000000000
  0
LINE
  5
EE
330
22
100
AcDbEntity
  8
# Zeichnungen 10
  6
CONTINUOUS
 62
     7
370
    25
100
AcDbLine
 10
76.49999999999996
 20
-232.00000000000031
 30
0.00000000000000
 11
84.49999999999997
 21
-232.00000000000017
 31
0.00000000000000
  0
LINE
  5
EF
330
22
100
AcDbEntity
  8
# Zeichnungen 10
  6
CONTINUOUS
 62
     7
370
    25
100
AcDbLine
 10
77.23223304703357
 20
-230.23223304703387
 30
0.00000000000000
 11
80.76776695296633
 21
-233.76776695296664
 31
0.00000000000000
  0
LINE
  5
F0
330
22
100
AcDbEntity
  8
# Zeichnungen 10
  6
CONTINUOUS
 62
     7
370
    25
100
AcDbLine
 10
76.50000000000004
 20
-224.00000000000003
 30
0.00000000000000
 11
84.49999999999997
 21
-224.00000000000009
 31
0.00000000000000
  0
LINE
  5
F1
330
22
100
AcDbEntity
  8
# Zeichnungen 10
  6
CONTINUOUS
 62
     7
370
    25
100
AcDbLine
 10
77.23223304703367
 20
-222.23223304703365
 30
0.00000000000000
 11
80.76776695296640
 21
-225.76776695296641
 31
0.00000000000000
  0
MTEXT
  5
F2
330
22
100
AcDbEntity
  8
# Zeichnungen 10
 62
     7
370
    30
100
AcDbMText
 10
77.80000000000000
 20
-228.00000000000011
 30
0.00000000000000
 40
2.80000000000000
 41
0.00000000000000
 71
     8
 72
     1
  1
\fArial Narrow|b0|i0;80
 11
0.00000000000000
 21
1.00000000000000
 31
0.00000000000000
 73
     1
 44
1.00000000000000
  0
ENDBLK
  5
F3
330
22
100
AcDbEntity
  8
0
100
AcDbBlockEnd
  0
BLOCK
  5
F4
330
23
100
AcDbEntity
  8
0
100
AcDbBlockBegin
  2
*D5
 70
     1
 10
0.00000000000000
 20
0.00000000000000
 30
0.00000000000000
  3
*D5
  1

  0
LINE
  5
F5
330
23
100
AcDbEntity
  8
# Zeichnungen 10
  6
CONTINUOUS
 62
     7
370
    25
100
AcDbLine
 10
85.49999999999996
 20
-266.00000000000006
 30
0.00000000000000
 11
114.49999999999996
 21
-266.00000000000006
 31
0.00000000000000
  0
LINE
  5
F6
330
23
100
AcDbEntity
  8
# Zeichnungen 10
  6
CONTINUOUS
 62
     7
370
    25
100
AcDbLine
 10
87.49999999999999
 20
-268.50000000000006
 30
0.00000000000000
 11
87.49999999999994
 21
-263.50000000000017
 31
0.00000000000000
  0
LINE
  5
F7
330
23
100
AcDbEntity
  8
# Zeichnungen 10
  6
CONTINUOUS
 62
     7
370
    25
100
AcDbLine
 10
89.26776695296633
 20
-264.23223304703367
 30
0.00000000000000
 11
85.73223304703359
 21
-267.76776695296644
 31
0.00000000000000
  0
LINE
  5
F8
330
23
100
AcDbEntity
  8
# Zeichnungen 10
  6
CONTINUOUS
 62
     7
370
    25
100
AcDbLine
 10
112.49999999999996
 20
-268.50000000000006
 30
0.00000000000000
 11
112.49999999999996
 21
-263.50000000000017
 31
0.00000000000000
  0
LINE
  5
F9
330
23
100
AcDbEntity
  8
# Zeichnungen 10
  6
CONTINUOUS
 62
     7
370
    25
100
AcDbLine
 10
114.26776695296633
 20
-264.23223304703367
 30
0.00000000000000
 11
110.73223304703360
 21
-267.76776695296644
 31
0.00000000000000
  0
MTEXT
  5
FA
330
23
100
AcDbEntity
  8
# Zeichnungen 10
 62
     7
370
    30
100
AcDbMText
 10
99.99999999999996
 20
-264.80000000000007
 30
0.00000000000000
 40
2.80000000000000
 41
0.00000000000000
 71
     8
 72
     1
  1
\fArial Narrow|b0|i0;250
 11
1.00000000000000
 21
0.00000000000000
 31
0.00000000000000
 73
     1
 44
1.00000000000000
  0
ENDBLK
  5
FB
330
23
100
AcDbEntity
  8
0
100
AcDbBlockEnd
  0
BLOCK
  5
FC
330
24
100
AcDbEntity
  8
0
100
AcDbBlockBegin
  2
*U8
 70
     1
 10
0.00000000000000
 20
0.00000000000000
 30
0.00000000000000
  3
*U8
  1

  0
MTEXT
  5
FD
330
24
100
AcDbEntity
  8
# Zeichnungen 10
 62
     7
370
    30
100
AcDbMText
 10
121.99999999999999
 20
-218.20000000000005
 30
0.00000000000000
 40
2.80000000000000
 41
0.00000000000000
 71
     7
 72
     1
  1
\fArial Narrow|b0|i0;Dämmschale für Ringanker
 11
1.00000000000000
 21
0.00000000000000
 31
0.00000000000000
 73
     1
 44
1.00000000000000
  0
MTEXT
  5
FE
330
24
100
AcDbEntity
  8
# Zeichnungen 10
 62
     7
370
    30
100
AcDbMText
 10
121.99999999999999
 20
-219.80000000000004
 30
0.00000000000000
 40
2.80000000000000
 41
0.00000000000000
 71
     1
 72
     1
  1
\fArial Narrow|b0|i0;als Abschalung für Windstütze
 11
1.00000000000000
 21
0.00000000000000
 31
0.00000000000000
 73
     1
 44
1.00000000000000
  0
LINE
  5
FF
330
24
100
AcDbEntity
  8
# Zeichnungen 10
  6
CONTINUOUS
 62
    12
370
    25
100
AcDbLine
 10
104.99999999999994
 20
-227.00000000000000
 30
0.00000000000000
 11
120.99999999999999
 21
-219.00000000000006
 31
0.00000000000000
  0
HATCH
  5
100
330
24
100
AcDbEntity
  8
# Zeichnungen 10
 62
    12
100
AcDbHatch
 10
0.00000000000000
 20
0.00000000000000
 30
0.00000000000000
210
0.00000000000000
220
0.00000000000000
230
1.00000000000000
  2
SOLID
 70
     1
 71
     0
 91
        1
 92
        0
 93
       16
 72
     1
 10
105.74999999999996
 20
-227.00000000000000
 11
105.69290964938341
 21
-226.71298742572620
 72
     1
 10
105.69290964938341
 20
-226.71298742572620
 11
105.53033008588986
 21
-226.46966991411011
 72
     1
 10
105.53033008588986
 20
-226.46966991411011
 11
105.28701257427375
 21
-226.30709035061653
 72
     1
 10
105.28701257427375
 20
-226.30709035061653
 11
104.99999999999994
 21
-226.25000000000003
 72
     1
 10
104.99999999999994
 20
-226.25000000000003
 11
104.71298742572613
 21
-226.30709035061653
 72
     1
 10
104.71298742572613
 20
-226.30709035061653
 11
104.46966991411003
 21
-226.46966991411011
 72
     1
 10
104.46966991411003
 20
-226.46966991411011
 11
104.30709035061646
 21
-226.71298742572620
 72
     1
 10
104.30709035061646
 20
-226.71298742572620
 11
104.24999999999994
 21
-227.00000000000000
 72
     1
 10
104.24999999999994
 20
-227.00000000000000
 11
104.30709035061646
 21
-227.28701257427383
 72
     1
 10
104.30709035061646
 20
-227.28701257427383
 11
104.46966991411003
 21
-227.53033008588994
 72
     1
 10
104.46966991411003
 20
-227.53033008588994
 11
104.71298742572613
 21
-227.69290964938349
 72
     1
 10
104.71298742572613
 20
-227.69290964938349
 11
104.99999999999994
 21
-227.75000000000000
 72
     1
 10
104.99999999999994
 20
-227.75000000000000
 11
105.28701257427375
 21
-227.69290964938349
 72
     1
 10
105.28701257427375
 20
-227.69290964938349
 11
105.53033008588986
 21
-227.53033008588994
 72
     1
 10
105.53033008588986
 20
-227.53033008588994
 11
105.69290964938341
 21
-227.28701257427383
 72
     1
 10
105.69290964938341
 20
-227.28701257427383
 11
105.74999999999996
 21
-227.00000000000000
 97
        0
 75
     0
 76
     0
 98
        1
 10
0.00000000000000
 20
0.00000000000000
  0
LWPOLYLINE
  5
101
330
24
100
AcDbEntity
  8
# Zeichnungen 10
  6
CONTINUOUS
 62
    12
370
    25
100
AcDbPolyline
 90
       17
 70
   128
 10
105.74999999999996
 20
-227.00000000000000
 10
105.69290964938341
 20
-226.71298742572620
 10
105.53033008588986
 20
-226.46966991411011
 10
105.28701257427375
 20
-226.30709035061653
 10
104.99999999999994
 20
-226.25000000000003
 10
104.71298742572613
 20
-226.30709035061653
 10
104.46966991411003
 20
-226.46966991411011
 10
104.30709035061646
 20
-226.71298742572620
 10
104.24999999999994
 20
-227.00000000000000
 10
104.30709035061646
 20
-227.28701257427383
 10
104.46966991411003
 20
-227.53033008588994
 10
104.71298742572613
 20
-227.69290964938349
 10
104.99999999999994
 20
-227.75000000000000
 10
105.28701257427375
 20
-227.69290964938349
 10
105.53033008588986
 20
-227.53033008588994
 10
105.69290964938341
 20
-227.28701257427383
 10
105.74999999999996
 20
-227.00000000000000
  0
LINE
  5
102
330
24
100
AcDbEntity
  8
# Zeichnungen 10
  6
CONTINUOUS
 62
    12
370
    25
100
AcDbLine
 10
120.99999999999999
 20
-219.00000000000006
 30
0.00000000000000
 11
165.73816096423016
 21
-219.00000000000006
 31
0.00000000000000
  0
ENDBLK
  5
103
330
24
100
AcDbEntity
  8
0
100
AcDbBlockEnd
  0
BLOCK
  5
104
330
25
100
AcDbEntity
  8
0
100
AcDbBlockBegin
  2
*U9
 70
     1
 10
0.00000000000000
 20
0.00000000000000
 30
0.00000000000000
  3
*U9
  1

  0
LINE
  5
105
330
25
100
AcDbEntity
  8
# Zeichnungen 10
  6
CONTINUOUS
 62
    12
370
    25
100
AcDbLine
 10
105.02182265978028
 20
-255.07404952050894
 30
0.00000000000000
 11
120.99999999999999
 21
-219.00000000000006
 31
0.00000000000000
  0
HATCH
  5
106
330
25
100
AcDbEntity
  8
# Zeichnungen 10
 62
    12
100
AcDbHatch
 10
0.00000000000000
 20
0.00000000000000
 30
0.00000000000000
210
0.00000000000000
220
0.00000000000000
230
1.00000000000000
  2
SOLID
 70
     1
 71
     0
 91
        1
 92
        0
 93
       16
 72
     1
 10
105.77182265978030
 20
-255.07404952050894
 11
105.71473230916375
 21
-254.78703694623511
 72
     1
 10
105.71473230916375
 20
-254.78703694623511
 11
105.55215274567020
 21
-254.54371943461899
 72
     1
 10
105.55215274567020
 20
-254.54371943461899
 11
105.30883523405410
 21
-254.38113987112547
 72
     1
 10
105.30883523405410
 20
-254.38113987112547
 11
105.02182265978028
 21
-254.32404952050896
 72
     1
 10
105.02182265978028
 20
-254.32404952050896
 11
104.73481008550647
 21
-254.38113987112547
 72
     1
 10
104.73481008550647
 20
-254.38113987112547
 11
104.49149257389037
 21
-254.54371943461899
 72
     1
 10
104.49149257389037
 20
-254.54371943461899
 11
104.32891301039682
 21
-254.78703694623511
 72
     1
 10
104.32891301039682
 20
-254.78703694623511
 11
104.27182265978028
 21
-255.07404952050894
 72
     1
 10
104.27182265978028
 20
-255.07404952050894
 11
104.32891301039682
 21
-255.36106209478277
 72
     1
 10
104.32891301039682
 20
-255.36106209478277
 11
104.49149257389037
 21
-255.60437960639885
 72
     1
 10
104.49149257389037
 20
-255.60437960639885
 11
104.73481008550647
 21
-255.76695916989240
 72
     1
 10
104.73481008550647
 20
-255.76695916989240
 11
105.02182265978028
 21
-255.82404952050891
 72
     1
 10
105.02182265978028
 20
-255.82404952050891
 11
105.30883523405410
 21
-255.76695916989240
 72
     1
 10
105.30883523405410
 20
-255.76695916989240
 11
105.55215274567020
 21
-255.60437960639885
 72
     1
 10
105.55215274567020
 20
-255.60437960639885
 11
105.71473230916375
 21
-255.36106209478277
 72
     1
 10
105.71473230916375
 20
-255.36106209478277
 11
105.77182265978030
 21
-255.07404952050894
 97
        0
 75
     0
 76
     0
 98
        1
 10
0.00000000000000
 20
0.00000000000000
  0
LWPOLYLINE
  5
107
330
25
100
AcDbEntity
  8
# Zeichnungen 10
  6
CONTINUOUS
 62
    12
370
    25
100
AcDbPolyline
 90
       17
 70
   128
 10
105.77182265978030
 20
-255.07404952050894
 10
105.71473230916375
 20
-254.78703694623511
 10
105.55215274567020
 20
-254.54371943461899
 10
105.30883523405410
 20
-254.38113987112547
 10
105.02182265978028
 20
-254.32404952050896
 10
104.73481008550647
 20
-254.38113987112547
 10
104.49149257389037
 20
-254.54371943461899
 10
104.32891301039682
 20
-254.78703694623511
 10
104.27182265978028
 20
-255.07404952050894
 10
104.32891301039682
 20
-255.36106209478277
 10
104.49149257389037
 20
-255.60437960639885
 10
104.73481008550647
 20
-255.76695916989240
 10
105.02182265978028
 20
-255.82404952050891
 10
105.30883523405410
 20
-255.76695916989240
 10
105.55215274567020
 20
-255.60437960639885
 10
105.71473230916375
 20
-255.36106209478277
 10
105.77182265978030
 20
-255.07404952050894
  0
LINE
  5
108
330
25
100
AcDbEntity
  8
# Zeichnungen 10
  6
CONTINUOUS
 62
    12
370
    25
100
AcDbLine
 10
120.99999999999999
 20
-219.00000000000006
 30
0.00000000000000
 11
123.39999999999998
 21
-219.00000000000006
 31
0.00000000000000
  0
ENDBLK
  5
109
330
25
100
AcDbEntity
  8
0
100
AcDbBlockEnd
  0
BLOCK
  5
10A
330
26
100
AcDbEntity
  8
0
100
AcDbBlockBegin
  2
*U10
 70
     1
 10
0.00000000000000
 20
0.00000000000000
 30
0.00000000000000
  3
*U10
  1

  0
MTEXT
  5
10B
330
26
100
AcDbEntity
  8
# Zeichnungen 10
 62
     7
370
    30
100
AcDbMText
 10
49.08355608475889
 20
-266.20000000000005
 30
0.00000000000000
 40
2.80000000000000
 41
0.00000000000000
 71
     7
 72
     1
  1
\fArial Narrow|b0|i0;Stahlbeton-Windstütze
 11
1.00000000000000
 21
0.00000000000000
 31
0.00000000000000
 73
     1
 44
1.00000000000000
  0
MTEXT
  5
10C
330
26
100
AcDbEntity
  8
# Zeichnungen 10
 62
     7
370
    30
100
AcDbMText
 10
49.08355608475889
 20
-267.80000000000001
 30
0.00000000000000
 40
2.80000000000000
 41
0.00000000000000
 71
     1
 72
     1
  1
\fArial Narrow|b0|i0;nach Ang. Statik
 11
1.00000000000000
 21
0.00000000000000
 31
0.00000000000000
 73
     1
 44
1.00000000000000
  0
LINE
  5
10D
330
26
100
AcDbEntity
  8
# Zeichnungen 10
  6
CONTINUOUS
 62
    12
370
    25
100
AcDbLine
 10
94.69739555932111
 20
-243.83414005393067
 30
0.00000000000000
 11
81.99999999999994
 21
-267.00000000000006
 31
0.00000000000000
  0
HATCH
  5
10E
330
26
100
AcDbEntity
  8
# Zeichnungen 10
 62
    12
100
AcDbHatch
 10
0.00000000000000
 20
0.00000000000000
 30
0.00000000000000
210
0.00000000000000
220
0.00000000000000
230
1.00000000000000
  2
SOLID
 70
     1
 71
     0
 91
        1
 92
        0
 93
       16
 72
     1
 10
95.44739555932111
 20
-243.83414005393067
 11
95.39030520870458
 21
-243.54712747965684
 72
     1
 10
95.39030520870458
 20
-243.54712747965684
 11
95.22772564521102
 21
-243.30380996804072
 72
     1
 10
95.22772564521102
 20
-243.30380996804072
 11
94.98440813359493
 21
-243.14123040454717
 72
     1
 10
94.98440813359493
 20
-243.14123040454717
 11
94.69739555932111
 21
-243.08414005393067
 72
     1
 10
94.69739555932111
 20
-243.08414005393067
 11
94.41038298504729
 21
-243.14123040454717
 72
     1
 10
94.41038298504729
 20
-243.14123040454717
 11
94.16706547343121
 21
-243.30380996804072
 72
     1
 10
94.16706547343121
 20
-243.30380996804072
 11
94.00448590993766
 21
-243.54712747965684
 72
     1
 10
94.00448590993766
 20
-243.54712747965684
 11
93.94739555932112
 21
-243.83414005393067
 72
     1
 10
93.94739555932112
 20
-243.83414005393067
 11
94.00448590993766
 21
-244.12115262820447
 72
     1
 10
94.00448590993766
 20
-244.12115262820447
 11
94.16706547343121
 21
-244.36447013982055
 72
     1
 10
94.16706547343121
 20
-244.36447013982055
 11
94.41038298504729
 21
-244.52704970331413
 72
     1
 10
94.41038298504729
 20
-244.52704970331413
 11
94.69739555932111
 21
-244.58414005393064
 72
     1
 10
94.69739555932111
 20
-244.58414005393064
 11
94.98440813359493
 21
-244.52704970331413
 72
     1
 10
94.98440813359493
 20
-244.52704970331413
 11
95.22772564521102
 21
-244.36447013982055
 72
     1
 10
95.22772564521102
 20
-244.36447013982055
 11
95.39030520870458
 21
-244.12115262820447
 72
     1
 10
95.39030520870458
 20
-244.12115262820447
 11
95.44739555932111
 21
-243.83414005393067
 97
        0
 75
     0
 76
     0
 98
        1
 10
0.00000000000000
 20
0.00000000000000
  0
LWPOLYLINE
  5
10F
330
26
100
AcDbEntity
  8
# Zeichnungen 10
  6
CONTINUOUS
 62
    12
370
    25
100
AcDbPolyline
 90
       17
 70
   128
 10
95.44739555932111
 20
-243.83414005393067
 10
95.39030520870458
 20
-243.54712747965684
 10
95.22772564521102
 20
-243.30380996804072
 10
94.98440813359493
 20
-243.14123040454717
 10
94.69739555932111
 20
-243.08414005393067
 10
94.41038298504729
 20
-243.14123040454717
 10
94.16706547343121
 20
-243.30380996804072
 10
94.00448590993766
 20
-243.54712747965684
 10
93.94739555932112
 20
-243.83414005393067
 10
94.00448590993766
 20
-244.12115262820447
 10
94.16706547343121
 20
-244.36447013982055
 10
94.41038298504729
 20
-244.52704970331413
 10
94.69739555932111
 20
-244.58414005393064
 10
94.98440813359493
 20
-244.52704970331413
 10
95.22772564521102
 20
-244.36447013982055
 10
95.39030520870458
 20
-244.12115262820447
 10
95.44739555932111
 20
-243.83414005393067
  0
LINE
  5
110
330
26
100
AcDbEntity
  8
# Zeichnungen 10
  6
CONTINUOUS
 62
    12
370
    25
100
AcDbLine
 10
47.68355608475888
 20
-267.00000000000006
 30
0.00000000000000
 11
81.99999999999994
 21
-267.00000000000006
 31
0.00000000000000
  0
ENDBLK
  5
111
330
26
100
AcDbEntity
  8
0
100
AcDbBlockEnd
  0
BLOCK
  5
112
330
27
100
AcDbEntity
  8
0
100
AcDbBlockBegin
  2
*U11
 70
     1
 10
0.00000000000000
 20
0.00000000000000
 30
0.00000000000000
  3
*U11
  1

  0
ARC
  5
113
330
27
100
AcDbEntity
  8
# Zeichnungen 10
  6
CONTINUOUS
 62
     7
370
    18
100
AcDbCircle
 10
58.49999999999994
 20
-97.91666666666681
 30
0.00000000000000
 40
3.08333333333333
100
AcDbArc
 50
160.65452275639041
 51
270.00000000000000
  0
LINE
  5
114
330
27
100
AcDbEntity
  8
# Zeichnungen 10
  6
CONTINUOUS
 62
     7
370
    18
100
AcDbLine
 10
55.59075685929498
 20
-96.89527115428898
 30
0.00000000000000
 11
58.32590980737149
 21
-89.10472884571152
 31
0.00000000000000
  0
ARC
  5
115
330
27
100
AcDbEntity
  8
# Zeichnungen 10
  6
CONTINUOUS
 62
     7
370
    18
100
AcDbCircle
 10
55.41666666666653
 20
-88.08333333333370
 30
0.00000000000000
 40
3.08333333333332
100
AcDbArc
 50
340.65452275639058
 51
199.34547724361028
  0
LINE
  5
116
330
27
100
AcDbEntity
  8
# Zeichnungen 10
  6
CONTINUOUS
 62
     7
370
    18
100
AcDbLine
 10
52.50742352596159
 20
-89.10472884571156
 30
0.00000000000000
 11
55.24257647403822
 21
-96.89527115428898
 31
0.00000000000000
  0
ARC
  5
117
330
27
100
AcDbEntity
  8
# Zeichnungen 10
  6
CONTINUOUS
 62
     7
370
    18
100
AcDbCircle
 10
52.33333333333328
 20
-97.91666666666686
 30
0.00000000000000
 40
3.08333333333333
100
AcDbArc
 50
160.65452275639086
 51
19.34547724361046
  0
LINE
  5
118
330
27
100
AcDbEntity
  8
# Zeichnungen 10
  6
CONTINUOUS
 62
     7
370
    18
100
AcDbLine
 10
49.42409019262831
 20
-96.89527115428905
 30
0.00000000000000
 11
52.15924314070482
 21
-89.10472884571151
 31
0.00000000000000
  0
ARC
  5
119
330
27
100
AcDbEntity
  8
# Zeichnungen 10
  6
CONTINUOUS
 62
     7
370
    18
100
AcDbCircle
 10
49.24999999999987
 20
-88.08333333333370
 30
0.00000000000000
 40
3.08333333333332
100
AcDbArc
 50
340.65452275639075
 51
199.34547724361028
  0
LINE
  5
11A
330
27
100
AcDbEntity
  8
# Zeichnungen 10
  6
CONTINUOUS
 62
     7
370
    18
100
AcDbLine
 10
46.34075685929492
 20
-89.10472884571156
 30
0.00000000000000
 11
49.07590980737157
 21
-96.89527115428908
 31
0.00000000000000
  0
ARC
  5
11B
330
27
100
AcDbEntity
  8
# Zeichnungen 10
  6
CONTINUOUS
 62
     7
370
    18
100
AcDbCircle
 10
46.16666666666663
 20
-97.91666666666693
 30
0.00000000000000
 40
3.08333333333333
100
AcDbArc
 50
160.65452275639080
 51
19.34547724361000
  0
LINE
  5
11C
330
27
100
AcDbEntity
  8
# Zeichnungen 10
  6
CONTINUOUS
 62
     7
370
    18
100
AcDbLine
 10
43.25742352596166
 20
-96.89527115428911
 30
0.00000000000000
 11
45.99257647403817
 21
-89.10472884571151
 31
0.00000000000000
  0
ARC
  5
11D
330
27
100
AcDbEntity
  8
# Zeichnungen 10
  6
CONTINUOUS
 62
     7
370
    18
100
AcDbCircle
 10
43.08333333333321
 20
-88.08333333333371
 30
0.00000000000000
 40
3.08333333333333
100
AcDbArc
 50
340.65452275639103
 51
199.34547724361005
  0
LINE
  5
11E
330
27
100
AcDbEntity
  8
# Zeichnungen 10
  6
CONTINUOUS
 62
     7
370
    18
100
AcDbLine
 10
40.17409019262826
 20
-89.10472884571156
 30
0.00000000000000
 11
42.90924314070491
 21
-96.89527115428911
 31
0.00000000000000
  0
ARC
  5
11F
330
27
100
AcDbEntity
  8
# Zeichnungen 10
  6
CONTINUOUS
 62
     7
370
    18
100
AcDbCircle
 10
39.99999999999997
 20
-97.91666666666697
 30
0.00000000000000
 40
3.08333333333333
100
AcDbArc
 50
269.99999999999994
 51
19.34547724361000
  0
ENDBLK
  5
120
330
27
100
AcDbEntity
  8
0
100
AcDbBlockEnd
  0
BLOCK
  5
121
330
28
100
AcDbEntity
  8
0
100
AcDbBlockBegin
  2
*U12
 70
     1
 10
0.00000000000000
 20
0.00000000000000
 30
0.00000000000000
  3
*U12
  1

  0
ARC
  5
122
330
28
100
AcDbEntity
  8
# Zeichnungen 10
  6
CONTINUOUS
 62
     7
370
    18
100
AcDbCircle
 10
66.50000000000001
 20
-97.27777777777808
 30
0.00000000000000
 40
3.72222222222223
100
AcDbArc
 50
270.00000000000000
 51
29.41669052914767
  0
LINE
  5
123
330
28
100
AcDbEntity
  8
# Zeichnungen 10
  6
CONTINUOUS
 62
     7
370
    18
100
AcDbLine
 10
69.74231898315078
 20
-95.44958033682566
 30
0.00000000000000
 11
66.97990323907145
 21
-90.55041966317504
 31
0.00000000000000
  0
ARC
  5
124
330
28
100
AcDbEntity
  8
# Zeichnungen 10
  6
CONTINUOUS
 62
     7
370
    18
100
AcDbCircle
 10
70.22222222222223
 20
-88.72222222222257
 30
0.00000000000000
 40
3.72222222222222
100
AcDbArc
 50
330.58330947085250
 51
209.41669052914801
  0
LINE
  5
125
330
28
100
AcDbEntity
  8
# Zeichnungen 10
  6
CONTINUOUS
 62
     7
370
    18
100
AcDbLine
 10
73.46454120537300
 20
-90.55041966317501
 30
0.00000000000000
 11
70.70212546129368
 21
-95.44958033682566
 31
0.00000000000000
  0
ARC
  5
126
330
28
100
AcDbEntity
  8
# Zeichnungen 10
  6
CONTINUOUS
 62
     7
370
    18
100
AcDbCircle
 10
73.94444444444446
 20
-97.27777777777808
 30
0.00000000000000
 40
3.72222222222222
100
AcDbArc
 50
150.58330947085238
 51
29.41669052914762
  0
LINE
  5
127
330
28
100
AcDbEntity
  8
# Zeichnungen 10
  6
CONTINUOUS
 62
     7
370
    18
100
AcDbLine
 10
77.18676342759522
 20
-95.44958033682566
 30
0.00000000000000
 11
74.42434768351589
 21
-90.55041966317504
 31
0.00000000000000
  0
ARC
  5
128
330
28
100
AcDbEntity
  8
# Zeichnungen 10
  6
CONTINUOUS
 62
     7
370
    18
100
AcDbCircle
 10
77.66666666666667
 20
-88.72222222222257
 30
0.00000000000000
 40
3.72222222222222
100
AcDbArc
 50
330.58330947085221
 51
209.41669052914801
  0
LINE
  5
129
330
28
100
AcDbEntity
  8
# Zeichnungen 10
  6
CONTINUOUS
 62
     7
370
    18
100
AcDbLine
 10
80.90898564981745
 20
-90.55041966317504
 30
0.00000000000000
 11
78.14656990573813
 21
-95.44958033682566
 31
0.00000000000000
  0
ARC
  5
12A
330
28
100
AcDbEntity
  8
# Zeichnungen 10
  6
CONTINUOUS
 62
     7
370
    18
100
AcDbCircle
 10
81.38888888888890
 20
-97.27777777777808
 30
0.00000000000000
 40
3.72222222222222
100
AcDbArc
 50
150.58330947085238
 51
29.41669052914779
  0
LINE
  5
12B
330
28
100
AcDbEntity
  8
# Zeichnungen 10
  6
CONTINUOUS
 62
     7
370
    18
100
AcDbLine
 10
84.63120787203965
 20
-95.44958033682566
 30
0.00000000000000
 11
81.86879212796033
 21
-90.55041966317504
 31
0.00000000000000
  0
ARC
  5
12C
330
28
100
AcDbEntity
  8
# Zeichnungen 10
  6
CONTINUOUS
 62
     7
370
    18
100
AcDbCircle
 10
85.11111111111110
 20
-88.72222222222257
 30
0.00000000000000
 40
3.72222222222222
100
AcDbArc
 50
330.58330947085250
 51
209.41669052914801
  0
LINE
  5
12D
330
28
100
AcDbEntity
  8
# Zeichnungen 10
  6
CONTINUOUS
 62
     7
370
    18
100
AcDbLine
 10
88.35343009426187
 20
-90.55041966317501
 30
0.00000000000000
 11
85.59101435018256
 21
-95.44958033682566
 31
0.00000000000000
  0
ARC
  5
12E
330
28
100
AcDbEntity
  8
# Zeichnungen 10
  6
CONTINUOUS
 62
     7
370
    18
100
AcDbCircle
 10
88.83333333333331
 20
-97.27777777777808
 30
0.00000000000000
 40
3.72222222222222
100
AcDbArc
 50
150.58330947085238
 51
29.41669052914762
  0
LINE
  5
12F
330
28
100
AcDbEntity
  8
# Zeichnungen 10
  6
CONTINUOUS
 62
     7
370
    18
100
AcDbLine
 10
92.07565231648410
 20
-95.44958033682566
 30
0.00000000000000
 11
89.31323657240478
 21
-90.55041966317501
 31
0.00000000000000
  0
ARC
  5
130
330
28
100
AcDbEntity
  8
# Zeichnungen 10
  6
CONTINUOUS
 62
     7
370
    18
100
AcDbCircle
 10
92.55555555555556
 20
-88.72222222222257
 30
0.00000000000000
 40
3.72222222222222
100
AcDbArc
 50
330.58330947085210
 51
209.41669052914762
  0
LINE
  5
131
330
28
100
AcDbEntity
  8
# Zeichnungen 10
  6
CONTINUOUS
 62
     7
370
    18
100
AcDbLine
 10
95.79787453870632
 20
-90.55041966317504
 30
0.00000000000000
 11
93.03545879462700
 21
-95.44958033682566
 31
0.00000000000000
  0
ARC
  5
132
330
28
100
AcDbEntity
  8
# Zeichnungen 10
  6
CONTINUOUS
 62
     7
370
    18
100
AcDbCircle
 10
96.27777777777777
 20
-97.27777777777808
 30
0.00000000000000
 40
3.72222222222222
100
AcDbArc
 50
150.58330947085238
 51
29.41669052914762
  0
LINE
  5
133
330
28
100
AcDbEntity
  8
# Zeichnungen 10
  6
CONTINUOUS
 62
     7
370
    18
100
AcDbLine
 10
99.52009676092854
 20
-95.44958033682566
 30
0.00000000000000
 11
96.75768101684923
 21
-90.55041966317501
 31
0.00000000000000
  0
ARC
  5
134
330
28
100
AcDbEntity
  8
# Zeichnungen 10
  6
CONTINUOUS
 62
     7
370
    18
100
AcDbCircle
 10
99.99999999999999
 20
-88.72222222222257
 30
0.00000000000000
 40
3.72222222222222
100
AcDbArc
 50
330.58330947085199
 51
209.41669052914762
  0
LINE
  5
135
330
28
100
AcDbEntity
  8
# Zeichnungen 10
  6
CONTINUOUS
 62
     7
370
    18
100
AcDbLine
 10
103.24231898315075
 20
-90.55041966317504
 30
0.00000000000000
 11
100.47990323907143
 21
-95.44958033682566
 31
0.00000000000000
  0
ARC
  5
136
330
28
100
AcDbEntity
  8
# Zeichnungen 10
  6
CONTINUOUS
 62
     7
370
    18
100
AcDbCircle
 10
103.72222222222221
 20
-97.27777777777808
 30
0.00000000000000
 40
3.72222222222222
100
AcDbArc
 50
150.58330947085238
 51
29.41669052914762
  0
LINE
  5
137
330
28
100
AcDbEntity
  8
# Zeichnungen 10
  6
CONTINUOUS
 62
     7
370
    18
100
AcDbLine
 10
106.96454120537298
 20
-95.44958033682566
 30
0.00000000000000
 11
104.20212546129366
 21
-90.55041966317501
 31
0.00000000000000
  0
ARC
  5
138
330
28
100
AcDbEntity
  8
# Zeichnungen 10
  6
CONTINUOUS
 62
     7
370
    18
100
AcDbCircle
 10
107.44444444444444
 20
-88.72222222222257
 30
0.00000000000000
 40
3.72222222222222
100
AcDbArc
 50
330.58330947085210
 51
209.41669052914762
  0
LINE
  5
139
330
28
100
AcDbEntity
  8
# Zeichnungen 10
  6
CONTINUOUS
 62
     7
370
    18
100
AcDbLine
 10
110.68676342759520
 20
-90.55041966317504
 30
0.00000000000000
 11
107.92434768351589
 21
-95.44958033682566
 31
0.00000000000000
  0
ARC
  5
13A
330
28
100
AcDbEntity
  8
# Zeichnungen 10
  6
CONTINUOUS
 62
     7
370
    18
100
AcDbCircle
 10
111.16666666666663
 20
-97.27777777777808
 30
0.00000000000000
 40
3.72222222222222
100
AcDbArc
 50
150.58330947085238
 51
29.41669052914779
  0
LINE
  5
13B
330
28
100
AcDbEntity
  8
# Zeichnungen 10
  6
CONTINUOUS
 62
     7
370
    18
100
AcDbLine
 10
114.40898564981741
 20
-95.44958033682566
 30
0.00000000000000
 11
111.64656990573809
 21
-90.55041966317501
 31
0.00000000000000
  0
ARC
  5
13C
330
28
100
AcDbEntity
  8
# Zeichnungen 10
  6
CONTINUOUS
 62
     7
370
    18
100
AcDbCircle
 10
114.88888888888887
 20
-88.72222222222257
 30
0.00000000000000
 40
3.72222222222222
100
AcDbArc
 50
330.58330947085238
 51
209.41669052914762
  0
LINE
  5
13D
330
28
100
AcDbEntity
  8
# Zeichnungen 10
  6
CONTINUOUS
 62
     7
370
    18
100
AcDbLine
 10
118.13120787203964
 20
-90.55041966317501
 30
0.00000000000000
 11
115.36879212796032
 21
-95.44958033682566
 31
0.00000000000000
  0
ARC
  5
13E
330
28
100
AcDbEntity
  8
# Zeichnungen 10
  6
CONTINUOUS
 62
     7
370
    18
100
AcDbCircle
 10
118.61111111111110
 20
-97.27777777777808
 30
0.00000000000000
 40
3.72222222222222
100
AcDbArc
 50
150.58330947085238
 51
29.41669052914762
  0
LINE
  5
13F
330
28
100
AcDbEntity
  8
# Zeichnungen 10
  6
CONTINUOUS
 62
     7
370
    18
100
AcDbLine
 10
121.85343009426185
 20
-95.44958033682566
 30
0.00000000000000
 11
119.09101435018255
 21
-90.55041966317501
 31
0.00000000000000
  0
ARC
  5
140
330
28
100
AcDbEntity
  8
# Zeichnungen 10
  6
CONTINUOUS
 62
     7
370
    18
100
AcDbCircle
 10
122.33333333333331
 20
-88.72222222222256
 30
0.00000000000000
 40
3.72222222222222
100
AcDbArc
 50
330.58330947085204
 51
209.41669052914776
  0
LINE
  5
141
330
28
100
AcDbEntity
  8
# Zeichnungen 10
  6
CONTINUOUS
 62
     7
370
    18
100
AcDbLine
 10
125.57565231648407
 20
-90.55041966317501
 30
0.00000000000000
 11
122.81323657240472
 21
-95.44958033682561
 31
0.00000000000000
  0
ARC
  5
142
330
28
100
AcDbEntity
  8
# Zeichnungen 10
  6
CONTINUOUS
 62
     7
370
    18
100
AcDbCircle
 10
126.05555555555550
 20
-97.27777777777808
 30
0.00000000000000
 40
3.72222222222222
100
AcDbArc
 50
150.58330947085162
 51
29.41669052914745
  0
LINE
  5
143
330
28
100
AcDbEntity
  8
# Zeichnungen 10
  6
CONTINUOUS
 62
     7
370
    18
100
AcDbLine
 10
129.29787453870628
 20
-95.44958033682566
 30
0.00000000000000
 11
126.53545879462693
 21
-90.55041966317501
 31
0.00000000000000
  0
ARC
  5
144
330
28
100
AcDbEntity
  8
# Zeichnungen 10
  6
CONTINUOUS
 62
     7
370
    18
100
AcDbCircle
 10
129.77777777777771
 20
-88.72222222222256
 30
0.00000000000000
 40
3.72222222222222
100
AcDbArc
 50
330.58330947085250
 51
209.41669052914776
  0
LINE
  5
145
330
28
100
AcDbEntity
  8
# Zeichnungen 10
  6
CONTINUOUS
 62
     7
370
    18
100
AcDbLine
 10
133.02009676092848
 20
-90.55041966317499
 30
0.00000000000000
 11
130.25768101684918
 21
-95.44958033682566
 31
0.00000000000000
  0
ARC
  5
146
330
28
100
AcDbEntity
  8
# Zeichnungen 10
  6
CONTINUOUS
 62
     7
370
    18
100
AcDbCircle
 10
133.49999999999994
 20
-97.27777777777808
 30
0.00000000000000
 40
3.72222222222222
100
AcDbArc
 50
150.58330947085238
 51
269.99999999999983
  0
ENDBLK
  5
147
330
28
100
AcDbEntity
  8
0
100
AcDbBlockEnd
  0
BLOCK
  5
148
330
29
100
AcDbEntity
  8
0
100
AcDbBlockBegin
  2
*U13
 70
     1
 10
0.00000000000000
 20
0.00000000000000
 30
0.00000000000000
  3
*U13
  1

  0
ARC
  5
149
330
29
100
AcDbEntity
  8
# Zeichnungen 10
  6
CONTINUOUS
 62
     7
370
    18
100
AcDbCircle
 10
153.99999999999997
 20
-97.87500000000030
 30
0.00000000000000
 40
3.12500000000000
100
AcDbArc
 50
160.15018686193929
 51
270.00000000000000
  0
LINE
  5
14A
330
29
100
AcDbEntity
  8
# Zeichnungen 10
  6
CONTINUOUS
 62
     7
370
    18
100
AcDbLine
 10
151.06066902016303
 20
-96.81388813456340
 30
0.00000000000000
 11
153.81433097983688
 21
-89.18611186543726
 31
0.00000000000000
  0
ARC
  5
14B
330
29
100
AcDbEntity
  8
# Zeichnungen 10
  6
CONTINUOUS
 62
     7
370
    18
100
AcDbCircle
 10
150.87499999999997
 20
-88.12500000000036
 30
0.00000000000000
 40
3.12500000000001
100
AcDbArc
 50
340.15018686193912
 51
199.84981313806065
  0
LINE
  5
14C
330
29
100
AcDbEntity
  8
# Zeichnungen 10
  6
CONTINUOUS
 62
     7
370
    18
100
AcDbLine
 10
147.93566902016306
 20
-89.18611186543724
 30
0.00000000000000
 11
150.68933097983688
 21
-96.81388813456340
 31
0.00000000000000
  0
ARC
  5
14D
330
29
100
AcDbEntity
  8
# Zeichnungen 10
  6
CONTINUOUS
 62
     7
370
    18
100
AcDbCircle
 10
147.74999999999994
 20
-97.87500000000030
 30
0.00000000000000
 40
3.12500000000000
100
AcDbArc
 50
160.15018686193957
 51
19.84981313806071
  0
LINE
  5
14E
330
29
100
AcDbEntity
  8
# Zeichnungen 10
  6
CONTINUOUS
 62
     7
370
    18
100
AcDbLine
 10
144.81066902016300
 20
-96.81388813456340
 30
0.00000000000000
 11
147.56433097983685
 21
-89.18611186543728
 31
0.00000000000000
  0
ARC
  5
14F
330
29
100
AcDbEntity
  8
# Zeichnungen 10
  6
CONTINUOUS
 62
     7
370
    18
100
AcDbCircle
 10
144.62499999999991
 20
-88.12500000000038
 30
0.00000000000000
 40
3.12500000000001
100
AcDbArc
 50
340.15018686193912
 51
199.84981313806111
  0
LINE
  5
150
330
29
100
AcDbEntity
  8
# Zeichnungen 10
  6
CONTINUOUS
 62
     7
370
    18
100
AcDbLine
 10
141.68566902016300
 20
-89.18611186543728
 30
0.00000000000000
 11
144.43933097983683
 21
-96.81388813456336
 31
0.00000000000000
  0
ARC
  5
151
330
29
100
AcDbEntity
  8
# Zeichnungen 10
  6
CONTINUOUS
 62
     7
370
    18
100
AcDbCircle
 10
141.49999999999991
 20
-97.87500000000027
 30
0.00000000000000
 40
3.12500000000001
100
AcDbArc
 50
270.00000000000000
 51
19.84981313806110
  0
ENDBLK
  5
152
330
29
100
AcDbEntity
  8
0
100
AcDbBlockEnd
  0
BLOCK
  5
153
330
2A
100
AcDbEntity
  8
0
100
AcDbBlockBegin
  2
*U14
 70
     1
 10
0.00000000000000
 20
0.00000000000000
 30
0.00000000000000
  3
*U14
  1

  0
MTEXT
  5
154
330
2A
100
AcDbEntity
  8
# Zeichnungen 10
 62
     7
370
    20
100
AcDbMText
 10
118.99999999999997
 20
-210.20000000000005
 30
0.00000000000000
 40
2.20000000000000
 41
0.00000000000000
 71
     7
 72
     1
  1
\fArial Narrow|b0|i0;Zusätzliche Abstützung
 11
1.00000000000000
 21
0.00000000000000
 31
0.00000000000000
 73
     1
 44
1.00000000000000
  0
MTEXT
  5
155
330
2A
100
AcDbEntity
  8
# Zeichnungen 10
 62
     7
370
    20
100
AcDbMText
 10
118.99999999999997
 20
-211.80000000000004
 30
0.00000000000000
 40
2.20000000000000
 41
0.00000000000000
 71
     1
 72
     1
  1
\fArial Narrow|b0|i0;während Betoniervorgang erforderlich
 11
1.00000000000000
 21
0.00000000000000
 31
0.00000000000000
 73
     1
 44
1.00000000000000
  0
LINE
  5
156
330
2A
100
AcDbEntity
  8
# Zeichnungen 10
  6
CONTINUOUS
 62
    12
370
    25
100
AcDbLine
 10
120.99999999999999
 20
-219.00000000000006
 30
0.00000000000000
 11
116.99999999999997
 21
-211.00000000000006
 31
0.00000000000000
  0
HATCH
  5
157
330
2A
100
AcDbEntity
  8
# Zeichnungen 10
 62
    12
100
AcDbHatch
 10
0.00000000000000
 20
0.00000000000000
 30
0.00000000000000
210
0.00000000000000
220
0.00000000000000
230
1.00000000000000
  2
SOLID
 70
     1
 71
     0
 91
        1
 92
        0
 93
       16
 72
     1
 10
121.24999999999997
 20
-219.00000000000006
 11
121.23096988312781
 21
-218.90432914190879
 72
     1
 10
121.23096988312781
 20
-218.90432914190879
 11
121.17677669529661
 21
-218.82322330470339
 72
     1
 10
121.17677669529661
 20
-218.82322330470339
 11
121.09567085809125
 21
-218.76903011687224
 72
     1
 10
121.09567085809125
 20
-218.76903011687224
 11
120.99999999999999
 21
-218.75000000000006
 72
     1
 10
120.99999999999999
 20
-218.75000000000006
 11
120.90432914190869
 21
-218.76903011687224
 72
     1
 10
120.90432914190869
 20
-218.76903011687224
 11
120.82322330470335
 21
-218.82322330470339
 72
     1
 10
120.82322330470335
 20
-218.82322330470339
 11
120.76903011687214
 21
-218.90432914190879
 72
     1
 10
120.76903011687214
 20
-218.90432914190879
 11
120.74999999999999
 21
-219.00000000000006
 72
     1
 10
120.74999999999999
 20
-219.00000000000006
 11
120.76903011687214
 21
-219.09567085809130
 72
     1
 10
120.76903011687214
 20
-219.09567085809130
 11
120.82322330470335
 21
-219.17677669529670
 72
     1
 10
120.82322330470335
 20
-219.17677669529670
 11
120.90432914190869
 21
-219.23096988312784
 72
     1
 10
120.90432914190869
 20
-219.23096988312784
 11
120.99999999999999
 21
-219.25000000000006
 72
     1
 10
120.99999999999999
 20
-219.25000000000006
 11
121.09567085809125
 21
-219.23096988312784
 72
     1
 10
121.09567085809125
 20
-219.23096988312784
 11
121.17677669529661
 21
-219.17677669529670
 72
     1
 10
121.17677669529661
 20
-219.17677669529670
 11
121.23096988312781
 21
-219.09567085809130
 72
     1
 10
121.23096988312781
 20
-219.09567085809130
 11
121.24999999999997
 21
-219.00000000000006
 97
        0
 75
     0
 76
     0
 98
        1
 10
0.00000000000000
 20
0.00000000000000
  0
LWPOLYLINE
  5
158
330
2A
100
AcDbEntity
  8
# Zeichnungen 10
  6
CONTINUOUS
 62
    12
370
    25
100
AcDbPolyline
 90
       17
 70
   128
 10
121.24999999999997
 20
-219.00000000000006
 10
121.23096988312781
 20
-218.90432914190879
 10
121.17677669529661
 20
-218.82322330470339
 10
121.09567085809125
 20
-218.76903011687224
 10
120.99999999999999
 20
-218.75000000000006
 10
120.90432914190869
 20
-218.76903011687224
 10
120.82322330470335
 20
-218.82322330470339
 10
120.76903011687214
 20
-218.90432914190879
 10
120.74999999999999
 20
-219.00000000000006
 10
120.76903011687214
 20
-219.09567085809130
 10
120.82322330470335
 20
-219.17677669529670
 10
120.90432914190869
 20
-219.23096988312784
 10
120.99999999999999
 20
-219.25000000000006
 10
121.09567085809125
 20
-219.23096988312784
 10
121.17677669529661
 20
-219.17677669529670
 10
121.23096988312781
 20
-219.09567085809130
 10
121.24999999999997
 20
-219.00000000000006
  0
LINE
  5
159
330
2A
100
AcDbEntity
  8
# Zeichnungen 10
  6
CONTINUOUS
 62
    12
370
    25
100
AcDbLine
 10
116.99999999999997
 20
-211.00000000000006
 30
0.00000000000000
 11
161.47329291407465
 21
-211.00000000000006
 31
0.00000000000000
  0
ENDBLK
  5
15A
330
2A
100
AcDbEntity
  8
0
100
AcDbBlockEnd
  0
BLOCK
  5
15B
330
2B
100
AcDbEntity
  8
0
100
AcDbBlockBegin
  2
*U15
 70
     1
 10
0.00000000000000
 20
0.00000000000000
 30
0.00000000000000
  3
*U15
  1

  0
LINE
  5
15C
330
2B
100
AcDbEntity
  8
Planrahmen
  6
CONTINUOUS
 62
     7
370
    50
100
AcDbLine
 10
210.00000000000003
 20
0.00000000000000
 30
0.00000000000000
 11
210.00000000000003
 21
29.99999999999999
 31
0.00000000000000
  0
ENDBLK
  5
15D
330
2B
100
AcDbEntity
  8
0
100
AcDbBlockEnd
  0
ENDSEC
  0
SECTION
  2
ENTITIES
  0
SOLID
  5
15E
330
2D
100
AcDbEntity
  8
# Zeichnungen 10
 62
   254
100
AcDbTrace
 10
112.49999999999996
 20
-252.50000000000034
 30
0.00000000000000
 11
112.49999999999996
 21
-258.90000000000020
 31
0.00000000000000
 12
87.49999999999999
 22
-252.50000000000034
 32
0.00000000000000
 13
87.49999999999994
 23
-258.90000000000020
 33
0.00000000000000
  0
SOLID
  5
15F
330
2D
100
AcDbEntity
  8
# Zeichnungen 10
 62
   254
100
AcDbTrace
 10
112.49999999999996
 20
-225.60000000000016
 30
0.00000000000000
 11
112.49999999999996
 21
-232.00000000000017
 31
0.00000000000000
 12
87.49999999999999
 22
-225.60000000000016
 32
0.00000000000000
 13
87.49999999999999
 23
-232.00000000000026
 33
0.00000000000000
  0
SOLID
  5
160
330
2D
100
AcDbEntity
  8
# Zeichnungen 10
 62
    30
100
AcDbTrace
 10
112.49999999999996
 20
-258.90000000000020
 30
0.00000000000000
 11
112.49999999999996
 21
-260.50000000000011
 31
0.00000000000000
 12
87.49999999999994
 22
-258.90000000000020
 32
0.00000000000000
 13
87.49999999999994
 23
-260.50000000000011
 33
0.00000000000000
  0
HATCH
  5
161
330
2D
100
AcDbEntity
  8
# Zeichnungen 10
 62
     7
370
    18
100
AcDbHatch
 10
0.00000000000000
 20
0.00000000000000
 30
0.00000000000000
210
0.00000000000000
220
0.00000000000000
230
1.00000000000000
  2
SCHRAFFUR
 70
     0
 71
     0
 91
        1
 92
        0
 93
        4
 72
     1
 10
112.49999999999996
 20
-258.90000000000020
 11
112.49999999999996
 21
-260.50000000000011
 72
     1
 10
112.49999999999996
 20
-260.50000000000011
 11
87.49999999999994
 21
-260.50000000000011
 72
     1
 10
87.49999999999994
 20
-260.50000000000011
 11
87.49999999999994
 21
-258.90000000000020
 72
     1
 10
87.49999999999994
 20
-258.90000000000020
 11
112.49999999999996
 21
-258.90000000000020
 97
        0
 75
     0
 76
     0
 52
134.99999999999997
 41
1.00000000000000
 77
     0
 78
     1
 53
134.99999999999997
 43
122.00000000000016
 44
-79.39999999999992
 45
-0.70710678118655
 46
-0.70710678118655
 79
     0
 98
        1
 10
0.00000000000000
 20
0.00000000000000
  0
SOLID
  5
162
330
2D
100
AcDbEntity
  8
# Zeichnungen 10
 62
    30
100
AcDbTrace
 10
112.49999999999996
 20
-224.00000000000009
 30
0.00000000000000
 11
112.49999999999996
 21
-225.60000000000016
 31
0.00000000000000
 12
87.49999999999999
 22
-224.00000000000009
 32
0.00000000000000
 13
87.49999999999999
 23
-225.60000000000016
 33
0.00000000000000
  0
HATCH
  5
163
330
2D
100
AcDbEntity
  8
# Zeichnungen 10
 62
     7
370
    18
100
AcDbHatch
 10
0.00000000000000
 20
0.00000000000000
 30
0.00000000000000
210
0.00000000000000
220
0.00000000000000
230
1.00000000000000
  2
SCHRAFFUR
 70
     0
 71
     0
 91
        1
 92
        0
 93
        4
 72
     1
 10
112.49999999999996
 20
-224.00000000000009
 11
112.49999999999996
 21
-225.60000000000016
 72
     1
 10
112.49999999999996
 20
-225.60000000000016
 11
87.49999999999999
 21
-225.60000000000016
 72
     1
 10
87.49999999999999
 20
-225.60000000000016
 11
87.49999999999999
 21
-224.00000000000009
 72
     1
 10
87.49999999999999
 20
-224.00000000000009
 11
112.49999999999996
 21
-224.00000000000009
 97
        0
 75
     0
 76
     0
 52
134.99999999999997
 41
1.00000000000000
 77
     0
 78
     1
 53
134.99999999999997
 43
122.00000000000016
 44
-79.39999999999992
 45
-0.70710678118655
 46
-0.70710678118655
 79
     0
 98
        1
 10
0.00000000000000
 20
0.00000000000000
  0
SOLID
  5
164
330
2D
100
AcDbEntity
  8
# Zeichnungen 10
 62
    30
100
AcDbTrace
 10
160.00000000000011
 20
-260.50000000000011
 30
0.00000000000000
 11
160.00000000000011
 21
-223.99999999999997
 31
0.00000000000000
 12
112.49999999999993
 22
-260.50000000000017
 32
0.00000000000000
 13
112.49999999999996
 23
-223.99999999999997
 33
0.00000000000000
  0
HATCH
  5
165
330
2D
100
AcDbEntity
  8
# Zeichnungen 10
 62
     7
370
    18
100
AcDbHatch
 10
0.00000000000000
 20
0.00000000000000
 30
0.00000000000000
210
0.00000000000000
220
0.00000000000000
230
1.00000000000000
  2
SCHRAFFUR
 70
     0
 71
     0
 91
        1
 92
        0
 93
        4
 72
     1
 10
160.00000000000011
 20
-260.50000000000011
 11
160.00000000000011
 21
-223.99999999999997
 72
     1
 10
160.00000000000011
 20
-223.99999999999997
 11
112.49999999999996
 21
-223.99999999999997
 72
     1
 10
112.49999999999996
 20
-223.99999999999997
 11
112.49999999999993
 21
-260.50000000000017
 72
     1
 10
112.49999999999993
 20
-260.50000000000017
 11
160.00000000000011
 21
-260.50000000000011
 97
        0
 75
     0
 76
     0
 52
135.00000000000011
 41
1.00000000000000
 77
     0
 78
     1
 53
135.00000000000011
 43
135.99999999999997
 44
-46.40000000000018
 45
-2.82842712474618
 46
-2.82842712474620
 79
     0
 98
        1
 10
0.00000000000000
 20
0.00000000000000
  0
SOLID
  5
166
330
2D
100
AcDbEntity
  8
# Zeichnungen 10
 62
    30
100
AcDbTrace
 10
87.49999999999994
 20
-260.50000000000017
 30
0.00000000000000
 11
87.49999999999997
 21
-224.00000000000009
 31
0.00000000000000
 12
40.00000000000009
 22
-260.50000000000017
 32
0.00000000000000
 13
40.00000000000011
 23
-224.00000000000009
 33
0.00000000000000
  0
HATCH
  5
167
330
2D
100
AcDbEntity
  8
# Zeichnungen 10
 62
     7
370
    18
100
AcDbHatch
 10
0.00000000000000
 20
0.00000000000000
 30
0.00000000000000
210
0.00000000000000
220
0.00000000000000
230
1.00000000000000
  2
SCHRAFFUR
 70
     0
 71
     0
 91
        1
 92
        0
 93
        4
 72
     1
 10
87.49999999999994
 20
-260.50000000000017
 11
87.49999999999997
 21
-224.00000000000009
 72
     1
 10
87.49999999999997
 20
-224.00000000000009
 11
40.00000000000011
 21
-224.00000000000009
 72
     1
 10
40.00000000000011
 20
-224.00000000000009
 11
40.00000000000009
 21
-260.50000000000017
 72
     1
 10
40.00000000000009
 20
-260.50000000000017
 11
87.49999999999994
 21
-260.50000000000017
 97
        0
 75
     0
 76
     0
 52
135.00000000000011
 41
1.00000000000000
 77
     0
 78
     1
 53
135.00000000000011
 43
135.99999999999997
 44
-46.40000000000018
 45
-2.82842712474618
 46
-2.82842712474620
 79
     0
 98
        1
 10
0.00000000000000
 20
0.00000000000000
  0
HATCH
  5
168
330
2D
100
AcDbEntity
  8
# Zeichnungen 10
 62
     7
370
    18
100
AcDbHatch
 10
0.00000000000000
 20
0.00000000000000
 30
0.00000000000000
210
0.00000000000000
220
0.00000000000000
230
1.00000000000000
  2
SCHRAFFUR
 70
     0
 71
     0
 91
        1
 92
        0
 93
        4
 72
     1
 10
112.49999999999996
 20
-232.00000000000017
 11
112.49999999999996
 21
-252.50000000000034
 72
     1
 10
112.49999999999996
 20
-252.50000000000034
 11
87.49999999999999
 21
-252.50000000000034
 72
     1
 10
87.49999999999999
 20
-252.50000000000034
 11
87.49999999999999
 21
-232.00000000000026
 72
     1
 10
87.49999999999999
 20
-232.00000000000026
 11
112.49999999999996
 21
-232.00000000000017
 97
        0
 75
     0
 76
     0
 52
44.99999999999996
 41
1.00000000000000
 77
     0
 78
     2
 53
44.99999999999996
 43
162.87814127430667
 44
-259.24822911895996
 45
-5.65685424949238
 46
5.65685424949239
 79
     0
 53
44.99999999999996
 43
160.04971414956049
 44
-256.41980199421374
 45
-5.65685424949238
 46
5.65685424949239
 79
     2
 49
6.67000000000000
 49
-3.33000000000000
 98
        1
 10
0.00000000000000
 20
0.00000000000000
  0
SOLID
  5
169
330
2D
100
AcDbEntity
  8
# Zeichnungen 10
 62
    30
100
AcDbTrace
 10
112.49999999999996
 20
-135.00000000000020
 30
0.00000000000000
 11
112.49999999999996
 21
-187.00000000000026
 31
0.00000000000000
 12
87.49999999999999
 22
-135.00000000000020
 32
0.00000000000000
 13
87.49999999999999
 23
-187.00000000000026
 33
0.00000000000000
  0
HATCH
  5
16A
330
2D
100
AcDbEntity
  8
# Zeichnungen 10
 62
     7
370
    18
100
AcDbHatch
 10
0.00000000000000
 20
0.00000000000000
 30
0.00000000000000
210
0.00000000000000
220
0.00000000000000
230
1.00000000000000
  2
SCHRAFFUR
 70
     0
 71
     0
 91
        1
 92
        0
 93
        4
 72
     1
 10
112.49999999999996
 20
-135.00000000000020
 11
112.49999999999996
 21
-187.00000000000026
 72
     1
 10
112.49999999999996
 20
-187.00000000000026
 11
87.49999999999999
 21
-187.00000000000026
 72
     1
 10
87.49999999999999
 20
-187.00000000000026
 11
87.49999999999999
 21
-135.00000000000020
 72
     1
 10
87.49999999999999
 20
-135.00000000000020
 11
112.49999999999996
 21
-135.00000000000020
 97
        0
 75
     0
 76
     0
 52
0.00000000000000
 41
1.00000000000000
 77
     0
 78
     1
 53
0.00000000000000
 43
135.99999999999991
 44
-46.40000000000000
 45
0.00000000000000
 46
2.00000000000000
 79
     0
 98
        1
 10
0.00000000000000
 20
0.00000000000000
  0
SOLID
  5
16B
330
2D
100
AcDbEntity
  8
# Zeichnungen 10
 62
    30
100
AcDbTrace
 10
39.99999999999999
 20
-135.00000000000028
 30
0.00000000000000
 11
39.99999999999999
 21
-110.00000000000020
 31
0.00000000000000
 12
159.99999999999994
 22
-135.00000000000009
 32
0.00000000000000
 13
159.99999999999997
 23
-110.00000000000020
 33
0.00000000000000
  0
HATCH
  5
16C
330
2D
100
AcDbEntity
  8
# Zeichnungen 10
 62
     7
370
    18
100
AcDbHatch
 10
0.00000000000000
 20
0.00000000000000
 30
0.00000000000000
210
0.00000000000000
220
0.00000000000000
230
1.00000000000000
  2
SCHRAFFUR
 70
     0
 71
     0
 91
        1
 92
        0
 93
        4
 72
     1
 10
39.99999999999999
 20
-135.00000000000028
 11
39.99999999999999
 21
-110.00000000000020
 72
     1
 10
39.99999999999999
 20
-110.00000000000020
 11
159.99999999999997
 21
-110.00000000000020
 72
     1
 10
159.99999999999997
 20
-110.00000000000020
 11
159.99999999999994
 21
-135.00000000000009
 72
     1
 10
159.99999999999994
 20
-135.00000000000009
 11
39.99999999999999
 21
-135.00000000000028
 97
        0
 75
     0
 76
     0
 52
90.00000000000000
 41
1.00000000000000
 77
     0
 78
     1
 53
90.00000000000000
 43
135.99999999999991
 44
-46.40000000000000
 45
-2.00000000000000
 46
0.00000000000000
 79
     0
 98
        1
 10
0.00000000000000
 20
0.00000000000000
  0
HATCH
  5
16D
330
2D
100
AcDbEntity
  8
# Zeichnungen 10
 62
     7
370
    18
100
AcDbHatch
 10
0.00000000000000
 20
0.00000000000000
 30
0.00000000000000
210
0.00000000000000
220
0.00000000000000
230
1.00000000000000
  2
SCHRAFFUR
 70
     0
 71
     0
 91
        2
 92
        0
 93
        4
 72
     1
 10
40.00000000000009
 20
-207.00000000000006
 11
40.00000000000006
 21
-187.00000000000026
 72
     1
 10
40.00000000000006
 20
-187.00000000000026
 11
160.00000000000003
 21
-187.00000000000017
 72
     1
 10
160.00000000000003
 20
-187.00000000000017
 11
160.00000000000003
 21
-206.99999999999997
 72
     1
 10
160.00000000000003
 20
-206.99999999999997
 11
40.00000000000009
 21
-207.00000000000006
 97
        0
 92
       16
 93
        4
 72
     1
 10
87.99999999999996
 20
-200.00000000000006
 11
87.99999999999996
 21
-194.00000000000000
 72
     1
 10
87.99999999999996
 20
-194.00000000000000
 11
42.99999999999996
 21
-194.00000000000000
 72
     1
 10
42.99999999999996
 20
-194.00000000000000
 11
42.99999999999996
 21
-200.00000000000006
 72
     1
 10
42.99999999999996
 20
-200.00000000000006
 11
87.99999999999996
 21
-200.00000000000006
 97
        0
 75
     0
 76
     0
 52
44.99999999999996
 41
1.00000000000000
 77
     0
 78
     2
 53
44.99999999999996
 43
162.87814127430667
 44
-262.24822911895990
 45
-5.65685424949238
 46
5.65685424949239
 79
     0
 53
44.99999999999996
 43
160.04971414956049
 44
-259.41980199421369
 45
-5.65685424949238
 46
5.65685424949239
 79
     2
 49
6.67000000000000
 49
-3.33000000000000
 98
        1
 10
0.00000000000000
 20
0.00000000000000
  0
LINE
  5
16E
330
2D
100
AcDbEntity
  8
# Zeichnungen 10
  6
CONTINUOUS
 62
     7
370
    25
100
AcDbLine
 10
39.99999999999997
 20
-110.00000000000020
 30
0.00000000000000
 11
159.99999999999997
 21
-110.00000000000020
 31
0.00000000000000
  0
LINE
  5
16F
330
2D
100
AcDbEntity
  8
# Zeichnungen 10
  6
CONTINUOUS
 62
     7
370
    25
100
AcDbLine
 10
39.99999999999999
 20
-135.00000000000028
 30
0.00000000000000
 11
159.99999999999997
 21
-135.00000000000009
 31
0.00000000000000
  0
LINE
  5
170
330
2D
100
AcDbEntity
  8
# Zeichnungen 10
  6
CONTINUOUS
 62
     7
370
    25
100
AcDbLine
 10
87.49999999999994
 20
-135.00000000000028
 30
0.00000000000000
 11
87.49999999999994
 21
-187.00000000000006
 31
0.00000000000000
  0
LINE
  5
171
330
2D
100
AcDbEntity
  8
# Zeichnungen 10
  6
CONTINUOUS
 62
     7
370
    25
100
AcDbLine
 10
112.49999999999996
 20
-135.00000000000028
 30
0.00000000000000
 11
112.49999999999996
 21
-187.00000000000006
 31
0.00000000000000
  0
LINE
  5
172
330
2D
100
AcDbEntity
  8
# Zeichnungen 10
  6
CONTINUOUS
 62
     7
370
    18
100
AcDbLine
 10
39.99999999999999
 20
-101.00000000000030
 30
0.00000000000000
 11
153.99999999999997
 21
-101.00000000000030
 31
0.00000000000000
  0
LWPOLYLINE
  5
173
330
2D
100
AcDbEntity
  8
# Zeichnungen 10
  6
CONTINUOUS
 62
     7
370
    25
100
AcDbPolyline
 90
        4
 70
   129
 10
58.49999999999995
 20
-101.00000000000030
 10
66.49999999999996
 20
-101.00000000000030
 10
66.49999999999993
 20
-85.00000000000028
 10
58.49999999999994
 20
-85.00000000000028
  0
LWPOLYLINE
  5
174
330
2D
100
AcDbEntity
  8
# Zeichnungen 10
  6
CONTINUOUS
 62
     7
370
    25
100
AcDbPolyline
 90
        4
 70
   129
 10
133.49999999999994
 20
-101.00000000000030
 10
141.49999999999994
 20
-101.00000000000030
 10
141.49999999999991
 20
-85.00000000000028
 10
133.49999999999994
 20
-85.00000000000028
  0
LINE
  5
175
330
2D
100
AcDbEntity
  8
# Zeichnungen 10
  6
CONTINUOUS
 62
     7
370
    35
100
AcDbLine
 10
40.00000000000004
 20
-187.00000000000026
 30
0.00000000000000
 11
160.00000000000003
 21
-187.00000000000006
 31
0.00000000000000
  0
LINE
  5
176
330
2D
100
AcDbEntity
  8
# Zeichnungen 10
  6
CONTINUOUS
 62
     7
370
    35
100
AcDbLine
 10
40.00000000000009
 20
-207.00000000000006
 30
0.00000000000000
 11
160.00000000000003
 21
-206.99999999999997
 31
0.00000000000000
  0
LINE
  5
177
330
2D
100
AcDbEntity
  8
# Zeichnungen 10
  6
CONTINUOUS
 62
     7
370
    18
100
AcDbLine
 10
58.49999999999994
 20
-85.00000000000019
 30
0.00000000000000
 11
66.49999999999996
 21
-101.00000000000020
 31
0.00000000000000
  0
LINE
  5
178
330
2D
100
AcDbEntity
  8
# Zeichnungen 10
  6
CONTINUOUS
 62
     7
370
    18
100
AcDbLine
 10
58.49999999999994
 20
-101.00000000000020
 30
0.00000000000000
 11
66.49999999999993
 21
-85.00000000000019
 31
0.00000000000000
  0
LINE
  5
179
330
2D
100
AcDbEntity
  8
# Zeichnungen 10
  6
CONTINUOUS
 62
     7
370
    18
100
AcDbLine
 10
133.49999999999994
 20
-85.00000000000019
 30
0.00000000000000
 11
141.49999999999994
 21
-101.00000000000020
 31
0.00000000000000
  0
LINE
  5
17A
330
2D
100
AcDbEntity
  8
# Zeichnungen 10
  6
CONTINUOUS
 62
     7
370
    18
100
AcDbLine
 10
133.49999999999994
 20
-101.00000000000020
 30
0.00000000000000
 11
141.49999999999991
 21
-85.00000000000019
 31
0.00000000000000
  0
LINE
  5
17B
330
2D
100
AcDbEntity
  8
# Zeichnungen 10
  6
CONTINUOUS
 62
     7
370
    18
100
AcDbLine
 10
39.99999999999997
 20
-85.00000000000037
 30
0.00000000000000
 11
159.99999999999994
 21
-85.00000000000037
 31
0.00000000000000
  0
LINE
  5
17C
330
2D
100
AcDbEntity
  8
# Zeichnungen 10
  6
CONTINUOUS
 62
     7
370
    18
100
AcDbLine
 10
39.99999999999997
 20
-83.00000000000041
 30
0.00000000000000
 11
159.99999999999994
 21
-83.00000000000041
 31
0.00000000000000
  0
LINE
  5
17D
330
2D
100
AcDbEntity
  8
# Zeichnungen 10
  6
CONTINUOUS
 62
     7
370
     9
100
AcDbLine
 10
40.00000000000004
 20
-185.00000000000028
 30
0.00000000000000
 11
87.49999999999999
 21
-185.00000000000037
 31
0.00000000000000
  0
LINE
  5
17E
330
2D
100
AcDbEntity
  8
# Zeichnungen 10
  6
CONTINUOUS
 62
     7
370
     9
100
AcDbLine
 10
112.49999999999996
 20
-185.00000000000028
 30
0.00000000000000
 11
160.00000000000003
 21
-185.00000000000020
 31
0.00000000000000
  0
LINE
  5
17F
330
2D
100
AcDbEntity
  8
# Zeichnungen 10
  6
CONTINUOUS
 62
     7
370
     9
100
AcDbLine
 10
112.49999999999996
 20
-160.00000000000028
 30
0.00000000000000
 11
159.99999999999997
 21
-160.00000000000020
 31
0.00000000000000
  0
LINE
  5
180
330
2D
100
AcDbEntity
  8
# Zeichnungen 10
  6
CONTINUOUS
 62
     7
370
     9
100
AcDbLine
 10
40.00000000000006
 20
-160.00000000000028
 30
0.00000000000000
 11
87.49999999999999
 21
-160.00000000000028
 31
0.00000000000000
  0
LINE
  5
181
330
2D
100
AcDbEntity
  8
# Zeichnungen 10
  6
CONTINUOUS
 62
     7
370
     9
100
AcDbLine
 10
137.19999999999996
 20
-160.00000000000028
 30
0.00000000000000
 11
137.19999999999996
 21
-169.50125491246737
 31
0.00000000000000
  0
LINE
  5
182
330
2D
100
AcDbEntity
  8
# Zeichnungen 10
  6
CONTINUOUS
 62
     7
370
     9
100
AcDbLine
 10
137.19999999999996
 20
-180.25071772853570
 30
0.00000000000000
 11
137.19999999999996
 21
-185.00000000000011
 31
0.00000000000000
  0
LINE
  5
183
330
2D
100
AcDbEntity
  8
# Zeichnungen 10
  6
CONTINUOUS
 62
     7
370
     9
100
AcDbLine
 10
124.84999999999997
 20
-135.00000000000020
 30
0.00000000000000
 11
124.84999999999997
 21
-160.00000000000028
 31
0.00000000000000
  0
LINE
  5
184
330
2D
100
AcDbEntity
  8
# Zeichnungen 10
  6
CONTINUOUS
 62
     7
370
     9
100
AcDbLine
 10
149.54999999999995
 20
-135.00000000000020
 30
0.00000000000000
 11
149.54999999999995
 21
-160.00000000000028
 31
0.00000000000000
  0
LINE
  5
185
330
2D
100
AcDbEntity
  8
# Zeichnungen 10
  6
CONTINUOUS
 62
     7
370
     9
100
AcDbLine
 10
62.80000000000003
 20
-185.00000000000011
 30
0.00000000000000
 11
62.80000000000000
 21
-160.00000000000028
 31
0.00000000000000
  0
LINE
  5
186
330
2D
100
AcDbEntity
  8
# Zeichnungen 10
  6
CONTINUOUS
 62
     7
370
     9
100
AcDbLine
 10
75.15000000000001
 20
-160.00000000000028
 30
0.00000000000000
 11
75.15000000000001
 21
-135.00000000000020
 31
0.00000000000000
  0
LINE
  5
187
330
2D
100
AcDbEntity
  8
# Zeichnungen 10
  6
CONTINUOUS
 62
     7
370
     9
100
AcDbLine
 10
50.45000000000002
 20
-160.00000000000028
 30
0.00000000000000
 11
50.45000000000002
 21
-135.00000000000020
 31
0.00000000000000
  0
LINE
  5
188
330
2D
100
AcDbEntity
  8
# Zeichnungen 10
  6
CONTINUOUS
 62
     7
370
    35
100
AcDbLine
 10
40.00000000000011
 20
-224.00000000000009
 30
0.00000000000000
 11
160.00000000000006
 21
-223.99999999999997
 31
0.00000000000000
  0
LINE
  5
189
330
2D
100
AcDbEntity
  8
# Zeichnungen 10
  6
CONTINUOUS
 62
     7
370
    35
100
AcDbLine
 10
40.00000000000015
 20
-260.50000000000017
 30
0.00000000000000
 11
160.00000000000011
 21
-260.50000000000011
 31
0.00000000000000
  0
LINE
  5
18A
330
2D
100
AcDbEntity
  8
# Zeichnungen 10
  6
CONTINUOUS
 62
     7
370
    35
100
AcDbLine
 10
87.49999999999999
 20
-224.00000000000009
 30
0.00000000000000
 11
87.49999999999994
 21
-260.50000000000017
 31
0.00000000000000
  0
LINE
  5
18B
330
2D
100
AcDbEntity
  8
# Zeichnungen 10
  6
CONTINUOUS
 62
     7
370
    35
100
AcDbLine
 10
112.49999999999996
 20
-224.00000000000009
 30
0.00000000000000
 11
112.49999999999996
 21
-260.50000000000017
 31
0.00000000000000
  0
LINE
  5
18C
330
2D
100
AcDbEntity
  8
# Zeichnungen 10
  6
CONTINUOUS
 62
     7
370
    35
100
AcDbLine
 10
112.49999999999996
 20
-232.00000000000009
 30
0.00000000000000
 11
87.49999999999999
 21
-232.00000000000026
 31
0.00000000000000
  0
LINE
  5
18D
330
2D
100
AcDbEntity
  8
# Zeichnungen 10
  6
CONTINUOUS
 62
     7
370
    35
100
AcDbLine
 10
87.49999999999994
 20
-252.50000000000028
 30
0.00000000000000
 11
112.49999999999993
 21
-252.50000000000034
 31
0.00000000000000
  0
LINE
  5
18E
330
2D
100
AcDbEntity
  8
# Zeichnungen 10
  6
CONTINUOUS
 62
     7
370
    18
100
AcDbLine
 10
87.49999999999999
 20
-225.60000000000008
 30
0.00000000000000
 11
112.49999999999996
 21
-225.60000000000008
 31
0.00000000000000
  0
LINE
  5
18F
330
2D
100
AcDbEntity
  8
# Zeichnungen 10
  6
CONTINUOUS
 62
     7
370
    18
100
AcDbLine
 10
112.49999999999996
 20
-258.90000000000032
 30
0.00000000000000
 11
87.49999999999994
 21
-258.90000000000020
 31
0.00000000000000
  0
INSERT
  5
2F
330
2D
100
AcDbEntity
  8
# Zeichnungen 10
 62
     5
370
    25
100
AcDbBlockReference
  2
*U1
 10
0.00000000000000
 20
0.00000000000000
 30
0.00000000000000
  0
INSERT
  5
30
330
2D
100
AcDbEntity
  8
# Zeichnungen 10
 62
     5
370
    25
100
AcDbBlockReference
  2
*U2
 10
0.00000000000000
 20
0.00000000000000
 30
0.00000000000000
  0
MTEXT
  5
190
330
2D
100
AcDbEntity
  8
# Zeichnungen 10
 62
     7
370
    35
100
AcDbMText
 10
43.99999999999993
 20
-197.00000000000020
 30
0.00000000000000
 40
3.50000000000000
 41
0.00000000000000
 71
     4
 72
     1
  1
\fArial Narrow|b0|i0;Oberste Geschossdecke
 11
1.00000000000000
 21
0.00000000000000
 31
0.00000000000000
 73
     1
 44
1.00000000000000
  0
MTEXT
  5
191
330
2D
100
AcDbEntity
  8
# Zeichnungen 10
 62
     7
370
    35
100
AcDbMText
 10
43.99999999999993
 20
-77.00000000000001
 30
0.00000000000000
 40
3.50000000000000
 41
0.00000000000000
 71
     4
 72
     1
  1
\fArial Narrow|b0|i0;Ansicht Brüstung / Kniestock:
 11
1.00000000000000
 21
0.00000000000000
 31
0.00000000000000
 73
     1
 44
1.00000000000000
  0
LINE
  5
192
330
2D
100
AcDbEntity
  8
# Zeichnungen 10
  6
CONTINUOUS
 62
     7
370
    25
100
AcDbLine
 10
42.99999999999996
 20
-79.50000000000013
 30
0.00000000000000
 11
70.99999999999994
 21
-79.50000000000004
 31
0.00000000000000
  0
LINE
  5
193
330
2D
100
AcDbEntity
  8
# Zeichnungen 10
  6
CONTINUOUS
 62
     7
370
    25
100
AcDbLine
 10
73.99999999999996
 20
-79.50000000000013
 30
0.00000000000000
 11
95.99999999999993
 21
-79.50000000000004
 31
0.00000000000000
  0
LINE
  5
194
330
2D
100
AcDbEntity
  8
# Zeichnungen 10
  6
DC_MITTELLINIE
 62
     7
 48
0.40000000000000
370
    35
100
AcDbLine
 10
107.99999999999994
 20
-147.99999999999991
 30
0.00000000000000
 11
132.99999999999994
 21
-148.00000000000000
 31
0.00000000000000
  0
SOLID
  5
195
330
2D
100
AcDbEntity
  8
# Zeichnungen 10
 62
     7
100
AcDbTrace
 10
132.99999999999994
 20
-148.79999999999995
 30
0.00000000000000
 11
129.99999999999994
 21
-150.79999999999995
 31
0.00000000000000
 12
126.99999999999994
 22
-148.79999999999995
 32
0.00000000000000
 13
126.99999999999994
 23
-148.79999999999995
 33
0.00000000000000
  0
LWPOLYLINE
  5
196
330
2D
100
AcDbEntity
  8
# Zeichnungen 10
  6
CONTINUOUS
 62
     7
370
    35
100
AcDbPolyline
 90
        3
 70
   129
 10
132.99999999999994
 20
-148.79999999999995
 10
129.99999999999994
 20
-150.79999999999995
 10
126.99999999999994
 20
-148.79999999999995
  0
LINE
  5
197
330
2D
100
AcDbEntity
  8
# Zeichnungen 10
  6
DC_MITTELLINIE
 62
     7
 48
0.40000000000000
370
    35
100
AcDbLine
 10
67.00000000000004
 20
-148.00000000000000
 30
0.00000000000000
 11
92.00000000000004
 21
-147.99999999999991
 31
0.00000000000000
  0
SOLID
  5
198
330
2D
100
AcDbEntity
  8
# Zeichnungen 10
 62
     7
100
AcDbTrace
 10
73.00000000000004
 20
-148.79999999999995
 30
0.00000000000000
 11
70.00000000000004
 21
-150.79999999999995
 31
0.00000000000000
 12
67.00000000000004
 22
-148.79999999999995
 32
0.00000000000000
 13
67.00000000000004
 23
-148.79999999999995
 33
0.00000000000000
  0
LWPOLYLINE
  5
199
330
2D
100
AcDbEntity
  8
# Zeichnungen 10
  6
CONTINUOUS
 62
     7
370
    35
100
AcDbPolyline
 90
        3
 70
   129
 10
73.00000000000004
 20
-148.79999999999995
 10
70.00000000000004
 20
-150.79999999999995
 10
67.00000000000004
 20
-148.79999999999995
  0
MTEXT
  5
19A
330
2D
100
AcDbEntity
  8
# Zeichnungen 10
 62
     7
370
    30
100
AcDbMText
 10
129.99999999999994
 20
-145.03925568200000
 30
0.00000000000000
 40
2.80000000000000
 41
0.00000000000000
 71
     5
 72
     1
  1
\Ftxt;\W0.70;I
 11
1.00000000000000
 21
0.00000000000000
 31
0.00000000000000
 73
     1
 44
1.01519979696004
  0
MTEXT
  5
19B
330
2D
100
AcDbEntity
  8
# Zeichnungen 10
 62
     7
370
    30
100
AcDbMText
 10
70.00000000000004
 20
-145.03925568200000
 30
0.00000000000000
 40
2.80000000000000
 41
0.00000000000000
 71
     5
 72
     1
  1
\Ftxt;\W0.70;I
 11
1.00000000000000
 21
0.00000000000000
 31
0.00000000000000
 73
     1
 44
1.01519979696004
  0
MTEXT
  5
19C
330
2D
100
AcDbEntity
  8
# Zeichnungen 10
 62
     7
370
    35
100
AcDbMText
 10
43.99999999999991
 20
-217.99999999999966
 30
0.00000000000000
 40
3.50000000000000
 41
0.00000000000000
 71
     4
 72
     1
  1
\fArial Narrow|b0|i0;Schnitt I - I (Grundriss):
 11
1.00000000000000
 21
0.00000000000000
 31
0.00000000000000
 73
     1
 44
1.00000000000000
  0
LINE
  5
19D
330
2D
100
AcDbEntity
  8
# Zeichnungen 10
  6
CONTINUOUS
 62
     7
370
    25
100
AcDbLine
 10
42.99999999999993
 20
-220.49999999999980
 30
0.00000000000000
 11
85.99999999999994
 21
-220.49999999999989
 31
0.00000000000000
  0
INSERT
  5
31
330
2D
100
AcDbEntity
  8
# Zeichnungen 10
 62
     7
370
    25
100
AcDbBlockReference
  2
*U3
 10
0.00000000000000
 20
0.00000000000000
 30
0.00000000000000
  0
INSERT
  5
32
330
2D
100
AcDbEntity
  8
# Zeichnungen 10
 62
     7
370
    25
100
AcDbBlockReference
  2
*U4
 10
0.00000000000000
 20
0.00000000000000
 30
0.00000000000000
  0
INSERT
  5
33
330
2D
100
AcDbEntity
  8
# Zeichnungen 10
 62
     7
370
    25
100
AcDbBlockReference
  2
*U5
 10
0.00000000000000
 20
0.00000000000000
 30
0.00000000000000
  0
INSERT
  5
34
330
2D
100
AcDbEntity
  8
# Zeichnungen 10
 62
     7
370
    25
100
AcDbBlockReference
  2
*U6
 10
0.00000000000000
 20
0.00000000000000
 30
0.00000000000000
  0
INSERT
  5
35
330
2D
100
AcDbEntity
  8
# Zeichnungen 10
 62
     7
370
    25
100
AcDbBlockReference
  2
*U7
 10
0.00000000000000
 20
0.00000000000000
 30
0.00000000000000
  0
INSERT
  5
36
330
2D
100
AcDbEntity
  8
# Zeichnungen 10
 62
     7
370
    25
100
AcDbBlockReference
  2
*D1
 10
0.00000000000000
 20
0.00000000000000
 30
0.00000000000000
  0
INSERT
  5
37
330
2D
100
AcDbEntity
  8
# Zeichnungen 10
 62
     7
370
    25
100
AcDbBlockReference
  2
*D2
 10
0.00000000000000
 20
0.00000000000000
 30
0.00000000000000
  0
INSERT
  5
38
330
2D
100
AcDbEntity
  8
# Zeichnungen 10
 62
     7
370
    25
100
AcDbBlockReference
  2
*D3
 10
0.00000000000000
 20
0.00000000000000
 30
0.00000000000000
  0
INSERT
  5
39
330
2D
100
AcDbEntity
  8
# Zeichnungen 10
 62
     7
370
    25
100
AcDbBlockReference
  2
*D4
 10
0.00000000000000
 20
0.00000000000000
 30
0.00000000000000
  0
INSERT
  5
3A
330
2D
100
AcDbEntity
  8
# Zeichnungen 10
 62
     7
370
    25
100
AcDbBlockReference
  2
*D5
 10
0.00000000000000
 20
0.00000000000000
 30
0.00000000000000
  0
INSERT
  5
3B
330
2D
100
AcDbEntity
  8
# Zeichnungen 10
 62
     7
370
    25
100
AcDbBlockReference
  2
*U8
 10
0.00000000000000
 20
0.00000000000000
 30
0.00000000000000
  0
INSERT
  5
3C
330
2D
100
AcDbEntity
  8
# Zeichnungen 10
 62
     7
370
    25
100
AcDbBlockReference
  2
*U9
 10
0.00000000000000
 20
0.00000000000000
 30
0.00000000000000
  0
INSERT
  5
3D
330
2D
100
AcDbEntity
  8
# Zeichnungen 10
 62
     7
370
    25
100
AcDbBlockReference
  2
*U10
 10
0.00000000000000
 20
0.00000000000000
 30
0.00000000000000
  0
MTEXT
  5
19E
330
2D
100
AcDbEntity
  8
Planrahmen
 62
     7
370
    50
100
AcDbMText
 10
24.99999999999996
 20
-10.00000000000001
 30
0.00000000000000
 40
5.00000000000000
 41
0.00000000000000
 71
     1
 72
     1
  1
\fArial|b0|i0;Detail DA-02.1\P\H0.7x;Windstütze (Kniestock)\Pmit Dämmschale für Ringanker DSR 365
 11
1.00000000000000
 21
0.00000000000000
 31
0.00000000000000
 73
     1
 44
1.00000000000000
  0
MTEXT
  5
19F
330
2D
100
AcDbEntity
  8
# Zeichnungen 10
 62
     7
370
    25
100
AcDbMText
 10
25.00000000000012
 20
-272.99999999999949
 30
0.00000000000000
 40
2.50000000000000
 41
0.00000000000000
 71
     1
 72
     1
  1
\fArial Narrow|b0|i0;Die Dämmschale für Ringanker ist anwendbar für die Wandstärken 30 cm / 36,5 cm / 42,5 cm / 49 cm.\PDie Lieferung erfolgt jeweils inkl. der für die gewünschte Wandstärke benötigten Montagebügel.
 11
1.00000000000000
 21
0.00000000000000
 31
0.00000000000000
 73
     1
 44
1.00000000000000
  0
INSERT
  5
3E
330
2D
100
AcDbEntity
  8
# Zeichnungen 10
 62
     5
370
    25
100
AcDbBlockReference
  2
*U11
 10
0.00000000000000
 20
0.00000000000000
 30
0.00000000000000
  0
INSERT
  5
3F
330
2D
100
AcDbEntity
  8
# Zeichnungen 10
 62
     5
370
    25
100
AcDbBlockReference
  2
*U12
 10
0.00000000000000
 20
0.00000000000000
 30
0.00000000000000
  0
INSERT
  5
40
330
2D
100
AcDbEntity
  8
# Zeichnungen 10
 62
     5
370
    25
100
AcDbBlockReference
  2
*U13
 10
0.00000000000000
 20
0.00000000000000
 30
0.00000000000000
  0
INSERT
  5
41
330
2D
100
AcDbEntity
  8
# Zeichnungen 10
 62
     7
370
    25
100
AcDbBlockReference
  2
*U14
 10
0.00000000000000
 20
0.00000000000000
 30
0.00000000000000
  0
LWPOLYLINE
  5
1A0
330
2D
100
AcDbEntity
  8
Planrahmen
  6
CONTINUOUS
 62
     7
370
     0
100
AcDbPolyline
 90
       29
 70
   129
 10
173.38639999999998
 20
-12.97660000000002
 10
173.30445000000000
 20
-12.97660000000002
 10
173.05955000000000
 20
-12.91145000000003
 10
172.80640000000008
 20
-12.71565000000002
 10
172.64285000000007
 20
-12.38820000000002
 10
172.58480000000003
 20
-12.04320000000002
 10
172.58480000000003
 20
-11.92815000000002
 10
172.58480000000003
 20
-11.81585000000002
 10
172.64040000000008
 20
-11.47945000000002
 10
172.79960000000000
 20
-11.16235000000001
 10
173.05030000000005
 20
-10.97410000000002
 10
173.29794999999999
 20
-10.91195000000002
 10
173.38069999999999
 20
-10.91195000000002
 10
173.45800000000006
 20
-10.91195000000002
 10
173.68995000000004
 20
-10.97140000000002
 10
173.93105000000003
 20
-11.15425000000002
 10
174.08790000000002
 20
-11.46565000000001
 10
174.14405000000005
 20
-11.79990000000002
 10
174.14405000000005
 20
-11.91135000000002
 10
174.14405000000005
 20
-11.97835000000002
 10
174.12940000000003
 20
-12.17930000000002
 10
174.08730000000000
 20
-12.40425000000002
 10
174.02010000000007
 20
-12.58840000000002
 10
173.92975000000004
 20
-12.73410000000002
 10
173.81905000000003
 20
-12.84340000000002
 10
173.68995000000004
 20
-12.91885000000002
 10
173.54480000000001
 20
-12.96250000000002
 10
173.42600000000002
 20
-12.97660000000002
 10
173.38639999999998
 20
-12.97660000000002
  0
LWPOLYLINE
  5
1A1
330
2D
100
AcDbEntity
  8
Planrahmen
  6
CONTINUOUS
 62
     7
370
     0
100
AcDbPolyline
 90
       41
 70
   129
 10
173.40835000000004
 20
-9.89635000000002
 10
173.29635000000005
 20
-9.89635000000002
 10
172.96080000000009
 20
-9.93190000000001
 10
172.56010000000003
 20
-10.03690000000002
 10
172.21015000000000
 20
-10.20780000000002
 10
171.91475000000005
 20
-10.44105000000002
 10
171.67820000000006
 20
-10.73375000000002
 10
171.50405000000006
 20
-11.08210000000002
 10
171.39690000000002
 20
-11.48300000000001
 10
171.36030000000008
 20
-11.82070000000002
 10
171.36030000000008
 20
-11.93330000000002
 10
171.36030000000008
 20
-12.05020000000002
 10
171.39690000000002
 20
-12.40100000000002
 10
171.50490000000002
 20
-12.81140000000002
 10
171.67935000000006
 20
-13.16245000000002
 10
171.91614999999999
 20
-13.45320000000002
 10
172.21129999999999
 20
-13.68190000000002
 10
172.56010000000003
 20
-13.84710000000002
 10
172.95854999999997
 20
-13.94715000000002
 10
173.29140000000004
 20
-13.98110000000002
 10
173.40265000000005
 20
-13.98110000000002
 10
173.50415000000001
 20
-13.98110000000002
 10
173.80880000000005
 20
-13.95070000000002
 10
174.18310000000008
 20
-13.85875000000002
 10
174.51835000000000
 20
-13.70390000000002
 10
174.80810000000008
 20
-13.48465000000002
 10
175.04544999999999
 20
-13.19985000000002
 10
175.22344999999999
 20
-12.84830000000002
 10
175.33515000000006
 20
-12.42805000000002
 10
175.37400000000008
 20
-12.06105000000002
 10
175.37400000000008
 20
-11.93875000000002
 10
175.37400000000008
 20
-11.82320000000002
 10
175.33789999999999
 20
-11.47730000000002
 10
175.23345000000006
 20
-11.07070000000002
 10
175.06475000000003
 20
-10.72080000000002
 10
174.83580000000003
 20
-10.42965000000002
 10
174.55120000000008
 20
-10.19940000000001
 10
174.21564999999998
 20
-10.03225000000002
 10
173.83315000000005
 20
-9.93055000000002
 10
173.51440000000002
 20
-9.89635000000002
 10
173.40835000000004
 20
-9.89635000000002
  0
LWPOLYLINE
  5
1A2
330
2D
100
AcDbEntity
  8
Planrahmen
  6
CONTINUOUS
 62
     7
370
     0
100
AcDbPolyline
 90
        5
 70
   129
 10
173.68940000000003
 20
-8.99740000000002
 10
174.60245000000000
 20
-8.99740000000002
 10
174.60245000000000
 20
-9.77210000000001
 10
173.68940000000003
 20
-9.77210000000001
 10
173.68940000000003
 20
-8.99740000000002
  0
LWPOLYLINE
  5
1A3
330
2D
100
AcDbEntity
  8
Planrahmen
  6
CONTINUOUS
 62
     7
370
     0
100
AcDbPolyline
 90
        7
 70
   129
 10
179.80650000000014
 20
-13.87670000000002
 10
179.80650000000014
 20
-10.00050000000002
 10
180.99760000000015
 20
-10.00050000000002
 10
180.99760000000015
 20
-12.99285000000002
 10
182.46925000000007
 20
-12.99285000000002
 10
182.46925000000007
 20
-13.87670000000002
 10
179.80650000000014
 20
-13.87670000000002
  0
LWPOLYLINE
  5
1A4
330
2D
100
AcDbEntity
  8
Planrahmen
  6
CONTINUOUS
 62
     7
370
     0
100
AcDbPolyline
 90
       13
 70
   129
 10
184.16600000000000
 20
-13.87670000000002
 10
184.16600000000000
 20
-12.43840000000002
 10
182.82105000000010
 20
-12.43840000000002
 10
182.82105000000010
 20
-11.43475000000001
 10
184.16600000000000
 20
-11.43475000000001
 10
184.16600000000000
 20
-10.00105000000002
 10
185.33730000000008
 20
-10.00105000000002
 10
185.33730000000008
 20
-11.43475000000001
 10
186.68280000000010
 20
-11.43475000000001
 10
186.68280000000010
 20
-12.43840000000002
 10
185.33730000000008
 20
-12.43840000000002
 10
185.33730000000008
 20
-13.87670000000002
 10
184.16600000000000
 20
-13.87670000000002
  0
LWPOLYLINE
  5
1A5
330
2D
100
AcDbEntity
  8
Planrahmen
  6
CONTINUOUS
 62
     7
370
     0
100
AcDbPolyline
 90
       20
 70
   129
 10
177.98275000000012
 20
-11.52725000000002
 10
177.96479999999997
 20
-11.54350000000002
 10
177.83460000000011
 20
-11.60340000000002
 10
177.65314999999998
 20
-11.63110000000002
 10
177.59265000000008
 20
-11.63110000000002
 10
177.04365000000004
 20
-11.63110000000002
 10
177.04365000000004
 20
-10.91765000000002
 10
177.58185000000009
 20
-10.91765000000002
 10
177.63635000000005
 20
-10.91765000000002
 10
177.79990000000006
 20
-10.93480000000002
 10
177.92440000000013
 20
-10.97680000000002
 10
177.94370000000009
 20
-10.98930000000001
 10
177.96705000000006
 20
-11.00425000000001
 10
178.04190000000014
 20
-11.10705000000002
 10
178.07010000000005
 20
-11.23235000000002
 10
178.07010000000005
 20
-11.27440000000002
 10
178.07010000000005
 20
-11.31265000000001
 10
178.04675000000009
 20
-11.42765000000002
 10
177.99630000000005
 20
-11.51340000000002
 10
177.98275000000012
 20
-11.52725000000002
  0
LWPOLYLINE
  5
1A6
330
2D
100
AcDbEntity
  8
Planrahmen
  6
CONTINUOUS
 62
     7
370
     0
100
AcDbPolyline
 90
       27
 70
   129
 10
178.53130000000010
 20
-12.34535000000002
 10
178.61995000000002
 20
-12.31475000000002
 10
178.87085000000008
 20
-12.17855000000002
 10
179.12070000000008
 20
-11.93955000000002
 10
179.27480000000011
 20
-11.62330000000002
 10
179.32740000000007
 20
-11.32460000000002
 10
179.32740000000007
 20
-11.22530000000002
 10
179.32740000000007
 20
-11.13820000000002
 10
179.29540000000006
 20
-10.87725000000002
 10
179.19475000000011
 20
-10.58890000000002
 10
179.01925000000003
 20
-10.35480000000002
 10
178.83100000000013
 20
-10.20780000000002
 10
178.76210000000009
 20
-10.17090000000002
 10
178.71655000000001
 20
-10.14645000000002
 10
178.56975000000003
 20
-10.09330000000002
 10
178.32810000000003
 20
-10.04045000000001
 10
178.03295000000014
 20
-10.01000000000002
 10
177.76845000000003
 20
-10.00050000000002
 10
177.68030000000007
 20
-10.00050000000002
 10
175.85765000000015
 20
-10.00050000000002
 10
175.85765000000015
 20
-13.87670000000002
 10
177.04365000000004
 20
-13.87670000000002
 10
177.04365000000004
 20
-12.53715000000002
 10
177.39515000000011
 20
-12.53715000000002
 10
178.13630000000009
 20
-13.87670000000002
 10
179.48690000000005
 20
-13.87670000000002
 10
178.53130000000010
 20
-12.34535000000002
  0
LWPOLYLINE
  5
1A7
330
2D
100
AcDbEntity
  8
Planrahmen
  6
CONTINUOUS
 62
     7
370
     0
100
AcDbPolyline
 90
       13
 70
   129
 10
169.67140000000006
 20
-18.59405000000003
 10
169.67140000000006
 20
-17.08495000000002
 10
168.54480000000001
 20
-17.08495000000002
 10
168.54480000000001
 20
-18.59405000000003
 10
167.35285000000002
 20
-18.59405000000003
 10
167.35285000000002
 20
-14.73360000000002
 10
168.54480000000001
 20
-14.73360000000002
 10
168.54480000000001
 20
-16.08965000000002
 10
169.67140000000006
 20
-16.08965000000002
 10
169.67140000000006
 20
-14.73360000000002
 10
170.86905000000002
 20
-14.73360000000002
 10
170.86905000000002
 20
-18.59405000000003
 10
169.67140000000006
 20
-18.59405000000003
  0
LWPOLYLINE
  5
1A8
330
2D
100
AcDbEntity
  8
Planrahmen
  6
CONTINUOUS
 62
     7
370
     0
100
AcDbPolyline
 90
        9
 70
   129
 10
180.25050000000005
 20
-18.59405000000003
 10
180.25050000000005
 20
-15.65240000000003
 10
179.27755000000005
 20
-15.65240000000003
 10
179.27755000000005
 20
-14.73360000000002
 10
182.42175000000009
 20
-14.73360000000002
 10
182.42175000000009
 20
-15.65240000000003
 10
181.45390000000012
 20
-15.65240000000003
 10
181.45390000000012
 20
-18.59405000000003
 10
180.25050000000005
 20
-18.59405000000003
  0
LWPOLYLINE
  5
1A9
330
2D
100
AcDbEntity
  8
Planrahmen
  6
CONTINUOUS
 62
     7
370
     0
100
AcDbPolyline
 90
       44
 70
   129
 10
186.20510000000007
 20
-18.59405000000003
 10
186.20510000000007
 20
-18.37780000000003
 10
186.20620000000014
 20
-17.73000000000002
 10
186.21105000000009
 20
-17.06645000000003
 10
186.22115000000011
 20
-16.50635000000002
 10
186.23335000000012
 20
-16.09125000000002
 10
186.23820000000006
 20
-15.95320000000002
 10
186.21300000000014
 20
-16.05035000000003
 10
186.13790000000003
 20
-16.34195000000002
 10
186.00630000000001
 20
-16.84490000000002
 10
185.81425000000013
 20
-17.56210000000003
 10
185.60320000000002
 20
-18.33605000000003
 10
185.53240000000008
 20
-18.59405000000003
 10
184.56475000000000
 20
-18.59405000000003
 10
184.50725000000006
 20
-18.39030000000003
 10
184.33830000000000
 20
-17.77805000000003
 10
184.15705000000008
 20
-17.09800000000002
 10
184.00460000000012
 20
-16.49875000000003
 10
183.89905000000010
 20
-16.06850000000002
 10
183.86460000000011
 20
-15.92530000000002
 10
183.86685000000008
 20
-16.01910000000002
 10
183.87355000000011
 20
-16.30155000000002
 10
183.88255000000004
 20
-16.79010000000002
 10
183.88935000000001
 20
-17.51330000000003
 10
183.89230000000006
 20
-18.32385000000002
 10
183.89230000000006
 20
-18.59405000000003
 10
182.76545000000004
 20
-18.59405000000003
 10
182.76545000000004
 20
-14.73360000000002
 10
184.44435000000010
 20
-14.73360000000002
 10
184.50210000000015
 20
-14.94600000000002
 10
184.67245000000003
 20
-15.58510000000003
 10
184.84635000000009
 20
-16.26330000000002
 10
184.97495000000012
 20
-16.79580000000003
 10
185.04544999999999
 20
-17.10670000000002
 10
185.06775000000013
 20
-17.21055000000003
 10
185.08560000000000
 20
-17.11340000000002
 10
185.14475000000002
 20
-16.82370000000002
 10
185.25790000000003
 20
-16.32485000000002
 10
185.42605000000006
 20
-15.64965000000002
 10
185.60725000000005
 20
-14.96230000000002
 10
185.66940000000002
 20
-14.73360000000002
 10
187.33170000000004
 20
-14.73360000000002
 10
187.33170000000004
 20
-18.59405000000003
 10
186.20510000000007
 20
-18.59405000000003
  0
LWPOLYLINE
  5
1AA
330
2D
100
AcDbEntity
  8
Planrahmen
  6
CONTINUOUS
 62
     7
370
     0
100
AcDbPolyline
 90
       31
 70
   129
 10
193.35630000000009
 20
-14.73360000000002
 10
193.45230000000006
 20
-14.90940000000002
 10
193.73935000000014
 20
-15.43805000000002
 10
194.04230000000015
 20
-16.00745000000002
 10
194.28810000000001
 20
-16.48680000000002
 10
194.44760000000011
 20
-16.81175000000002
 10
194.49915000000013
 20
-16.92110000000002
 10
194.49370000000016
 20
-16.83760000000002
 10
194.48150000000012
 20
-16.58690000000002
 10
194.46955000000014
 20
-16.17590000000002
 10
194.46280000000010
 20
-15.59055000000002
 10
194.46085000000008
 20
-14.94765000000002
 10
194.46085000000008
 20
-14.73360000000002
 10
195.63650000000015
 20
-14.73360000000002
 10
195.63650000000015
 20
-18.59405000000003
 10
194.34560000000005
 20
-18.59405000000003
 10
194.25120000000001
 20
-18.42500000000003
 10
193.97070000000011
 20
-17.91745000000002
 10
193.66365000000013
 20
-17.35270000000003
 10
193.40780000000007
 20
-16.86980000000003
 10
193.24130000000011
 20
-16.54730000000002
 10
193.18675000000013
 20
-16.43960000000002
 10
193.19005000000004
 20
-16.51420000000002
 10
193.19650000000016
 20
-16.73910000000003
 10
193.20330000000013
 20
-17.14760000000003
 10
193.20710000000014
 20
-17.74055000000002
 10
193.20845000000014
 20
-18.38050000000003
 10
193.20845000000014
 20
-18.59405000000003
 10
192.03300000000007
 20
-18.59405000000003
 10
192.03300000000007
 20
-14.73360000000002
 10
193.35630000000009
 20
-14.73360000000002
  0
LWPOLYLINE
  5
1AB
330
2D
100
AcDbEntity
  8
Planrahmen
  6
CONTINUOUS
 62
     7
370
     0
100
AcDbPolyline
 90
       31
 70
   129
 10
197.71950000000010
 20
-14.73360000000002
 10
197.81550000000007
 20
-14.90940000000002
 10
198.10250000000002
 20
-15.43805000000002
 10
198.40600000000003
 20
-16.00745000000002
 10
198.65150000000014
 20
-16.48680000000002
 10
198.81100000000001
 20
-16.81175000000002
 10
198.86250000000010
 20
-16.92110000000002
 10
198.85700000000011
 20
-16.83760000000002
 10
198.84500000000011
 20
-16.58690000000002
 10
198.83300000000008
 20
-16.17590000000002
 10
198.82600000000011
 20
-15.59055000000002
 10
198.82400000000004
 20
-14.94765000000002
 10
198.82400000000004
 20
-14.73360000000002
 10
200.00000000000011
 20
-14.73360000000002
 10
200.00000000000011
 20
-18.59405000000003
 10
198.70900000000009
 20
-18.59405000000003
 10
198.61450000000008
 20
-18.42500000000003
 10
198.33400000000017
 20
-17.91745000000002
 10
198.02700000000013
 20
-17.35270000000003
 10
197.77100000000007
 20
-16.86980000000003
 10
197.60450000000012
 20
-16.54730000000002
 10
197.55000000000007
 20
-16.43960000000002
 10
197.55350000000010
 20
-16.51420000000002
 10
197.56000000000012
 20
-16.73910000000003
 10
197.56700000000009
 20
-17.14760000000003
 10
197.57050000000004
 20
-17.74055000000002
 10
197.57200000000003
 20
-18.38050000000003
 10
197.57200000000003
 20
-18.59405000000003
 10
196.39650000000003
 20
-18.59405000000003
 10
196.39650000000003
 20
-14.73360000000002
 10
197.71950000000010
 20
-14.73360000000002
  0
LWPOLYLINE
  5
1AC
330
2D
100
AcDbEntity
  8
Planrahmen
  6
CONTINUOUS
 62
     7
370
     0
100
AcDbPolyline
 90
       20
 70
   129
 10
177.68675000000005
 20
-16.25405000000002
 10
177.66890000000006
 20
-16.27035000000002
 10
177.53944999999999
 20
-16.33030000000003
 10
177.35885000000002
 20
-16.35765000000002
 10
177.29885000000007
 20
-16.35765000000002
 10
176.75175000000016
 20
-16.35765000000002
 10
176.75175000000016
 20
-15.64695000000002
 10
177.28725000000006
 20
-15.64695000000002
 10
177.34149999999997
 20
-15.64695000000002
 10
177.50475000000003
 20
-15.66405000000003
 10
177.62925000000001
 20
-15.70555000000002
 10
177.64855000000006
 20
-15.71800000000002
 10
177.67159999999998
 20
-15.73295000000002
 10
177.74620000000002
 20
-15.83550000000002
 10
177.77415000000002
 20
-15.96055000000002
 10
177.77415000000002
 20
-16.00230000000002
 10
177.77415000000002
 20
-16.04030000000002
 10
177.75080000000003
 20
-16.15480000000002
 10
177.70035000000001
 20
-16.24020000000002
 10
177.68675000000005
 20
-16.25405000000002
  0
LWPOLYLINE
  5
1AD
330
2D
100
AcDbEntity
  8
Planrahmen
  6
CONTINUOUS
 62
     7
370
     0
100
AcDbPolyline
 90
       27
 70
   129
 10
178.23365000000007
 20
-17.06870000000003
 10
178.32185000000007
 20
-17.03800000000003
 10
178.57195000000010
 20
-16.90265000000003
 10
178.82070000000010
 20
-16.66445000000002
 10
178.97400000000013
 20
-16.34955000000003
 10
179.02655000000007
 20
-16.05225000000003
 10
179.02655000000007
 20
-15.95320000000002
 10
179.02655000000007
 20
-15.86640000000002
 10
178.99455000000003
 20
-15.60655000000002
 10
178.89444999999998
 20
-15.31925000000002
 10
178.71955000000000
 20
-15.08625000000002
 10
178.53205000000000
 20
-14.93975000000002
 10
178.46345000000014
 20
-14.90315000000003
 10
178.41815000000011
 20
-14.87875000000002
 10
178.27190000000010
 20
-14.82585000000002
 10
178.03130000000004
 20
-14.77320000000002
 10
177.73725000000002
 20
-14.74305000000002
 10
177.47355000000013
 20
-14.73360000000002
 10
177.38595000000007
 20
-14.73360000000002
 10
175.57035000000005
 20
-14.73360000000002
 10
175.57035000000005
 20
-18.59425000000003
 10
176.75175000000016
 20
-18.59425000000003
 10
176.75175000000016
 20
-17.26045000000002
 10
177.10195000000010
 20
-17.26045000000002
 10
177.84005000000008
 20
-18.59425000000003
 10
179.18530000000004
 20
-18.59425000000003
 10
178.23365000000007
 20
-17.06870000000003
  0
LWPOLYLINE
  5
1AE
330
2D
100
AcDbEntity
  8
Planrahmen
  6
CONTINUOUS
 62
     7
370
     0
100
AcDbPolyline
 90
       10
 70
   129
 10
172.81510000000006
 20
-17.12320000000003
 10
172.85880000000003
 20
-16.98645000000003
 10
173.03970000000007
 20
-16.39430000000002
 10
173.19080000000002
 20
-15.87405000000002
 10
173.21980000000008
 20
-15.77305000000002
 10
173.24560000000005
 20
-15.87405000000002
 10
173.38585000000000
 20
-16.39235000000002
 10
173.55595000000005
 20
-16.98515000000003
 10
173.59690000000001
 20
-17.12320000000003
 10
172.81510000000006
 20
-17.12320000000003
  0
LWPOLYLINE
  5
1AF
330
2D
100
AcDbEntity
  8
Planrahmen
  6
CONTINUOUS
 62
     7
370
     0
100
AcDbPolyline
 90
        9
 70
   129
 10
173.96310000000008
 20
-14.73390000000002
 10
172.54170000000008
 20
-14.73390000000002
 10
171.12540000000004
 20
-18.59405000000003
 10
172.40495000000004
 20
-18.59405000000003
 10
172.59649999999999
 20
-17.97120000000003
 10
173.82150000000001
 20
-17.97120000000003
 10
174.01274999999998
 20
-18.59405000000003
 10
175.31425000000004
 20
-18.59405000000003
 10
173.96310000000008
 20
-14.73390000000002
  0
LWPOLYLINE
  5
1B0
330
2D
100
AcDbEntity
  8
Planrahmen
  6
CONTINUOUS
 62
     7
370
     0
100
AcDbPolyline
 90
       10
 70
   129
 10
189.27755000000008
 20
-17.12320000000003
 10
189.32120000000012
 20
-16.98645000000003
 10
189.50240000000002
 20
-16.39430000000002
 10
189.65320000000014
 20
-15.87405000000002
 10
189.68225000000010
 20
-15.77305000000002
 10
189.70800000000014
 20
-15.87405000000002
 10
189.84800000000007
 20
-16.39235000000002
 10
190.01835000000005
 20
-16.98515000000003
 10
190.05955000000012
 20
-17.12320000000003
 10
189.27755000000008
 20
-17.12320000000003
  0
LWPOLYLINE
  5
1B1
330
2D
100
AcDbEntity
  8
Planrahmen
  6
CONTINUOUS
 62
     7
370
     0
100
AcDbPolyline
 90
        9
 70
   129
 10
190.42550000000008
 20
-14.73390000000002
 10
189.00379999999998
 20
-14.73390000000002
 10
187.58780000000013
 20
-18.59405000000003
 10
188.86760000000007
 20
-18.59405000000003
 10
189.05885000000006
 20
-17.97120000000003
 10
190.28389999999999
 20
-17.97120000000003
 10
190.47515000000010
 20
-18.59405000000003
 10
191.77640000000011
 20
-18.59405000000003
 10
190.42550000000008
 20
-14.73390000000002
  0
LWPOLYLINE
  5
1B2
330
2D
100
AcDbEntity
  8
Planrahmen
  6
CONTINUOUS
 62
     7
370
     0
100
AcDbPolyline
 90
       13
 70
   129
 10
169.67410000000001
 20
-13.87670000000002
 10
169.67410000000001
 20
-12.36160000000001
 10
168.54345000000001
 20
-12.36160000000001
 10
168.54345000000001
 20
-13.87670000000002
 10
167.34605000000005
 20
-13.87670000000002
 10
167.34605000000005
 20
-10.00050000000002
 10
168.54345000000001
 20
-10.00050000000002
 10
168.54345000000001
 20
-11.36230000000001
 10
169.67410000000001
 20
-11.36230000000001
 10
169.67410000000001
 20
-10.00050000000002
 10
170.87635000000006
 20
-10.00050000000002
 10
170.87635000000006
 20
-13.87670000000002
 10
169.67410000000001
 20
-13.87670000000002
  0
LWPOLYLINE
  5
1B3
330
2D
100
AcDbEntity
  8
Planrahmen
  6
CONTINUOUS
 62
     7
370
     0
100
AcDbPolyline
 90
        5
 70
   129
 10
172.26710000000006
 20
-8.99740000000002
 10
173.18050000000002
 20
-8.99740000000002
 10
173.18050000000002
 20
-9.77210000000001
 10
172.26710000000006
 20
-9.77210000000001
 10
172.26710000000006
 20
-8.99740000000002
  0
LWPOLYLINE
  5
1B4
330
2D
100
AcDbEntity
  8
Planrahmen
  6
CONTINUOUS
 62
     7
370
     0
100
AcDbPolyline
 90
       44
 70
   129
 10
168.55865000000000
 20
-24.60937000000003
 10
168.51905000000002
 20
-24.46830500000003
 10
168.40050000000002
 20
-24.04540500000003
 10
168.30665000000002
 20
-23.70577000000004
 10
168.25350000000003
 20
-23.50395000000003
 10
168.22605000000004
 20
-23.39055000000003
 10
168.21765000000002
 20
-23.35285000000003
 10
168.20925000000005
 20
-23.39085000000003
 10
168.18295000000003
 20
-23.50449500000003
 10
168.13115000000002
 20
-23.70631000000003
 10
168.03810000000004
 20
-24.04567500000003
 10
167.92035000000001
 20
-24.46830500000003
 10
167.88100000000003
 20
-24.60937000000003
 10
167.75050000000005
 20
-24.60937000000003
 10
167.35260000000005
 20
-23.16950000000003
 10
167.48740000000004
 20
-23.16950000000003
 10
167.52675000000002
 20
-23.31570000000003
 10
167.64445000000003
 20
-23.75487500000003
 10
167.74050000000003
 20
-24.11484500000003
 10
167.79365000000004
 20
-24.32182000000003
 10
167.81675000000004
 20
-24.41649500000004
 10
167.82380000000003
 20
-24.44823000000003
 10
167.83085000000005
 20
-24.41730500000003
 10
167.85335000000003
 20
-24.32534500000003
 10
167.90380000000002
 20
-24.12787000000003
 10
167.99740000000006
 20
-23.77060500000004
 10
168.11675000000000
 20
-23.31975000000004
 10
168.15665000000004
 20
-23.16950000000003
 10
168.27705000000000
 20
-23.16950000000003
 10
168.31800000000004
 20
-23.31840000000003
 10
168.44095000000002
 20
-23.76545000000003
 10
168.53800000000004
 20
-24.12298000000003
 10
168.59039999999999
 20
-24.32263000000003
 10
168.61400000000000
 20
-24.41487000000003
 10
168.62155000000004
 20
-24.44579000000004
 10
168.62780000000001
 20
-24.41432500000003
 10
168.64845000000003
 20
-24.32019500000003
 10
168.69565000000006
 20
-24.12189500000003
 10
168.78545000000003
 20
-23.76653500000003
 10
168.90129999999999
 20
-23.31865000000003
 10
168.94005000000004
 20
-23.16950000000003
 10
169.07025000000004
 20
-23.16950000000003
 10
168.68695000000002
 20
-24.60937000000003
 10
168.55865000000000
 20
-24.60937000000003
  0
LWPOLYLINE
  5
1B5
330
2D
100
AcDbEntity
  8
Planrahmen
  6
CONTINUOUS
 62
     7
370
     0
100
AcDbPolyline
 90
        5
 70
   129
 10
169.29515000000004
 20
-23.16950000000003
 10
169.42370000000003
 20
-23.16950000000003
 10
169.42370000000003
 20
-24.60937000000003
 10
169.29515000000004
 20
-24.60937000000003
 10
169.29515000000004
 20
-23.16950000000003
  0
LWPOLYLINE
  5
1B6
330
2D
100
AcDbEntity
  8
Planrahmen
  6
CONTINUOUS
 62
     7
370
     0
100
AcDbPolyline
 90
       20
 70
   129
 10
170.27385000000004
 20
-23.86066500000003
 10
170.32350000000005
 20
-23.86066500000003
 10
170.47300000000001
 20
-23.84086000000003
 10
170.58990000000000
 20
-23.79149500000003
 10
170.60615000000007
 20
-23.77684500000003
 10
170.62029999999999
 20
-23.76409500000003
 10
170.66970000000009
 20
-23.68651500000003
 10
170.69024999999999
 20
-23.59374500000003
 10
170.69024999999999
 20
-23.56308500000003
 10
170.69024999999999
 20
-23.53053500000003
 10
170.66370000000003
 20
-23.43370000000003
 10
170.60045000000008
 20
-23.35070000000003
 10
170.58230000000000
 20
-23.33850000000003
 10
170.56470000000007
 20
-23.32625000000003
 10
170.45400000000001
 20
-23.29370000000003
 10
170.31890000000001
 20
-23.28560000000003
 10
170.27385000000004
 20
-23.28560000000003
 10
169.93970000000004
 20
-23.28560000000003
 10
169.93970000000004
 20
-23.86066500000003
 10
170.27385000000004
 20
-23.86066500000003
  0
LWPOLYLINE
  5
1B7
330
2D
100
AcDbEntity
  8
Planrahmen
  6
CONTINUOUS
 62
     7
370
     0
100
AcDbPolyline
 90
       23
 70
   129
 10
170.71470000000005
 20
-24.60937000000003
 10
170.28420000000003
 20
-23.97704000000003
 10
169.93970000000004
 20
-23.97704000000003
 10
169.93970000000004
 20
-24.60937000000003
 10
169.81105000000005
 20
-24.60937000000003
 10
169.81105000000005
 20
-23.16950000000003
 10
170.25380000000004
 20
-23.16950000000003
 10
170.30425000000002
 20
-23.16950000000003
 10
170.45585000000005
 20
-23.17655000000003
 10
170.59775000000005
 20
-23.20530000000003
 10
170.62300000000002
 20
-23.21615000000003
 10
170.65175000000005
 20
-23.22835000000003
 10
170.76815000000005
 20
-23.34500000000003
 10
170.82639999999998
 20
-23.51128000000003
 10
170.82639999999998
 20
-23.56688000000003
 10
170.82639999999998
 20
-23.60486000000003
 10
170.79990000000006
 20
-23.71933500000003
 10
170.72195000000005
 20
-23.83815500000003
 10
170.59424999999999
 20
-23.92034500000003
 10
170.46320000000006
 20
-23.95778000000003
 10
170.41900000000001
 20
-23.96266500000003
 10
170.87365000000003
 20
-24.60937000000003
 10
170.71470000000005
 20
-24.60937000000003
  0
LWPOLYLINE
  5
1B8
330
2D
100
AcDbEntity
  8
Planrahmen
  6
CONTINUOUS
 62
     7
370
     0
100
AcDbPolyline
 90
       20
 70
   129
 10
171.71865000000003
 20
-24.49299500000003
 10
172.10194999999999
 20
-24.49299500000003
 10
172.14834999999999
 20
-24.49299500000003
 10
172.28775000000002
 20
-24.47400000000003
 10
172.39870000000008
 20
-24.42870000000003
 10
172.41420000000002
 20
-24.41568000000004
 10
172.42720000000006
 20
-24.40374500000003
 10
172.47274999999999
 20
-24.32887500000004
 10
172.49175000000000
 20
-24.23773000000004
 10
172.49175000000000
 20
-24.20762000000003
 10
172.49175000000000
 20
-24.17506000000003
 10
172.46845000000005
 20
-24.07768000000003
 10
172.41470000000010
 20
-23.99196000000003
 10
172.39955000000000
 20
-23.97866500000003
 10
172.38350000000008
 20
-23.96537500000003
 10
172.27905000000004
 20
-23.91926500000003
 10
172.14315000000008
 20
-23.89946000000003
 10
172.09790000000007
 20
-23.89946000000003
 10
171.71865000000003
 20
-23.89946000000003
 10
171.71865000000003
 20
-24.49299500000003
  0
LWPOLYLINE
  5
1B9
330
2D
100
AcDbEntity
  8
Planrahmen
  6
CONTINUOUS
 62
     7
370
     0
100
AcDbPolyline
 90
       20
 70
   129
 10
171.71865000000003
 20
-23.78525500000003
 10
172.08349999999999
 20
-23.78525500000003
 10
172.12255000000005
 20
-23.78525500000003
 10
172.24030000000008
 20
-23.77223500000003
 10
172.33195000000006
 20
-23.73995000000003
 10
172.34635000000003
 20
-23.73046000000003
 10
172.36260000000007
 20
-23.71961000000003
 10
172.41905000000008
 20
-23.64637000000003
 10
172.44265000000007
 20
-23.55468000000003
 10
172.44265000000007
 20
-23.52430000000003
 10
172.44265000000007
 20
-23.49662500000003
 10
172.42390000000000
 20
-23.41390000000004
 10
172.37185000000005
 20
-23.34415000000003
 10
172.35505000000001
 20
-23.33415000000003
 10
172.34175000000002
 20
-23.32600000000003
 10
172.24955000000003
 20
-23.29780000000003
 10
172.12799999999999
 20
-23.28560000000003
 10
172.08760000000007
 20
-23.28560000000003
 10
171.71865000000003
 20
-23.28560000000003
 10
171.71865000000003
 20
-23.78525500000003
  0
LWPOLYLINE
  5
1BA
330
2D
100
AcDbEntity
  8
Planrahmen
  6
CONTINUOUS
 62
     7
370
     0
100
AcDbPolyline
 90
       30
 70
   129
 10
172.12039999999999
 20
-23.16950000000003
 10
172.16435000000001
 20
-23.16950000000003
 10
172.29695000000007
 20
-23.18225000000004
 10
172.41040000000001
 20
-23.21480000000003
 10
172.42830000000004
 20
-23.22455000000003
 10
172.45435000000003
 20
-23.23865000000004
 10
172.53975000000005
 20
-23.33985000000003
 10
172.57315000000000
 20
-23.46896000000003
 10
172.57315000000000
 20
-23.51209000000003
 10
172.57315000000000
 20
-23.56308500000003
 10
172.51240000000007
 20
-23.71689500000003
 10
172.36810000000008
 20
-23.82432000000003
 10
172.32629999999997
 20
-23.83625000000003
 10
172.35960000000000
 20
-23.84168000000003
 10
172.45650000000006
 20
-23.87938000000003
 10
172.55035000000001
 20
-23.95778000000003
 10
172.60705000000004
 20
-24.06710500000003
 10
172.62630000000007
 20
-24.16964000000003
 10
172.62630000000007
 20
-24.20382000000004
 10
172.62630000000007
 20
-24.24641000000003
 10
172.59865000000002
 20
-24.37499500000003
 10
172.53005000000005
 20
-24.48404000000003
 10
172.50970000000004
 20
-24.50086000000004
 10
172.48820000000003
 20
-24.51822000000004
 10
172.33765000000005
 20
-24.58088000000003
 10
172.11795000000001
 20
-24.60909000000003
 10
172.04469999999998
 20
-24.60909000000003
 10
171.59004999999999
 20
-24.60909000000003
 10
171.59004999999999
 20
-23.16950000000003
 10
172.12039999999999
 20
-23.16950000000003
  0
LWPOLYLINE
  5
1BB
330
2D
100
AcDbEntity
  8
Planrahmen
  6
CONTINUOUS
 62
     7
370
     0
100
AcDbPolyline
 90
       20
 70
   129
 10
173.39510000000007
 20
-23.86066500000003
 10
173.44470000000007
 20
-23.86066500000003
 10
173.59420000000009
 20
-23.84086000000003
 10
173.71105000000003
 20
-23.79149500000003
 10
173.72740000000002
 20
-23.77684500000003
 10
173.74150000000006
 20
-23.76409500000003
 10
173.79085000000001
 20
-23.68651500000003
 10
173.81150000000005
 20
-23.59374500000003
 10
173.81150000000005
 20
-23.56308500000003
 10
173.81150000000005
 20
-23.53053500000003
 10
173.78490000000008
 20
-23.43370000000003
 10
173.72170000000003
 20
-23.35070000000003
 10
173.70350000000008
 20
-23.33850000000003
 10
173.68585000000007
 20
-23.32625000000003
 10
173.57515000000006
 20
-23.29370000000003
 10
173.44010000000003
 20
-23.28560000000003
 10
173.39510000000007
 20
-23.28560000000003
 10
173.06084999999999
 20
-23.28560000000003
 10
173.06084999999999
 20
-23.86066500000003
 10
173.39510000000007
 20
-23.86066500000003
  0
LWPOLYLINE
  5
1BC
330
2D
100
AcDbEntity
  8
Planrahmen
  6
CONTINUOUS
 62
     7
370
     0
100
AcDbPolyline
 90
       23
 70
   129
 10
173.83585000000008
 20
-24.60937000000003
 10
173.40539999999999
 20
-23.97704000000003
 10
173.06084999999999
 20
-23.97704000000003
 10
173.06084999999999
 20
-24.60937000000003
 10
172.93229999999997
 20
-24.60937000000003
 10
172.93229999999997
 20
-23.16950000000003
 10
173.37505000000002
 20
-23.16950000000003
 10
173.42545000000004
 20
-23.16950000000003
 10
173.57709999999997
 20
-23.17655000000003
 10
173.71900000000002
 20
-23.20530000000003
 10
173.74420000000006
 20
-23.21615000000003
 10
173.77320000000000
 20
-23.22835000000003
 10
173.88960000000003
 20
-23.34500000000003
 10
173.94795000000002
 20
-23.51128000000003
 10
173.94795000000002
 20
-23.56688000000003
 10
173.94795000000002
 20
-23.60486000000003
 10
173.92135000000002
 20
-23.71933500000003
 10
173.84349999999998
 20
-23.83815500000003
 10
173.71570000000008
 20
-23.92034500000003
 10
173.58470000000008
 20
-23.95778000000003
 10
173.54045000000002
 20
-23.96266500000003
 10
173.99510000000001
 20
-24.60937000000003
 10
173.83585000000008
 20
-24.60937000000003
  0
LWPOLYLINE
  5
1BD
330
2D
100
AcDbEntity
  8
Planrahmen
  6
CONTINUOUS
 62
     7
370
     0
100
AcDbPolyline
 90
       13
 70
   129
 10
174.26639999999998
 20
-24.60937000000003
 10
174.26639999999998
 20
-23.16950000000003
 10
175.18245000000005
 20
-23.16950000000003
 10
175.18245000000005
 20
-23.28750000000003
 10
174.39710000000002
 20
-23.28750000000003
 10
174.39710000000002
 20
-23.80804000000003
 10
175.11115000000004
 20
-23.80804000000003
 10
175.11115000000004
 20
-23.92604000000003
 10
174.39710000000002
 20
-23.92604000000003
 10
174.39710000000002
 20
-24.49136000000003
 10
175.23130000000003
 20
-24.49136000000003
 10
175.23130000000003
 20
-24.60937000000003
 10
174.26639999999998
 20
-24.60937000000003
  0
LWPOLYLINE
  5
1BE
330
2D
100
AcDbEntity
  8
Planrahmen
  6
CONTINUOUS
 62
     7
370
     0
100
AcDbPolyline
 90
       31
 70
   129
 10
176.47530000000006
 20
-24.60937000000003
 10
176.37954999999999
 20
-24.46505000000003
 10
176.09280000000010
 20
-24.03211000000003
 10
175.86035000000004
 20
-23.68055000000003
 10
175.72745000000006
 20
-23.47600500000003
 10
175.66370000000003
 20
-23.37485000000003
 10
175.64335000000003
 20
-23.34090000000003
 10
175.64364999999998
 20
-23.36860000000003
 10
175.64470000000003
 20
-23.45215000000003
 10
175.64605000000006
 20
-23.65071000000003
 10
175.64685000000009
 20
-24.01122000000003
 10
175.64740000000006
 20
-24.45962500000004
 10
175.64740000000006
 20
-24.60937000000003
 10
175.52290000000008
 20
-24.60937000000003
 10
175.52290000000008
 20
-23.16950000000003
 10
175.67185000000001
 20
-23.16950000000003
 10
175.77030000000011
 20
-23.31865000000003
 10
176.06600000000000
 20
-23.76735500000003
 10
176.30010000000013
 20
-24.12353000000003
 10
176.42675000000003
 20
-24.31911000000003
 10
176.48210000000003
 20
-24.40646000000003
 10
176.50025000000008
 20
-24.43575500000003
 10
176.49920000000003
 20
-24.40157500000004
 10
176.49730000000002
 20
-24.29903500000003
 10
176.49510000000006
 20
-24.08636000000003
 10
176.49405000000002
 20
-23.73181000000004
 10
176.49380000000008
 20
-23.31000000000003
 10
176.49380000000008
 20
-23.16950000000003
 10
176.62045000000009
 20
-23.16950000000003
 10
176.62045000000009
 20
-24.60937000000003
 10
176.47530000000006
 20
-24.60937000000003
  0
LWPOLYLINE
  5
1BF
330
2D
100
AcDbEntity
  8
Planrahmen
  6
CONTINUOUS
 62
     7
370
     0
100
AcDbPolyline
 90
       31
 70
   129
 10
177.96050000000014
 20
-24.60937000000003
 10
177.86475000000007
 20
-24.46505000000003
 10
177.57800000000006
 20
-24.03211000000003
 10
177.34525000000005
 20
-23.68055000000003
 10
177.21230000000003
 20
-23.47600500000003
 10
177.14855000000000
 20
-23.37485000000003
 10
177.12820000000002
 20
-23.34090000000003
 10
177.12850000000009
 20
-23.36860000000003
 10
177.12960000000004
 20
-23.45215000000003
 10
177.13100000000009
 20
-23.65071000000003
 10
177.13175000000010
 20
-24.01122000000003
 10
177.13230000000007
 20
-24.45962500000004
 10
177.13230000000007
 20
-24.60937000000003
 10
177.00810000000004
 20
-24.60937000000003
 10
177.00810000000004
 20
-23.16950000000003
 10
177.15705000000008
 20
-23.16950000000003
 10
177.25545000000002
 20
-23.31865000000003
 10
177.55115000000004
 20
-23.76735500000003
 10
177.78495000000009
 20
-24.12353000000003
 10
177.91195000000010
 20
-24.31911000000003
 10
177.96705000000006
 20
-24.40646000000003
 10
177.98515000000009
 20
-24.43575500000003
 10
177.98410000000015
 20
-24.40157500000004
 10
177.98220000000015
 20
-24.29903500000003
 10
177.98030000000014
 20
-24.08636000000003
 10
177.97920000000005
 20
-23.73181000000004
 10
177.97889999999998
 20
-23.31000000000003
 10
177.97889999999998
 20
-23.16950000000003
 10
178.10534999999999
 20
-23.16950000000003
 10
178.10534999999999
 20
-24.60937000000003
 10
177.96050000000014
 20
-24.60937000000003
  0
LWPOLYLINE
  5
1C0
330
2D
100
AcDbEntity
  8
Planrahmen
  6
CONTINUOUS
 62
     7
370
     0
100
AcDbPolyline
 90
       13
 70
   129
 10
178.49355000000006
 20
-24.60937000000003
 10
178.49355000000006
 20
-23.16950000000003
 10
179.40935000000007
 20
-23.16950000000003
 10
179.40935000000007
 20
-23.28750000000003
 10
178.62405000000010
 20
-23.28750000000003
 10
178.62405000000010
 20
-23.80804000000003
 10
179.33775000000011
 20
-23.80804000000003
 10
179.33775000000011
 20
-23.92604000000003
 10
178.62405000000010
 20
-23.92604000000003
 10
178.62405000000010
 20
-24.49136000000003
 10
179.45815000000005
 20
-24.49136000000003
 10
179.45815000000005
 20
-24.60937000000003
 10
178.49355000000006
 20
-24.60937000000003
  0
LWPOLYLINE
  5
1C1
330
2D
100
AcDbEntity
  8
Planrahmen
  6
CONTINUOUS
 62
     7
370
     0
100
AcDbPolyline
 90
       31
 70
   129
 10
180.70275000000007
 20
-24.60937000000003
 10
180.60694999999998
 20
-24.46505000000003
 10
180.32025000000002
 20
-24.03211000000003
 10
180.08755000000005
 20
-23.68055000000003
 10
179.95460000000003
 20
-23.47600500000003
 10
179.89085000000009
 20
-23.37485000000003
 10
179.87050000000011
 20
-23.34090000000003
 10
179.87080000000006
 20
-23.36860000000003
 10
179.87184999999999
 20
-23.45215000000003
 10
179.87320000000000
 20
-23.65071000000003
 10
179.87405000000007
 20
-24.01122000000003
 10
179.87455000000003
 20
-24.45962500000004
 10
179.87455000000003
 20
-24.60937000000003
 10
179.75030000000010
 20
-24.60937000000003
 10
179.75030000000010
 20
-23.16950000000003
 10
179.89924999999999
 20
-23.16950000000003
 10
179.99775000000000
 20
-23.31865000000003
 10
180.29345000000012
 20
-23.76735500000003
 10
180.52725000000007
 20
-24.12353000000003
 10
180.65390000000008
 20
-24.31911000000003
 10
180.70900000000006
 20
-24.40646000000003
 10
180.72720000000015
 20
-24.43575500000003
 10
180.72605000000001
 20
-24.40157500000004
 10
180.72420000000005
 20
-24.29903500000003
 10
180.72225000000003
 20
-24.08636000000003
 10
180.72120000000007
 20
-23.73181000000004
 10
180.72095000000016
 20
-23.31000000000003
 10
180.72095000000016
 20
-23.16950000000003
 10
180.84760000000006
 20
-23.16950000000003
 10
180.84760000000006
 20
-24.60937000000003
 10
180.70275000000007
 20
-24.60937000000003
  0
LWPOLYLINE
  5
1C2
330
2D
100
AcDbEntity
  8
Planrahmen
  6
CONTINUOUS
 62
     7
370
     0
100
AcDbPolyline
 90
       11
 70
   129
 10
181.68010000000007
 20
-24.60937000000003
 10
181.68010000000007
 20
-23.16950000000003
 10
182.59595000000002
 20
-23.16950000000003
 10
182.59595000000002
 20
-23.28750000000003
 10
181.81060000000011
 20
-23.28750000000003
 10
181.81060000000011
 20
-23.78715500000003
 10
182.51615000000004
 20
-23.78715500000003
 10
182.51615000000004
 20
-23.90759500000003
 10
181.81060000000011
 20
-23.90759500000003
 10
181.81060000000011
 20
-24.60937000000003
 10
181.68010000000007
 20
-24.60937000000003
  0
LWPOLYLINE
  5
1C3
330
2D
100
AcDbEntity
  8
Planrahmen
  6
CONTINUOUS
 62
     7
370
     0
100
AcDbPolyline
 90
        5
 70
   129
 10
183.59935000000010
 20
-22.86975000000003
 10
183.71760000000009
 20
-22.86975000000003
 10
183.71760000000009
 20
-23.03735000000003
 10
183.59935000000010
 20
-23.03735000000003
 10
183.59935000000010
 20
-22.86975000000003
  0
LWPOLYLINE
  5
1C4
330
2D
100
AcDbEntity
  8
Planrahmen
  6
CONTINUOUS
 62
     7
370
     0
100
AcDbPolyline
 90
        5
 70
   129
 10
183.11760000000004
 20
-22.86975000000003
 10
183.23800000000006
 20
-22.86975000000003
 10
183.23800000000006
 20
-23.03735000000003
 10
183.11760000000004
 20
-23.03735000000003
 10
183.11760000000004
 20
-22.86975000000003
  0
LWPOLYLINE
  5
1C5
330
2D
100
AcDbEntity
  8
Planrahmen
  6
CONTINUOUS
 62
     7
370
     0
100
AcDbPolyline
 90
       39
 70
   129
 10
183.94225000000003
 20
-23.97107000000003
 10
183.94225000000003
 20
-24.04350000000003
 10
183.92435000000000
 20
-24.26159500000003
 10
183.87170000000003
 20
-24.41812000000004
 10
183.85434999999998
 20
-24.44443500000003
 10
183.83290000000002
 20
-24.47590500000003
 10
183.67720000000014
 20
-24.58739000000004
 10
183.47650000000010
 20
-24.63595000000003
 10
183.40975000000009
 20
-24.63595000000003
 10
183.34379999999999
 20
-24.63595000000003
 10
183.14660000000009
 20
-24.58441000000003
 10
182.99195000000006
 20
-24.46939000000004
 10
182.97135000000003
 20
-24.43765500000003
 10
182.95240000000007
 20
-24.40916500000003
 10
182.90105000000005
 20
-24.24342500000003
 10
182.88755000000006
 20
-24.04323000000003
 10
182.88755000000006
 20
-23.97677000000003
 10
182.88755000000006
 20
-23.16950000000003
 10
183.01615000000010
 20
-23.16950000000003
 10
183.01615000000010
 20
-24.05462500000003
 10
183.01615000000010
 20
-24.09693500000003
 10
183.03050000000005
 20
-24.22389500000004
 10
183.07065000000006
 20
-24.34379000000003
 10
183.08335000000014
 20
-24.36495000000003
 10
183.09855000000013
 20
-24.38991000000004
 10
183.21550000000013
 20
-24.47970000000003
 10
183.36440000000005
 20
-24.51957500000003
 10
183.41405000000006
 20
-24.51957500000003
 10
183.46230000000014
 20
-24.51957500000003
 10
183.60775000000012
 20
-24.48594000000003
 10
183.72740000000016
 20
-24.40075500000003
 10
183.74635000000001
 20
-24.37499500000003
 10
183.76100000000000
 20
-24.35464500000004
 10
183.80224999999999
 20
-24.22932000000003
 10
183.81390000000002
 20
-24.09341500000003
 10
183.81390000000002
 20
-24.04838000000003
 10
183.81390000000002
 20
-23.16950000000003
 10
183.94225000000003
 20
-23.16950000000003
 10
183.94225000000003
 20
-23.97107000000003
  0
LWPOLYLINE
  5
1C6
330
2D
100
AcDbEntity
  8
Planrahmen
  6
CONTINUOUS
 62
     7
370
     0
100
AcDbPolyline
 90
       20
 70
   129
 10
184.79315000000011
 20
-23.86066500000003
 10
184.84280000000012
 20
-23.86066500000003
 10
184.99175000000017
 20
-23.84086000000003
 10
185.10890000000006
 20
-23.79149500000003
 10
185.12549999999999
 20
-23.77684500000003
 10
185.13960000000000
 20
-23.76409500000003
 10
185.18844999999999
 20
-23.68651500000003
 10
185.20935000000011
 20
-23.59374500000003
 10
185.20935000000011
 20
-23.56308500000003
 10
185.20935000000011
 20
-23.53053500000003
 10
185.18275000000000
 20
-23.43370000000003
 10
185.11925000000002
 20
-23.35070000000003
 10
185.10079999999999
 20
-23.33850000000003
 10
185.08345000000008
 20
-23.32625000000003
 10
184.97275000000008
 20
-23.29370000000003
 10
184.83795000000009
 20
-23.28560000000003
 10
184.79315000000011
 20
-23.28560000000003
 10
184.45815000000016
 20
-23.28560000000003
 10
184.45815000000016
 20
-23.86066500000003
 10
184.79315000000011
 20
-23.86066500000003
  0
LWPOLYLINE
  5
1C7
330
2D
100
AcDbEntity
  8
Planrahmen
  6
CONTINUOUS
 62
     7
370
     0
100
AcDbPolyline
 90
       23
 70
   129
 10
185.23315000000011
 20
-24.60937000000003
 10
184.80295000000007
 20
-23.97704000000003
 10
184.45815000000016
 20
-23.97704000000003
 10
184.45815000000016
 20
-24.60937000000003
 10
184.33010000000010
 20
-24.60937000000003
 10
184.33010000000010
 20
-23.16950000000003
 10
184.77280000000013
 20
-23.16950000000003
 10
184.82330000000007
 20
-23.16950000000003
 10
184.97470000000010
 20
-23.17655000000003
 10
185.11655000000010
 20
-23.20530000000003
 10
185.14175000000006
 20
-23.21615000000003
 10
185.17080000000001
 20
-23.22835000000003
 10
185.28720000000004
 20
-23.34500000000003
 10
185.34569999999999
 20
-23.51128000000003
 10
185.34569999999999
 20
-23.56688000000003
 10
185.34569999999999
 20
-23.60486000000003
 10
185.31920000000008
 20
-23.71933500000003
 10
185.24105000000006
 20
-23.83815500000003
 10
185.11300000000003
 20
-23.92034500000003
 10
184.98195000000001
 20
-23.95778000000003
 10
184.93775000000005
 20
-23.96266500000003
 10
185.39240000000007
 20
-24.60937000000003
 10
185.23315000000011
 20
-24.60937000000003
  0
LWPOLYLINE
  5
1C8
330
2D
100
AcDbEntity
  8
Planrahmen
  6
CONTINUOUS
 62
     7
370
     0
100
AcDbPolyline
 90
       25
 70
   129
 10
186.66140000000013
 20
-23.25900000000003
 10
186.61120000000014
 20
-23.25900000000003
 10
186.46120000000005
 20
-23.30160000000003
 10
186.30980000000002
 20
-23.42390000000003
 10
186.21380000000013
 20
-23.61598500000003
 10
186.18045000000009
 20
-23.80559500000003
 10
186.18045000000009
 20
-23.86880500000003
 10
186.18045000000009
 20
-23.93607500000003
 10
186.21460000000016
 20
-24.13871500000003
 10
186.31280000000001
 20
-24.34298000000003
 10
186.46745000000004
 20
-24.47237500000003
 10
186.62045000000009
 20
-24.51767500000003
 10
186.67140000000009
 20
-24.51767500000003
 10
186.71920000000014
 20
-24.51767500000003
 10
186.86265000000006
 20
-24.47482000000004
 10
187.00865000000005
 20
-24.35220000000003
 10
187.10195000000013
 20
-24.15689000000004
 10
187.13475000000008
 20
-23.96212000000003
 10
187.13475000000008
 20
-23.89728500000003
 10
187.13475000000008
 20
-23.82974500000004
 10
187.10170000000008
 20
-23.62791500000003
 10
187.00755000000007
 20
-23.42745000000003
 10
186.85835000000000
 20
-23.30210000000004
 10
186.71050000000017
 20
-23.25900000000003
 10
186.66140000000013
 20
-23.25900000000003
  0
LWPOLYLINE
  5
1C9
330
2D
100
AcDbEntity
  8
Planrahmen
  6
CONTINUOUS
 62
     7
370
     0
100
AcDbPolyline
 90
       30
 70
   129
 10
187.38165000000001
 20
-24.70512500000003
 10
187.29615000000004
 20
-24.79084000000004
 10
186.99400000000006
 20
-24.54019500000004
 10
186.97280000000009
 20
-24.55538000000003
 10
186.84775000000002
 20
-24.61072000000003
 10
186.71105000000014
 20
-24.63568000000003
 10
186.66570000000010
 20
-24.63568000000003
 10
186.59925000000015
 20
-24.63568000000003
 10
186.40045000000009
 20
-24.57980000000003
 10
186.20510000000007
 20
-24.42355000000003
 10
186.08470000000005
 20
-24.18320000000004
 10
186.04345000000006
 20
-23.95208500000003
 10
186.04345000000006
 20
-23.87531000000003
 10
186.04345000000006
 20
-23.79909000000003
 10
186.08635000000001
 20
-23.57122000000003
 10
186.20975000000013
 20
-23.34065000000003
 10
186.40559999999999
 20
-23.19415000000003
 10
186.60065000000009
 20
-23.14290000000003
 10
186.66570000000010
 20
-23.14290000000003
 10
186.73355000000006
 20
-23.14290000000003
 10
186.93780000000010
 20
-23.20310000000003
 10
187.12690000000015
 20
-23.36670000000003
 10
187.23730000000009
 20
-23.60730500000003
 10
187.27335000000005
 20
-23.82621500000003
 10
187.27335000000005
 20
-23.89919000000004
 10
187.27335000000005
 20
-23.97812500000003
 10
187.22650000000013
 20
-24.21521500000003
 10
187.11470000000014
 20
-24.42463000000003
 10
187.08210000000008
 20
-24.46043500000003
 10
187.38165000000001
 20
-24.70512500000003
  0
LWPOLYLINE
  5
1CA
330
2D
100
AcDbEntity
  8
Planrahmen
  6
CONTINUOUS
 62
     7
370
     0
100
AcDbPolyline
 90
       39
 70
   129
 10
188.65685000000005
 20
-23.97080000000004
 10
188.65685000000005
 20
-24.04350000000003
 10
188.63890000000009
 20
-24.26159500000003
 10
188.58635000000007
 20
-24.41812000000004
 10
188.56920000000005
 20
-24.44416000000003
 10
188.54780000000011
 20
-24.47563000000003
 10
188.39210000000011
 20
-24.58739000000004
 10
188.19135000000003
 20
-24.63595000000003
 10
188.12460000000002
 20
-24.63595000000003
 10
188.05870000000007
 20
-24.63595000000003
 10
187.86150000000006
 20
-24.58414000000003
 10
187.70660000000001
 20
-24.46939000000004
 10
187.68600000000006
 20
-24.43792500000003
 10
187.66695000000004
 20
-24.40916500000003
 10
187.61570000000012
 20
-24.24342500000003
 10
187.60245000000015
 20
-24.04377000000003
 10
187.60245000000015
 20
-23.97731500000003
 10
187.60245000000015
 20
-23.16920000000004
 10
187.73045000000005
 20
-23.16920000000004
 10
187.73045000000005
 20
-24.05489500000003
 10
187.73045000000005
 20
-24.09721500000003
 10
187.74510000000004
 20
-24.22416500000004
 10
187.78550000000010
 20
-24.34379000000003
 10
187.79830000000001
 20
-24.36495000000003
 10
187.81350000000000
 20
-24.38964000000003
 10
187.93010000000015
 20
-24.47943000000003
 10
188.07905000000008
 20
-24.51957500000003
 10
188.12870000000009
 20
-24.51957500000003
 10
188.17695000000006
 20
-24.51957500000003
 10
188.32210000000009
 20
-24.48594000000003
 10
188.44225000000009
 20
-24.40048500000004
 10
188.46130000000011
 20
-24.37471500000003
 10
188.47595000000010
 20
-24.35437500000003
 10
188.51690000000016
 20
-24.22905000000003
 10
188.52855000000008
 20
-24.09314500000003
 10
188.52855000000008
 20
-24.04811000000003
 10
188.52855000000008
 20
-23.16920000000004
 10
188.65685000000005
 20
-23.16920000000004
 10
188.65685000000005
 20
-23.97080000000004
  0
LWPOLYLINE
  5
1CB
330
2D
100
AcDbEntity
  8
Planrahmen
  6
CONTINUOUS
 62
     7
370
     0
100
AcDbPolyline
 90
       14
 70
   129
 10
189.78670000000014
 20
-24.07687000000004
 10
189.75710000000007
 20
-23.99739000000003
 10
189.66890000000009
 20
-23.75948500000003
 10
189.59160000000014
 20
-23.55088000000003
 10
189.54140000000012
 20
-23.41335000000003
 10
189.51380000000000
 20
-23.33550000000003
 10
189.50510000000003
 20
-23.30970000000003
 10
189.49615000000003
 20
-23.33550000000003
 10
189.46850000000009
 20
-23.41255000000003
 10
189.41745000000003
 20
-23.55115500000003
 10
189.33880000000008
 20
-23.76084000000003
 10
189.24925000000007
 20
-23.99793000000004
 10
189.21945000000011
 20
-24.07687000000004
 10
189.78670000000014
 20
-24.07687000000004
  0
LWPOLYLINE
  5
1CC
330
2D
100
AcDbEntity
  8
Planrahmen
  6
CONTINUOUS
 62
     7
370
     0
100
AcDbPolyline
 90
        9
 70
   129
 10
189.97870000000012
 20
-24.60909000000003
 10
189.82765000000006
 20
-24.18917500000003
 10
189.17685000000012
 20
-24.18917500000003
 10
189.02410000000009
 20
-24.60909000000003
 10
188.88095000000010
 20
-24.60909000000003
 10
189.44220000000016
 20
-23.16950000000003
 10
189.57670000000010
 20
-23.16950000000003
 10
190.12140000000016
 20
-24.60909000000003
 10
189.97870000000012
 20
-24.60909000000003
  0
LWPOLYLINE
  5
1CD
330
2D
100
AcDbEntity
  8
Planrahmen
  6
CONTINUOUS
 62
     7
370
     0
100
AcDbPolyline
 90
        7
 70
   129
 10
190.34600000000006
 20
-24.60937000000003
 10
190.34600000000006
 20
-23.16950000000003
 10
190.47405000000012
 20
-23.16950000000003
 10
190.47405000000012
 20
-24.49136000000003
 10
191.24120000000005
 20
-24.49136000000003
 10
191.24120000000005
 20
-24.60937000000003
 10
190.34600000000006
 20
-24.60937000000003
  0
LWPOLYLINE
  5
1CE
330
2D
100
AcDbEntity
  8
Planrahmen
  6
CONTINUOUS
 62
     7
370
     0
100
AcDbPolyline
 90
        5
 70
   129
 10
191.52280000000016
 20
-23.16950000000003
 10
191.65105000000008
 20
-23.16950000000003
 10
191.65105000000008
 20
-24.60937000000003
 10
191.52280000000016
 20
-24.60937000000003
 10
191.52280000000016
 20
-23.16950000000003
  0
LWPOLYLINE
  5
1CF
330
2D
100
AcDbEntity
  8
Planrahmen
  6
CONTINUOUS
 62
     7
370
     0
100
AcDbPolyline
 90
        9
 70
   129
 10
192.36940000000007
 20
-24.60937000000003
 10
192.36940000000007
 20
-23.28750000000003
 10
191.92915000000016
 20
-23.28750000000003
 10
191.92915000000016
 20
-23.16950000000003
 10
192.94475000000006
 20
-23.16950000000003
 10
192.94475000000006
 20
-23.28750000000003
 10
192.50205000000003
 20
-23.28750000000003
 10
192.50205000000003
 20
-24.60937000000003
 10
192.36940000000007
 20
-24.60937000000003
  0
LWPOLYLINE
  5
1D0
330
2D
100
AcDbEntity
  8
Planrahmen
  6
CONTINUOUS
 62
     7
370
     0
100
AcDbPolyline
 90
        5
 70
   129
 10
193.86630000000011
 20
-22.86975000000003
 10
193.98425000000015
 20
-22.86975000000003
 10
193.98425000000015
 20
-23.03735000000003
 10
193.86630000000011
 20
-23.03735000000003
 10
193.86630000000011
 20
-22.86975000000003
  0
LWPOLYLINE
  5
1D1
330
2D
100
AcDbEntity
  8
Planrahmen
  6
CONTINUOUS
 62
     7
370
     0
100
AcDbPolyline
 90
       14
 70
   129
 10
193.96635000000012
 20
-24.07714000000003
 10
193.93705000000011
 20
-23.99766000000003
 10
193.84865000000002
 20
-23.75948500000003
 10
193.77135000000007
 20
-23.55088000000003
 10
193.72115000000016
 20
-23.41360000000003
 10
193.69350000000011
 20
-23.33575000000003
 10
193.68480000000017
 20
-23.31000000000003
 10
193.67585000000014
 20
-23.33575000000003
 10
193.64815000000007
 20
-23.41280000000003
 10
193.59720000000007
 20
-23.55142500000003
 10
193.51850000000010
 20
-23.76111000000003
 10
193.42900000000000
 20
-23.99820000000003
 10
193.39910000000009
 20
-24.07714000000003
 10
193.96635000000012
 20
-24.07714000000003
  0
LWPOLYLINE
  5
1D2
330
2D
100
AcDbEntity
  8
Planrahmen
  6
CONTINUOUS
 62
     7
370
     0
100
AcDbPolyline
 90
        5
 70
   129
 10
193.38505000000012
 20
-22.86975000000003
 10
193.50545000000014
 20
-22.86975000000003
 10
193.50545000000014
 20
-23.03735000000003
 10
193.38505000000012
 20
-23.03735000000003
 10
193.38505000000012
 20
-22.86975000000003
  0
LWPOLYLINE
  5
1D3
330
2D
100
AcDbEntity
  8
Planrahmen
  6
CONTINUOUS
 62
     7
370
     0
100
AcDbPolyline
 90
        9
 70
   129
 10
194.15870000000018
 20
-24.60909000000003
 10
194.00730000000016
 20
-24.18917500000003
 10
193.35655000000000
 20
-24.18917500000003
 10
193.20385000000013
 20
-24.60909000000003
 10
193.06060000000008
 20
-24.60909000000003
 10
193.62185000000014
 20
-23.16950000000003
 10
193.75640000000010
 20
-23.16950000000003
 10
194.30085000000003
 20
-24.60909000000003
 10
194.15870000000018
 20
-24.60909000000003
  0
LWPOLYLINE
  5
1D4
330
2D
100
AcDbEntity
  8
Planrahmen
  6
CONTINUOUS
 62
     7
370
     0
100
AcDbPolyline
 90
        9
 70
   129
 10
194.85585000000012
 20
-24.60937000000003
 10
194.85585000000012
 20
-23.28750000000003
 10
194.41585000000012
 20
-23.28750000000003
 10
194.41585000000012
 20
-23.16950000000003
 10
195.43150000000014
 20
-23.16950000000003
 10
195.43150000000014
 20
-23.28750000000003
 10
194.98880000000011
 20
-23.28750000000003
 10
194.98880000000011
 20
-24.60937000000003
 10
194.85585000000012
 20
-24.60937000000003
  0
LWPOLYLINE
  5
1D5
330
2D
100
AcDbEntity
  8
Planrahmen
  6
CONTINUOUS
 62
    20
370
     0
100
AcDbPolyline
 90
       21
 70
   129
 10
149.30544499999999
 20
-10.00000000000002
 10
149.30544499999999
 20
-16.01565000000002
 10
152.74295000000001
 20
-16.01565000000002
 10
152.74295000000001
 20
-13.43725000000002
 10
156.18045000000001
 20
-13.43725000000002
 10
156.18045000000001
 20
-21.17215000000003
 10
152.74295000000001
 20
-21.17215000000003
 10
152.74295000000001
 20
-18.59405000000003
 10
149.30544499999999
 20
-18.59405000000003
 10
149.30544499999999
 20
-24.60937000000003
 10
163.91479999999999
 20
-24.60937000000003
 10
163.91479999999999
 20
-18.59405000000003
 10
160.47760000000002
 20
-18.59405000000003
 10
160.47760000000002
 20
-21.17215000000003
 10
157.03954999999999
 20
-21.17215000000003
 10
157.03954999999999
 20
-13.43725000000002
 10
160.47760000000002
 20
-13.43725000000002
 10
160.47760000000002
 20
-16.01565000000002
 10
163.91479999999999
 20
-16.01565000000002
 10
163.91479999999999
 20
-10.00000000000002
 10
149.30544499999999
 20
-10.00000000000002
  0
MTEXT
  5
1D6
330
2D
100
AcDbEntity
  8
Planrahmen
 62
     7
370
    25
100
AcDbMText
 10
165.00000000000034
 20
-69.99999999999970
 30
0.00000000000000
 40
2.50000000000000
 41
0.00000000000000
 71
     7
 72
     1
  1
\fArial|b0|i0;Stand:\PMassstab:
 11
1.00000000000000
 21
0.00000000000000
 31
0.00000000000000
 73
     1
 44
1.00000000000000
  0
MTEXT
  5
1D7
330
2D
100
AcDbEntity
  8
Planrahmen
 62
     7
370
    25
100
AcDbMText
 10
200.00000000000023
 20
-69.99999999999982
 30
0.00000000000000
 40
2.50000000000000
 41
0.00000000000000
 71
     9
 72
     1
  1
\fArial|b0|i0;02/2021\P1:5
 11
1.00000000000000
 21
0.00000000000000
 31
0.00000000000000
 73
     1
 44
1.00000000000000
  0
INSERT
  5
42
330
2D
100
AcDbEntity
  8
Planrahmen
 62
     5
370
    25
100
AcDbBlockReference
  2
*U15
 10
0.00000000000000
 20
0.00000000000000
 30
0.00000000000000
  0
MTEXT
  5
1D8
330
2D
100
AcDbEntity
  8
# Zeichnungen 10
 62
     7
370
    25
100
AcDbMText
 10
25.00000000000012
 20
-281.99999999999955
 30
0.00000000000000
 40
2.50000000000000
 41
0.00000000000000
 71
     1
 72
     1
  3
\fArial Narrow|b0|i0;Wir übernehmen keine Haftung für die Vollständigkeit und Eignung der abgebildeten Darstellungen an konkreten Objekten. Die projektbezogene\PAusführbarkeit der Details muss in jedem Fall vom jeweiligen Fachplaner/Architekten geprü
  1
ft werden.
 11
1.00000000000000
 21
0.00000000000000
 31
0.00000000000000
 73
     1
 44
1.00000000000000
  0
ENDSEC
  0
SECTION
  2
OBJECTS
  0
DICTIONARY
  5
1D9
330
0
100
AcDbDictionary
281
     1
  3
ACAD_GROUP
350
1DA
  3
ACAD_PLOTSTYLENAME
350
1DB
  3
ACAD_MLINESTYLE
350
1DC
  3
ACAD_LAYOUT
350
1DD
  0
DICTIONARY
  5
1DA
102
{ACAD_REACTORS
330
1D9
102
}
330
1D9
100
AcDbDictionary
281
     1
  0
ACDBDICTIONARYWDFLT
  5
1DB
102
{ACAD_REACTORS
330
1D9
102
}
330
1D9
100
AcDbDictionary
281
     1
  3
Normal
350
1
100
AcDbDictionaryWithDefault
340
1
  0
DICTIONARY
  5
1DC
102
{ACAD_REACTORS
330
1D9
102
}
330
1D9
100
AcDbDictionary
281
     1
  3
STANDARD
350
1DE
  0
DICTIONARY
  5
1DD
102
{ACAD_REACTORS
330
1D9
102
}
330
1D9
100
AcDbDictionary
281
     1
  0
ACDBPLACEHOLDER
  5
1
102
{ACAD_REACTORS
330
1DB
102
}
330
1DB
  0
MLINESTYLE
  5
1DE
102
{ACAD_REACTORS
330
1DC
102
}
330
1DC
100
AcDbMlineStyle
  2
STANDARD
 70
     0
  3

 62
   256
 51
90.00000000000000
 52
90.00000000000000
 71
     2
 49
0.50000000000000
 62
   256
  6
BYLAYER
 49
-0.50000000000000
 62
   256
  6
BYLAYER
  0
ENDSEC
  0
EOF
